999
Erzeugt mit innoplus bad 
0
SECTION
2
HEADER
9
$ACADVER
1
AC1009
9
$DWGCODEPAGE
3
ISO8859-1
0
ENDSEC
0
SECTION
2
TABLES
0
TABLE
2
LAYER
70
1
0
LAYER
2
0
70
0
62
7
6
CONTINUOUS
0
ENDTAB
0
ENDSEC
0
SECTION
2
ENTITIES
0
LINE
8
0
6
CONTINUOUS
10
28.824765
20
83.690030
30
0.0
11
28.824765
21
83.048090
31
0.0
0
LINE
8
0
6
CONTINUOUS
10
90.225225
20
83.048010
30
0.0
11
90.225225
21
83.689950
31
0.0
0
LINE
8
0
6
CONTINUOUS
10
28.824765
20
83.048090
30
0.0
11
29.104785
21
82.089230
31
0.0
0
LINE
8
0
6
CONTINUOUS
10
29.104785
20
82.089230
30
0.0
11
29.692635
21
82.089230
31
0.0
0
LINE
8
0
6
CONTINUOUS
10
29.692635
20
82.089230
30
0.0
11
31.392995
21
82.089230
31
0.0
0
LINE
8
0
6
CONTINUOUS
10
31.392995
20
82.089230
30
0.0
11
34.196055
21
82.089230
31
0.0
0
LINE
8
0
6
CONTINUOUS
10
34.196055
20
82.089230
30
0.0
11
37.953935
21
82.089230
31
0.0
0
LINE
8
0
6
CONTINUOUS
10
37.953935
20
82.089230
30
0.0
11
42.520355
21
82.089230
31
0.0
0
LINE
8
0
6
CONTINUOUS
10
42.520355
20
82.089230
30
0.0
11
47.749765
21
82.089230
31
0.0
0
LINE
8
0
6
CONTINUOUS
10
47.749765
20
82.089230
30
0.0
11
53.428635
21
82.089230
31
0.0
0
LINE
8
0
6
CONTINUOUS
10
53.428635
20
82.089230
30
0.0
11
59.339845
21
82.089230
31
0.0
0
LINE
8
0
6
CONTINUOUS
10
59.339845
20
82.089230
30
0.0
11
65.253005
21
82.089230
31
0.0
0
LINE
8
0
6
CONTINUOUS
10
65.253005
20
82.089230
30
0.0
11
70.951465
21
82.089230
31
0.0
0
LINE
8
0
6
CONTINUOUS
10
70.951465
20
82.089230
30
0.0
11
76.176145
21
82.089230
31
0.0
0
LINE
8
0
6
CONTINUOUS
10
81.160945
20
83.048050
30
0.0
11
76.419655
21
83.048050
31
0.0
0
LINE
8
0
6
CONTINUOUS
10
76.176145
20
82.089230
30
0.0
11
80.769715
21
82.089230
31
0.0
0
LINE
8
0
6
CONTINUOUS
10
84.973605
20
83.048010
30
0.0
11
81.160945
21
83.048050
31
0.0
0
LINE
8
0
6
CONTINUOUS
10
80.769715
20
82.089230
30
0.0
11
84.541135
21
82.089230
31
0.0
0
LINE
8
0
6
CONTINUOUS
10
87.840655
20
83.048010
30
0.0
11
84.973605
21
83.048010
31
0.0
0
LINE
8
0
6
CONTINUOUS
10
84.541135
20
82.089230
30
0.0
11
87.346915
21
82.089230
31
0.0
0
LINE
8
0
6
CONTINUOUS
10
89.668235
20
83.048010
30
0.0
11
87.840655
21
83.048010
31
0.0
0
LINE
8
0
6
CONTINUOUS
10
87.346915
20
82.089230
30
0.0
11
89.077835
21
82.089230
31
0.0
0
LINE
8
0
6
CONTINUOUS
10
90.225225
20
83.048010
30
0.0
11
89.668235
21
83.048010
31
0.0
0
LINE
8
0
6
CONTINUOUS
10
89.657955
20
82.089230
30
0.0
11
90.225225
21
83.048010
31
0.0
0
LINE
8
0
6
CONTINUOUS
10
89.077835
20
82.089230
30
0.0
11
89.657955
21
82.089230
31
0.0
0
LINE
8
0
6
CONTINUOUS
10
28.824715
20
97.093850
30
0.0
11
28.824765
21
83.690030
31
0.0
0
LINE
8
0
6
CONTINUOUS
10
90.225225
20
83.689950
30
0.0
11
90.225225
21
97.093770
31
0.0
0
LINE
8
0
6
CONTINUOUS
10
29.421105
20
98.160770
30
0.0
11
28.824715
21
98.160770
31
0.0
0
LINE
8
0
6
CONTINUOUS
10
28.824715
20
98.160770
30
0.0
11
28.824715
21
97.093850
31
0.0
0
LINE
8
0
6
CONTINUOUS
10
31.104295
20
98.160770
30
0.0
11
29.421105
21
98.160770
31
0.0
0
LINE
8
0
6
CONTINUOUS
10
37.748285
20
98.160760
30
0.0
11
33.975085
21
98.160760
31
0.0
0
LINE
8
0
6
CONTINUOUS
10
47.660845
20
98.160720
30
0.0
11
42.315865
21
98.160720
31
0.0
0
LINE
8
0
6
CONTINUOUS
10
53.367725
20
98.160720
30
0.0
11
47.660845
21
98.160720
31
0.0
0
LINE
8
0
6
CONTINUOUS
10
59.310205
20
98.160720
30
0.0
11
53.367725
21
98.160720
31
0.0
0
LINE
8
0
6
CONTINUOUS
10
65.362915
20
98.160720
30
0.0
11
59.310205
21
98.160720
31
0.0
0
LINE
8
0
6
CONTINUOUS
10
71.100695
20
98.160720
30
0.0
11
65.362915
21
98.160720
31
0.0
0
LINE
8
0
6
CONTINUOUS
10
76.419655
20
98.160720
30
0.0
11
71.100695
21
98.160720
31
0.0
0
LINE
8
0
6
CONTINUOUS
10
81.160945
20
98.160720
30
0.0
11
76.419655
21
98.160720
31
0.0
0
LINE
8
0
6
CONTINUOUS
10
84.973665
20
98.160690
30
0.0
11
81.160945
21
98.160720
31
0.0
0
LINE
8
0
6
CONTINUOUS
10
90.225225
20
98.160690
30
0.0
11
89.668235
21
98.160690
31
0.0
0
LINE
8
0
6
CONTINUOUS
10
90.225225
20
97.093770
30
0.0
11
90.225225
21
98.160690
31
0.0
0
LINE
8
0
6
CONTINUOUS
10
89.668235
20
98.160690
30
0.0
11
87.840655
21
98.160720
31
0.0
0
LINE
8
0
6
CONTINUOUS
10
89.633405
20
98.160730
30
0.0
11
88.724995
21
98.160730
31
0.0
0
LINE
8
0
6
CONTINUOUS
10
90.225225
20
98.160690
30
0.0
11
89.633405
21
98.160730
31
0.0
0
LINE
8
0
6
CONTINUOUS
10
76.502095
20
98.160740
30
0.0
11
75.988755
21
98.160740
31
0.0
0
LINE
8
0
6
CONTINUOUS
10
81.159075
20
98.160730
30
0.0
11
76.502095
21
98.160740
31
0.0
0
LINE
8
0
6
CONTINUOUS
10
47.596225
20
98.160740
30
0.0
11
47.958375
21
98.160740
31
0.0
0
LINE
8
0
6
CONTINUOUS
10
53.307815
20
98.160780
30
0.0
11
47.596225
21
98.160740
31
0.0
0
LINE
8
0
6
CONTINUOUS
10
53.495345
20
98.160780
30
0.0
11
53.307815
21
98.160780
31
0.0
0
LINE
8
0
6
CONTINUOUS
10
37.667945
20
98.160770
30
0.0
11
38.326685
21
98.160770
31
0.0
0
LINE
8
0
6
CONTINUOUS
10
42.339005
20
98.160780
30
0.0
11
37.667945
21
98.160770
31
0.0
0
LINE
8
0
6
CONTINUOUS
10
42.854445
20
98.160780
30
0.0
11
42.339005
21
98.160780
31
0.0
0
LINE
8
0
6
CONTINUOUS
10
33.975085
20
98.160760
30
0.0
11
34.744285
21
98.160760
31
0.0
0
LINE
8
0
6
CONTINUOUS
10
31.104295
20
98.160770
30
0.0
11
33.975085
21
98.160760
31
0.0
0
LINE
8
0
6
CONTINUOUS
10
37.748285
20
98.160760
30
0.0
11
42.315865
21
98.160720
31
0.0
0
LINE
8
0
6
CONTINUOUS
10
38.406085
20
98.160760
30
0.0
11
37.748285
21
98.160760
31
0.0
0
LINE
8
0
6
CONTINUOUS
10
84.973665
20
98.160690
30
0.0
11
87.840655
21
98.160720
31
0.0
0
LINE
8
0
6
CONTINUOUS
10
59.524495
20
98.160730
30
0.0
11
38.406085
21
98.160760
31
0.0
0
LINE
8
0
6
CONTINUOUS
10
42.835135
20
98.160720
30
0.0
11
59.524495
21
98.160730
31
0.0
0
LINE
8
0
6
CONTINUOUS
10
86.988125
20
98.160720
30
0.0
11
59.524495
21
98.160730
31
0.0
0
LINE
8
0
6
CONTINUOUS
10
59.524495
20
98.160730
30
0.0
11
42.854445
21
98.160780
31
0.0
0
LINE
8
0
6
CONTINUOUS
10
38.326685
20
98.160770
30
0.0
11
59.524495
21
98.160730
31
0.0
0
LINE
8
0
6
CONTINUOUS
10
59.524495
20
98.160730
30
0.0
11
53.495345
21
98.160780
31
0.0
0
LINE
8
0
6
CONTINUOUS
10
47.958375
20
98.160740
30
0.0
11
59.524495
21
98.160730
31
0.0
0
LINE
8
0
6
CONTINUOUS
10
75.988755
20
98.160740
30
0.0
11
59.524495
21
98.160730
31
0.0
0
LINE
8
0
6
CONTINUOUS
10
88.724995
20
98.160730
30
0.0
11
59.524495
21
98.160730
31
0.0
0
LINE
8
0
6
CONTINUOUS
10
59.424265
20
15.798469
30
0.0
11
59.424265
21
82.089230
31
0.0
0
LINE
8
0
6
CONTINUOUS
10
62.966425
20
82.089230
30
0.0
11
62.966425
21
15.269266
31
0.0
0
LINE
8
0
6
CONTINUOUS
10
50.546135
20
11.795886
30
0.0
11
50.546135
21
82.089230
31
0.0
0
LINE
8
0
6
CONTINUOUS
10
49.819295
20
82.089230
30
0.0
11
49.819295
21
11.069057
31
0.0
0
LINE
8
0
6
CONTINUOUS
10
68.934855
20
11.364315
30
0.0
11
68.934855
21
82.089230
31
0.0
0
LINE
8
0
6
CONTINUOUS
10
49.411905
20
-4.033090
30
0.0
11
52.177335
21
-6.798520
31
0.0
0
LINE
8
0
6
CONTINUOUS
10
59.524705
20
-9.185840
30
0.0
11
63.387455
21
-8.574040
31
0.0
0
LINE
8
0
6
CONTINUOUS
10
69.637505
20
-4.033110
30
0.0
11
71.413025
21
-0.548480
31
0.0
0
LINE
8
0
6
CONTINUOUS
10
71.413035
20
7.177020
30
0.0
11
69.637505
21
10.661660
31
0.0
0
LINE
8
0
6
CONTINUOUS
10
63.387455
20
15.202580
30
0.0
11
59.524725
21
15.814390
31
0.0
0
LINE
8
0
6
CONTINUOUS
10
52.177335
20
13.427080
30
0.0
11
49.411905
21
10.661670
31
0.0
0
LINE
8
0
6
CONTINUOUS
10
47.024615
20
3.314280
30
0.0
11
47.636395
21
-0.548450
31
0.0
0
LINE
8
0
6
CONTINUOUS
10
47.636395
20
7.177030
30
0.0
11
47.024615
21
3.314280
31
0.0
0
LINE
8
0
6
CONTINUOUS
10
47.636395
20
-0.548450
30
0.0
11
49.411905
21
-4.033090
31
0.0
0
LINE
8
0
6
CONTINUOUS
10
72.024855
20
3.314280
30
0.0
11
71.413035
21
7.177020
31
0.0
0
LINE
8
0
6
CONTINUOUS
10
55.661985
20
15.202590
30
0.0
11
52.177335
21
13.427080
31
0.0
0
LINE
8
0
6
CONTINUOUS
10
66.872105
20
13.427080
30
0.0
11
63.387455
21
15.202580
31
0.0
0
LINE
8
0
6
CONTINUOUS
10
55.661985
20
-8.574040
30
0.0
11
59.524705
21
-9.185840
31
0.0
0
LINE
8
0
6
CONTINUOUS
10
52.177335
20
-6.798520
30
0.0
11
55.661985
21
-8.574040
31
0.0
0
LINE
8
0
6
CONTINUOUS
10
71.413025
20
-0.548480
30
0.0
11
72.024855
21
3.314280
31
0.0
0
LINE
8
0
6
CONTINUOUS
10
69.637505
20
10.661660
30
0.0
11
66.872105
21
13.427080
31
0.0
0
LINE
8
0
6
CONTINUOUS
10
59.524725
20
15.814390
30
0.0
11
55.661985
21
15.202590
31
0.0
0
LINE
8
0
6
CONTINUOUS
10
49.411905
20
10.661670
30
0.0
11
47.636395
21
7.177030
31
0.0
0
LINE
8
0
6
CONTINUOUS
10
66.872085
20
-6.798500
30
0.0
11
63.387455
21
-8.574040
31
0.0
0
LINE
8
0
6
CONTINUOUS
10
69.637505
20
-4.033110
30
0.0
11
66.872085
21
-6.798500
31
0.0
0
LINE
8
0
6
CONTINUOUS
10
28.824765
20
83.048090
30
0.0
11
29.104785
21
82.089230
31
0.0
0
LINE
8
0
6
CONTINUOUS
10
37.748285
20
98.160760
30
0.0
11
33.975085
21
98.160760
31
0.0
0
LINE
8
0
6
CONTINUOUS
10
89.633405
20
98.160730
30
0.0
11
88.724995
21
98.160730
31
0.0
0
LINE
8
0
6
CONTINUOUS
10
90.225225
20
98.160690
30
0.0
11
89.633405
21
98.160730
31
0.0
0
LINE
8
0
6
CONTINUOUS
10
76.502095
20
98.160740
30
0.0
11
75.988755
21
98.160740
31
0.0
0
LINE
8
0
6
CONTINUOUS
10
81.159075
20
98.160730
30
0.0
11
76.502095
21
98.160740
31
0.0
0
LINE
8
0
6
CONTINUOUS
10
47.596225
20
98.160740
30
0.0
11
47.958375
21
98.160740
31
0.0
0
LINE
8
0
6
CONTINUOUS
10
53.307815
20
98.160780
30
0.0
11
47.596225
21
98.160740
31
0.0
0
LINE
8
0
6
CONTINUOUS
10
53.495345
20
98.160780
30
0.0
11
53.307815
21
98.160780
31
0.0
0
LINE
8
0
6
CONTINUOUS
10
37.667945
20
98.160770
30
0.0
11
38.326685
21
98.160770
31
0.0
0
LINE
8
0
6
CONTINUOUS
10
42.339005
20
98.160780
30
0.0
11
37.667945
21
98.160770
31
0.0
0
LINE
8
0
6
CONTINUOUS
10
42.854445
20
98.160780
30
0.0
11
42.339005
21
98.160780
31
0.0
0
LINE
8
0
6
CONTINUOUS
10
33.975085
20
98.160760
30
0.0
11
34.744285
21
98.160760
31
0.0
0
LINE
8
0
6
CONTINUOUS
10
38.406085
20
98.160760
30
0.0
11
37.748285
21
98.160760
31
0.0
0
LINE
8
0
6
CONTINUOUS
10
59.524495
20
98.160730
30
0.0
11
38.406085
21
98.160760
31
0.0
0
LINE
8
0
6
CONTINUOUS
10
42.835135
20
98.160720
30
0.0
11
59.524495
21
98.160730
31
0.0
0
LINE
8
0
6
CONTINUOUS
10
86.988125
20
98.160720
30
0.0
11
59.524495
21
98.160730
31
0.0
0
LINE
8
0
6
CONTINUOUS
10
59.524495
20
98.160730
30
0.0
11
42.854445
21
98.160780
31
0.0
0
LINE
8
0
6
CONTINUOUS
10
38.326685
20
98.160770
30
0.0
11
59.524495
21
98.160730
31
0.0
0
LINE
8
0
6
CONTINUOUS
10
59.524495
20
98.160730
30
0.0
11
53.495345
21
98.160780
31
0.0
0
LINE
8
0
6
CONTINUOUS
10
47.958375
20
98.160740
30
0.0
11
59.524495
21
98.160730
31
0.0
0
LINE
8
0
6
CONTINUOUS
10
75.988755
20
98.160740
30
0.0
11
59.524495
21
98.160730
31
0.0
0
LINE
8
0
6
CONTINUOUS
10
88.724995
20
98.160730
30
0.0
11
59.524495
21
98.160730
31
0.0
0
LINE
8
0
6
CONTINUOUS
10
106.048776
20
16.450693
30
0.0
11
89.819755
21
16.450700
31
0.0
0
LINE
8
0
6
CONTINUOUS
10
89.819735
20
-10.186510
30
0.0
11
100.222249
21
-10.186514
31
0.0
0
LINE
8
0
6
CONTINUOUS
10
99.068815
20
-7.577310
30
0.0
11
100.235698
21
-10.011479
31
0.0
0
LINE
8
0
6
CONTINUOUS
10
98.527145
20
-3.306250
30
0.0
11
99.068815
21
-7.577310
31
0.0
0
LINE
8
0
6
CONTINUOUS
10
125.993815
20
5.012670
30
0.0
11
126.666635
21
5.012670
31
0.0
0
LINE
8
0
6
CONTINUOUS
10
122.723075
20
5.012670
30
0.0
11
125.993815
21
5.012670
31
0.0
0
LINE
8
0
6
CONTINUOUS
10
89.485645
20
16.450710
30
0.0
11
89.230225
21
16.450710
31
0.0
0
LINE
8
0
6
CONTINUOUS
10
89.485645
20
14.618440
30
0.0
11
89.485645
21
15.967570
31
0.0
0
LINE
8
0
6
CONTINUOUS
10
89.485635
20
12.553780
30
0.0
11
89.485645
21
14.618440
31
0.0
0
LINE
8
0
6
CONTINUOUS
10
89.485625
20
-3.507680
30
0.0
11
89.485625
21
-0.345120
31
0.0
0
LINE
8
0
6
CONTINUOUS
10
89.485625
20
3.154710
30
0.0
11
89.485625
21
6.652870
31
0.0
0
LINE
8
0
6
CONTINUOUS
10
89.485625
20
-8.331700
30
0.0
11
89.485615
21
-6.257790
31
0.0
0
LINE
8
0
6
CONTINUOUS
10
89.485625
20
-10.186510
30
0.0
11
89.485625
21
-9.691410
31
0.0
0
LINE
8
0
6
CONTINUOUS
10
89.230205
20
-10.186510
30
0.0
11
89.485625
21
-10.186510
31
0.0
0
LINE
8
0
6
CONTINUOUS
10
89.553395
20
16.084490
30
0.0
11
89.496575
21
16.084490
31
0.0
0
LINE
8
0
6
CONTINUOUS
10
89.553385
20
14.302610
30
0.0
11
89.553385
21
15.614640
31
0.0
0
LINE
8
0
6
CONTINUOUS
10
89.496565
20
15.614640
30
0.0
11
89.496565
21
14.302610
31
0.0
0
LINE
8
0
6
CONTINUOUS
10
89.496565
20
14.302610
30
0.0
11
89.496565
21
12.294720
31
0.0
0
LINE
8
0
6
CONTINUOUS
10
89.553365
20
-5.999600
30
0.0
11
89.553365
21
-3.325110
31
0.0
0
LINE
8
0
6
CONTINUOUS
10
89.496545
20
-0.249510
30
0.0
11
89.496545
21
-3.325110
31
0.0
0
LINE
8
0
6
CONTINUOUS
10
89.553365
20
3.154090
30
0.0
11
89.553375
21
6.556060
31
0.0
0
LINE
8
0
6
CONTINUOUS
10
89.496555
20
6.556060
30
0.0
11
89.496545
21
3.154090
31
0.0
0
LINE
8
0
6
CONTINUOUS
10
89.553375
20
9.627200
30
0.0
11
89.553385
21
12.294720
31
0.0
0
LINE
8
0
6
CONTINUOUS
10
89.496545
20
-5.999600
30
0.0
11
89.496545
21
-8.016480
31
0.0
0
LINE
8
0
6
CONTINUOUS
10
89.553375
20
-9.338810
30
0.0
11
89.553365
21
-8.016480
31
0.0
0
LINE
8
0
6
CONTINUOUS
10
89.553375
20
-9.820290
30
0.0
11
89.553375
21
-9.338810
31
0.0
0
LINE
8
0
6
CONTINUOUS
10
89.496555
20
-9.820290
30
0.0
11
89.553375
21
-9.820290
31
0.0
0
LINE
8
0
6
CONTINUOUS
10
89.496545
20
-9.338810
30
0.0
11
89.496555
21
-9.820290
31
0.0
0
LINE
8
0
6
CONTINUOUS
10
89.485635
20
9.810840
30
0.0
11
89.485625
21
6.652870
31
0.0
0
LINE
8
0
6
CONTINUOUS
10
89.496555
20
6.556060
30
0.0
11
89.496555
21
9.627200
31
0.0
0
LINE
8
0
6
CONTINUOUS
10
89.553365
20
-0.249520
30
0.0
11
89.553365
21
-3.325110
31
0.0
0
LINE
8
0
6
CONTINUOUS
10
89.553365
20
-5.999600
30
0.0
11
89.553365
21
-8.016480
31
0.0
0
LINE
8
0
6
CONTINUOUS
10
89.485645
20
16.450710
30
0.0
11
89.485645
21
15.967570
31
0.0
0
LINE
8
0
6
CONTINUOUS
10
89.496565
20
15.614640
30
0.0
11
89.496575
21
16.084490
31
0.0
0
LINE
8
0
6
CONTINUOUS
10
89.553385
20
14.302610
30
0.0
11
89.553385
21
12.294720
31
0.0
0
LINE
8
0
6
CONTINUOUS
10
89.485625
20
3.154710
30
0.0
11
89.485625
21
-0.345120
31
0.0
0
LINE
8
0
6
CONTINUOUS
10
89.496545
20
-0.249510
30
0.0
11
89.496545
21
3.154090
31
0.0
0
LINE
8
0
6
CONTINUOUS
10
89.485625
20
-8.331700
30
0.0
11
89.485625
21
-9.691410
31
0.0
0
LINE
8
0
6
CONTINUOUS
10
89.496545
20
-9.338810
30
0.0
11
89.496545
21
-8.016480
31
0.0
0
LINE
8
0
6
CONTINUOUS
10
89.553375
20
9.627200
30
0.0
11
89.553375
21
6.556060
31
0.0
0
LINE
8
0
6
CONTINUOUS
10
89.485625
20
-3.507680
30
0.0
11
89.485615
21
-6.257790
31
0.0
0
LINE
8
0
6
CONTINUOUS
10
89.496545
20
-5.999600
30
0.0
11
89.496545
21
-3.325110
31
0.0
0
LINE
8
0
6
CONTINUOUS
10
89.553395
20
16.084490
30
0.0
11
89.553385
21
15.614640
31
0.0
0
LINE
8
0
6
CONTINUOUS
10
89.485635
20
12.553780
30
0.0
11
89.485635
21
9.810840
31
0.0
0
LINE
8
0
6
CONTINUOUS
10
89.496555
20
9.627200
30
0.0
11
89.496565
21
12.294720
31
0.0
0
LINE
8
0
6
CONTINUOUS
10
89.553365
20
3.154090
30
0.0
11
89.553365
21
-0.249520
31
0.0
0
LINE
8
0
6
CONTINUOUS
10
89.819755
20
16.450700
30
0.0
11
89.564315
21
16.450710
31
0.0
0
LINE
8
0
6
CONTINUOUS
10
89.564315
20
16.450710
30
0.0
11
89.564305
21
15.967570
31
0.0
0
LINE
8
0
6
CONTINUOUS
10
89.564305
20
15.967570
30
0.0
11
89.564305
21
14.618440
31
0.0
0
LINE
8
0
6
CONTINUOUS
10
89.564305
20
14.618440
30
0.0
11
89.564305
21
12.553780
31
0.0
0
LINE
8
0
6
CONTINUOUS
10
89.564295
20
-3.507680
30
0.0
11
89.564295
21
-6.257800
31
0.0
0
LINE
8
0
6
CONTINUOUS
10
89.564295
20
-0.345120
30
0.0
11
89.564295
21
-3.507680
31
0.0
0
LINE
8
0
6
CONTINUOUS
10
89.564295
20
3.154710
30
0.0
11
89.564295
21
-0.345120
31
0.0
0
LINE
8
0
6
CONTINUOUS
10
89.564295
20
6.652870
30
0.0
11
89.564295
21
3.154710
31
0.0
0
LINE
8
0
6
CONTINUOUS
10
89.564305
20
9.810840
30
0.0
11
89.564295
21
6.652870
31
0.0
0
LINE
8
0
6
CONTINUOUS
10
89.564305
20
12.553780
30
0.0
11
89.564305
21
9.810840
31
0.0
0
LINE
8
0
6
CONTINUOUS
10
89.564295
20
-6.257800
30
0.0
11
89.564295
21
-8.331700
31
0.0
0
LINE
8
0
6
CONTINUOUS
10
89.564295
20
-8.331700
30
0.0
11
89.564295
21
-9.691410
31
0.0
0
LINE
8
0
6
CONTINUOUS
10
89.564295
20
-10.186510
30
0.0
11
89.819735
21
-10.186510
31
0.0
0
LINE
8
0
6
CONTINUOUS
10
89.564295
20
-9.691410
30
0.0
11
89.564295
21
-10.186510
31
0.0
0
LINE
8
0
6
CONTINUOUS
10
89.230225
20
16.450710
30
0.0
11
68.934855
21
16.450718
31
0.0
0
LINE
8
0
6
CONTINUOUS
10
68.171283
20
-10.186493
30
0.0
11
89.230205
21
-10.186510
31
0.0
0
LINE
8
0
6
CONTINUOUS
10
122.330145
20
5.012670
30
0.0
11
122.723075
21
5.012670
31
0.0
0
LINE
8
0
6
CONTINUOUS
10
126.526675
20
1.757310
30
0.0
11
125.853855
21
1.757310
31
0.0
0
LINE
8
0
6
CONTINUOUS
10
126.528315
20
1.600720
30
0.0
11
126.526675
21
1.757310
31
0.0
0
LINE
8
0
6
CONTINUOUS
10
49.819295
20
15.697387
30
0.0
11
48.202145
21
14.476890
31
0.0
0
LINE
8
0
6
CONTINUOUS
10
48.202145
20
14.476890
30
0.0
11
45.643445
21
11.086640
31
0.0
0
LINE
8
0
6
CONTINUOUS
10
45.643445
20
11.086640
30
0.0
11
44.108275
21
7.248600
31
0.0
0
LINE
8
0
6
CONTINUOUS
10
44.108275
20
7.248600
30
0.0
11
43.532565
21
3.154710
31
0.0
0
LINE
8
0
6
CONTINUOUS
10
70.846505
20
14.476920
30
0.0
11
68.934855
21
15.919667
31
0.0
0
LINE
8
0
6
CONTINUOUS
10
73.405165
20
11.086660
30
0.0
11
70.846505
21
14.476920
31
0.0
0
LINE
8
0
6
CONTINUOUS
10
74.940395
20
7.248630
30
0.0
11
73.405165
21
11.086660
31
0.0
0
LINE
8
0
6
CONTINUOUS
10
75.516115
20
3.154740
30
0.0
11
74.940395
21
7.248630
31
0.0
0
LINE
8
0
6
CONTINUOUS
10
55.430465
20
-12.261350
30
0.0
11
59.524345
21
-12.837050
31
0.0
0
LINE
8
0
6
CONTINUOUS
10
51.592435
20
-10.726150
30
0.0
11
55.430465
21
-12.261350
31
0.0
0
LINE
8
0
6
CONTINUOUS
10
48.202165
20
-8.167460
30
0.0
11
51.592435
21
-10.726150
31
0.0
0
LINE
8
0
6
CONTINUOUS
10
45.643465
20
-4.777210
30
0.0
11
48.202165
21
-8.167460
31
0.0
0
LINE
8
0
6
CONTINUOUS
10
44.108275
20
-0.939190
30
0.0
11
45.643465
21
-4.777210
31
0.0
0
LINE
8
0
6
CONTINUOUS
10
43.532565
20
3.154710
30
0.0
11
44.108275
21
-0.939190
31
0.0
0
LINE
8
0
6
CONTINUOUS
10
59.524345
20
-12.837050
30
0.0
11
63.618235
21
-12.261340
31
0.0
0
LINE
8
0
6
CONTINUOUS
10
63.618235
20
-12.261340
30
0.0
11
67.456265
21
-10.726130
31
0.0
0
LINE
8
0
6
CONTINUOUS
10
67.456265
20
-10.726130
30
0.0
11
70.846525
21
-8.167440
31
0.0
0
LINE
8
0
6
CONTINUOUS
10
70.846525
20
-8.167440
30
0.0
11
73.405185
21
-4.777180
31
0.0
0
LINE
8
0
6
CONTINUOUS
10
73.405185
20
-4.777180
30
0.0
11
74.940405
21
-0.939160
31
0.0
0
LINE
8
0
6
CONTINUOUS
10
74.940405
20
-0.939160
30
0.0
11
75.516115
21
3.154740
31
0.0
0
LINE
8
0
6
CONTINUOUS
10
126.666635
20
5.012670
30
0.0
11
126.664085
21
5.256230
31
0.0
0
LINE
8
0
6
CONTINUOUS
10
126.373995
20
5.359300
30
0.0
11
126.666635
21
5.012670
31
0.0
0
LINE
8
0
6
CONTINUOUS
10
124.858415
20
20.374600
30
0.0
11
121.744995
21
22.662830
31
0.0
0
LINE
8
0
6
CONTINUOUS
10
121.744995
20
22.662830
30
0.0
11
117.853715
21
24.118940
31
0.0
0
LINE
8
0
6
CONTINUOUS
10
117.853715
20
24.118940
30
0.0
11
113.850865
21
24.638970
31
0.0
0
LINE
8
0
6
CONTINUOUS
10
113.850865
20
24.638970
30
0.0
11
109.848025
21
24.118940
31
0.0
0
LINE
8
0
6
CONTINUOUS
10
109.848025
20
24.118940
30
0.0
11
106.067265
21
22.662840
31
0.0
0
LINE
8
0
6
CONTINUOUS
10
106.067265
20
22.662840
30
0.0
11
102.731745
21
20.478680
31
0.0
0
LINE
8
0
6
CONTINUOUS
10
102.731745
20
20.478680
30
0.0
11
100.551945
21
17.535890
31
0.0
0
LINE
8
0
6
CONTINUOUS
10
100.551945
20
17.535890
30
0.0
11
100.011252
21
16.450696
31
0.0
0
LINE
8
0
6
CONTINUOUS
10
126.234045
20
18.745110
30
0.0
11
124.858415
21
20.374600
31
0.0
0
LINE
8
0
6
CONTINUOUS
10
126.526685
20
18.398480
30
0.0
11
126.234045
21
18.745110
31
0.0
0
LINE
8
0
6
CONTINUOUS
10
126.528325
20
18.241890
30
0.0
11
126.526685
21
18.398480
31
0.0
0
LINE
8
0
6
CONTINUOUS
10
126.664085
20
5.256230
30
0.0
11
126.528325
21
18.241890
31
0.0
0
LINE
8
0
6
CONTINUOUS
10
121.884945
20
9.277020
30
0.0
11
124.998365
21
6.988780
31
0.0
0
LINE
8
0
6
CONTINUOUS
10
117.993655
20
10.733120
30
0.0
11
121.884945
21
9.277020
31
0.0
0
LINE
8
0
6
CONTINUOUS
10
113.990805
20
11.253160
30
0.0
11
117.993655
21
10.733120
31
0.0
0
LINE
8
0
6
CONTINUOUS
10
109.987965
20
10.733130
30
0.0
11
113.990805
21
11.253160
31
0.0
0
LINE
8
0
6
CONTINUOUS
10
106.207205
20
9.277030
30
0.0
11
109.987965
21
10.733130
31
0.0
0
LINE
8
0
6
CONTINUOUS
10
102.871695
20
7.092870
30
0.0
11
106.207205
21
9.277030
31
0.0
0
LINE
8
0
6
CONTINUOUS
10
100.460715
20
3.788100
30
0.0
11
102.871695
21
7.092870
31
0.0
0
LINE
8
0
6
CONTINUOUS
10
99.068805
20
0.530490
30
0.0
11
100.460715
21
3.788100
31
0.0
0
LINE
8
0
6
CONTINUOUS
10
98.524595
20
-3.057410
30
0.0
11
98.527145
21
-3.306250
31
0.0
0
LINE
8
0
6
CONTINUOUS
10
98.527145
20
-3.306250
30
0.0
11
99.068805
21
0.530490
31
0.0
0
LINE
8
0
6
CONTINUOUS
10
124.998365
20
6.988780
30
0.0
11
126.373995
21
5.359300
31
0.0
0
LINE
8
0
6
CONTINUOUS
10
74.556605
20
-0.875190
30
0.0
11
75.132315
21
3.154740
31
0.0
0
LINE
8
0
6
CONTINUOUS
10
75.132315
20
3.154740
30
0.0
11
74.556605
21
7.184670
31
0.0
0
LINE
8
0
6
CONTINUOUS
10
44.492075
20
-0.875210
30
0.0
11
46.027255
21
-4.585310
31
0.0
0
LINE
8
0
6
CONTINUOUS
10
59.524345
20
-12.453240
30
0.0
11
63.554255
21
-11.877540
31
0.0
0
LINE
8
0
6
CONTINUOUS
10
48.521985
20
-7.847630
30
0.0
11
51.784305
21
-10.342340
31
0.0
0
LINE
8
0
6
CONTINUOUS
10
73.021385
20
-4.585280
30
0.0
11
74.556605
21
-0.875190
31
0.0
0
LINE
8
0
6
CONTINUOUS
10
70.526665
20
-7.847600
30
0.0
11
73.021385
21
-4.585280
31
0.0
0
LINE
8
0
6
CONTINUOUS
10
67.264345
20
-10.342320
30
0.0
11
70.526665
21
-7.847600
31
0.0
0
LINE
8
0
6
CONTINUOUS
10
63.554255
20
-11.877540
30
0.0
11
67.264345
21
-10.342320
31
0.0
0
LINE
8
0
6
CONTINUOUS
10
51.784305
20
-10.342340
30
0.0
11
55.494395
21
-11.877540
31
0.0
0
LINE
8
0
6
CONTINUOUS
10
55.494395
20
-11.877540
30
0.0
11
59.524345
21
-12.453240
31
0.0
0
LINE
8
0
6
CONTINUOUS
10
73.021375
20
10.894760
30
0.0
11
70.526645
21
14.157080
31
0.0
0
LINE
8
0
6
CONTINUOUS
10
46.027245
20
10.894740
30
0.0
11
44.495506
21
7.192957
31
0.0
0
LINE
8
0
6
CONTINUOUS
10
49.819295
20
15.149138
30
0.0
11
48.521965
21
14.157060
31
0.0
0
LINE
8
0
6
CONTINUOUS
10
44.492065
20
7.184640
30
0.0
11
43.916355
21
3.154710
31
0.0
0
LINE
8
0
6
CONTINUOUS
10
74.556605
20
7.184670
30
0.0
11
73.021375
21
10.894760
31
0.0
0
LINE
8
0
6
CONTINUOUS
10
46.027255
20
-4.585310
30
0.0
11
48.521985
21
-7.847630
31
0.0
0
LINE
8
0
6
CONTINUOUS
10
70.526645
20
14.157080
30
0.0
11
68.934855
21
15.374325
31
0.0
0
LINE
8
0
6
CONTINUOUS
10
43.916355
20
3.154710
30
0.0
11
44.492075
21
-0.875210
31
0.0
0
LINE
8
0
6
CONTINUOUS
10
48.521965
20
14.157060
30
0.0
11
46.027245
21
10.894740
31
0.0
0
LINE
8
0
6
CONTINUOUS
10
59.187175
20
-81.131630
30
0.0
11
63.862175
21
-84.865570
31
0.0
0
LINE
8
0
6
CONTINUOUS
10
63.862175
20
-84.865570
30
0.0
11
69.420115
21
-88.240850
31
0.0
0
LINE
8
0
6
CONTINUOUS
10
69.420115
20
-88.240850
30
0.0
11
75.597685
21
-91.160120
31
0.0
0
LINE
8
0
6
CONTINUOUS
10
63.875665
20
-28.941220
30
0.0
11
59.214435
21
-32.746170
31
0.0
0
LINE
8
0
6
CONTINUOUS
10
64.062125
20
-28.813600
30
0.0
11
63.875665
21
-28.941220
31
0.0
0
LINE
8
0
6
CONTINUOUS
10
50.495035
20
-67.247770
30
0.0
11
52.131145
21
-71.507190
31
0.0
0
LINE
8
0
6
CONTINUOUS
10
75.597685
20
-91.160120
30
0.0
11
82.445705
21
-93.585320
31
0.0
0
LINE
8
0
6
CONTINUOUS
10
82.445705
20
-93.585320
30
0.0
11
89.775735
21
-95.562170
31
0.0
0
LINE
8
0
6
CONTINUOUS
10
89.775735
20
-95.562170
30
0.0
11
98.308945
21
-97.045710
31
0.0
0
LINE
8
0
6
CONTINUOUS
10
98.308945
20
-97.045710
30
0.0
11
105.729805
21
-97.817300
31
0.0
0
LINE
8
0
6
CONTINUOUS
10
105.729805
20
-97.817300
30
0.0
11
113.931975
21
-98.081700
31
0.0
0
LINE
8
0
6
CONTINUOUS
10
55.380955
20
-77.112230
30
0.0
11
59.187175
21
-81.131630
31
0.0
0
LINE
8
0
6
CONTINUOUS
10
52.584805
20
-72.706220
30
0.0
11
55.380955
21
-77.112230
31
0.0
0
LINE
8
0
6
CONTINUOUS
10
49.877485
20
-62.377120
30
0.0
11
50.495035
21
-67.247770
31
0.0
0
LINE
8
0
6
CONTINUOUS
10
49.903265
20
-61.879810
30
0.0
11
49.877485
21
-62.377120
31
0.0
0
LINE
8
0
6
CONTINUOUS
10
50.732275
20
-46.613910
30
0.0
11
50.079705
21
-51.112430
31
0.0
0
LINE
8
0
6
CONTINUOUS
10
52.410315
20
-42.064140
30
0.0
11
50.732275
21
-46.613910
31
0.0
0
LINE
8
0
6
CONTINUOUS
10
55.020615
20
-37.719670
30
0.0
11
52.410315
21
-42.064140
31
0.0
0
LINE
8
0
6
CONTINUOUS
10
55.486745
20
-36.953140
30
0.0
11
55.020615
21
-37.719670
31
0.0
0
LINE
8
0
6
CONTINUOUS
10
59.027985
20
-32.925330
30
0.0
11
55.486745
21
-36.953140
31
0.0
0
LINE
8
0
6
CONTINUOUS
10
59.214435
20
-32.746170
30
0.0
11
59.027985
21
-32.925330
31
0.0
0
LINE
8
0
6
CONTINUOUS
10
105.776105
20
-84.817730
30
0.0
11
113.931975
21
-85.178110
31
0.0
0
LINE
8
0
6
CONTINUOUS
10
97.758815
20
-83.920320
30
0.0
11
105.776105
21
-84.817730
31
0.0
0
LINE
8
0
6
CONTINUOUS
10
100.620815
20
-4.999510
30
0.0
11
99.751827
21
-16.308658
31
0.0
0
LINE
8
0
6
CONTINUOUS
10
106.580785
20
5.831340
30
0.0
11
104.543385
21
4.248250
31
0.0
0
LINE
8
0
6
CONTINUOUS
10
111.375615
20
7.740840
30
0.0
11
108.888345
21
7.028770
31
0.0
0
LINE
8
0
6
CONTINUOUS
10
113.932155
20
7.956360
30
0.0
11
111.375615
21
7.740840
31
0.0
0
LINE
8
0
6
CONTINUOUS
10
104.543385
20
4.248250
30
0.0
11
102.896395
21
2.301480
31
0.0
0
LINE
8
0
6
CONTINUOUS
10
102.896395
20
2.301480
30
0.0
11
101.658085
21
0.064170
31
0.0
0
LINE
8
0
6
CONTINUOUS
10
100.622775
20
-4.856660
30
0.0
11
100.620815
21
-4.999510
31
0.0
0
LINE
8
0
6
CONTINUOUS
10
100.882035
20
-2.349850
30
0.0
11
100.622775
21
-4.856660
31
0.0
0
LINE
8
0
6
CONTINUOUS
10
108.888345
20
7.028770
30
0.0
11
106.580785
21
5.831340
31
0.0
0
LINE
8
0
6
CONTINUOUS
10
101.658085
20
0.064170
30
0.0
11
100.882035
21
-2.349850
31
0.0
0
LINE
8
0
6
CONTINUOUS
10
50.079705
20
-51.112430
30
0.0
11
50.079705
21
-51.633290
31
0.0
0
LINE
8
0
6
CONTINUOUS
10
50.079705
20
-51.633290
30
0.0
11
49.903265
21
-61.879810
31
0.0
0
LINE
8
0
6
CONTINUOUS
10
164.001815
20
-84.865610
30
0.0
11
168.676825
21
-81.131670
31
0.0
0
LINE
8
0
6
CONTINUOUS
10
158.443855
20
-88.240850
30
0.0
11
164.001815
21
-84.865610
31
0.0
0
LINE
8
0
6
CONTINUOUS
10
152.266285
20
-91.160120
30
0.0
11
158.443855
21
-88.240850
31
0.0
0
LINE
8
0
6
CONTINUOUS
10
163.988445
20
-28.941260
30
0.0
11
163.801985
21
-28.813640
31
0.0
0
LINE
8
0
6
CONTINUOUS
10
168.649685
20
-32.746210
30
0.0
11
163.988445
21
-28.941260
31
0.0
0
LINE
8
0
6
CONTINUOUS
10
175.732865
20
-71.507220
30
0.0
11
177.369015
21
-67.247810
31
0.0
0
LINE
8
0
6
CONTINUOUS
10
145.418255
20
-93.585360
30
0.0
11
152.266285
21
-91.160120
31
0.0
0
LINE
8
0
6
CONTINUOUS
10
138.088215
20
-95.562170
30
0.0
11
145.418255
21
-93.585360
31
0.0
0
LINE
8
0
6
CONTINUOUS
10
129.555005
20
-97.045710
30
0.0
11
138.088215
21
-95.562170
31
0.0
0
LINE
8
0
6
CONTINUOUS
10
122.134145
20
-97.817300
30
0.0
11
129.555005
21
-97.045710
31
0.0
0
LINE
8
0
6
CONTINUOUS
10
113.931975
20
-98.081700
30
0.0
11
122.134145
21
-97.817300
31
0.0
0
LINE
8
0
6
CONTINUOUS
10
168.676825
20
-81.131670
30
0.0
11
172.483055
21
-77.112270
31
0.0
0
LINE
8
0
6
CONTINUOUS
10
172.483055
20
-77.112270
30
0.0
11
175.279205
21
-72.706260
31
0.0
0
LINE
8
0
6
CONTINUOUS
10
177.986555
20
-62.377170
30
0.0
11
177.960785
21
-61.879850
31
0.0
0
LINE
8
0
6
CONTINUOUS
10
177.369015
20
-67.247810
30
0.0
11
177.986555
21
-62.377170
31
0.0
0
LINE
8
0
6
CONTINUOUS
10
177.784335
20
-51.112480
30
0.0
11
177.131795
21
-46.613970
31
0.0
0
LINE
8
0
6
CONTINUOUS
10
177.131795
20
-46.613970
30
0.0
11
175.453765
21
-42.064190
31
0.0
0
LINE
8
0
6
CONTINUOUS
10
172.843465
20
-37.719720
30
0.0
11
172.377345
21
-36.953190
31
0.0
0
LINE
8
0
6
CONTINUOUS
10
175.453765
20
-42.064190
30
0.0
11
172.843465
21
-37.719720
31
0.0
0
LINE
8
0
6
CONTINUOUS
10
168.836125
20
-32.925370
30
0.0
11
168.649685
21
-32.746210
31
0.0
0
LINE
8
0
6
CONTINUOUS
10
172.377345
20
-36.953190
30
0.0
11
168.836125
21
-32.925370
31
0.0
0
LINE
8
0
6
CONTINUOUS
10
113.931975
20
-85.178110
30
0.0
11
122.087835
21
-84.817730
31
0.0
0
LINE
8
0
6
CONTINUOUS
10
122.087835
20
-84.817730
30
0.0
11
130.105135
21
-83.920320
31
0.0
0
LINE
8
0
6
CONTINUOUS
10
128.112407
20
-16.308673
30
0.0
11
127.243495
21
-4.999520
31
0.0
0
LINE
8
0
6
CONTINUOUS
10
123.320925
20
4.248250
30
0.0
11
121.283535
21
5.831330
31
0.0
0
LINE
8
0
6
CONTINUOUS
10
118.975965
20
7.028760
30
0.0
11
116.488695
21
7.740840
31
0.0
0
LINE
8
0
6
CONTINUOUS
10
116.488695
20
7.740840
30
0.0
11
113.932155
21
7.956360
31
0.0
0
LINE
8
0
6
CONTINUOUS
10
124.967925
20
2.301480
30
0.0
11
123.320925
21
4.248250
31
0.0
0
LINE
8
0
6
CONTINUOUS
10
126.206225
20
0.064160
30
0.0
11
124.967925
21
2.301480
31
0.0
0
LINE
8
0
6
CONTINUOUS
10
127.241545
20
-4.856670
30
0.0
11
126.982285
21
-2.349860
31
0.0
0
LINE
8
0
6
CONTINUOUS
10
127.243495
20
-4.999520
30
0.0
11
127.241545
21
-4.856670
31
0.0
0
LINE
8
0
6
CONTINUOUS
10
121.283535
20
5.831330
30
0.0
11
118.975965
21
7.028760
31
0.0
0
LINE
8
0
6
CONTINUOUS
10
126.982285
20
-2.349860
30
0.0
11
126.206225
21
0.064160
31
0.0
0
LINE
8
0
6
CONTINUOUS
10
177.784335
20
-51.633350
30
0.0
11
177.784335
21
-51.112480
31
0.0
0
LINE
8
0
6
CONTINUOUS
10
177.960785
20
-61.879850
30
0.0
11
177.784335
21
-51.633350
31
0.0
0
LINE
8
0
6
CONTINUOUS
10
108.525905
20
-15.507990
30
0.0
11
105.822815
21
-15.627300
31
0.0
0
LINE
8
0
6
CONTINUOUS
10
101.954005
20
-16.061500
30
0.0
11
98.085195
21
-16.495710
31
0.0
0
LINE
8
0
6
CONTINUOUS
10
93.983955
20
-17.236470
30
0.0
11
89.882725
21
-17.977230
31
0.0
0
LINE
8
0
6
CONTINUOUS
10
86.246965
20
-18.923230
30
0.0
11
82.611205
21
-19.869220
31
0.0
0
LINE
8
0
6
CONTINUOUS
10
82.611205
20
-19.869220
30
0.0
11
75.713875
21
-22.424420
31
0.0
0
LINE
8
0
6
CONTINUOUS
10
75.713875
20
-22.424420
30
0.0
11
69.467865
21
-25.388760
31
0.0
0
LINE
8
0
6
CONTINUOUS
10
51.664525
20
-45.323300
30
0.0
11
51.011955
21
-49.770560
31
0.0
0
LINE
8
0
6
CONTINUOUS
10
53.249345
20
-41.081490
30
0.0
11
51.664525
21
-45.323300
31
0.0
0
LINE
8
0
6
CONTINUOUS
10
55.952865
20
-36.584260
30
0.0
11
53.249345
21
-41.081490
31
0.0
0
LINE
8
0
6
CONTINUOUS
10
59.400885
20
-32.596330
30
0.0
11
55.952865
21
-36.584260
31
0.0
0
LINE
8
0
6
CONTINUOUS
10
64.062125
20
-28.813600
30
0.0
11
59.400885
21
-32.596330
31
0.0
0
LINE
8
0
6
CONTINUOUS
10
69.467865
20
-25.388760
30
0.0
11
64.062125
21
-28.813600
31
0.0
0
LINE
8
0
6
CONTINUOUS
10
51.011955
20
-49.770560
30
0.0
11
51.664515
21
-54.217790
31
0.0
0
LINE
8
0
6
CONTINUOUS
10
53.249315
20
-58.459610
30
0.0
11
55.952825
21
-62.958130
31
0.0
0
LINE
8
0
6
CONTINUOUS
10
55.952825
20
-62.958130
30
0.0
11
59.400825
21
-66.944850
31
0.0
0
LINE
8
0
6
CONTINUOUS
10
59.400825
20
-66.944850
30
0.0
11
64.062065
21
-70.727610
31
0.0
0
LINE
8
0
6
CONTINUOUS
10
64.062065
20
-70.727610
30
0.0
11
69.467795
21
-74.151110
31
0.0
0
LINE
8
0
6
CONTINUOUS
10
105.822715
20
-83.913920
30
0.0
11
113.931975
21
-84.272990
31
0.0
0
LINE
8
0
6
CONTINUOUS
10
98.085095
20
-83.045460
30
0.0
11
105.822715
21
-83.913920
31
0.0
0
LINE
8
0
6
CONTINUOUS
10
89.882625
20
-81.562650
30
0.0
11
98.085095
21
-83.045460
31
0.0
0
LINE
8
0
6
CONTINUOUS
10
82.611115
20
-79.671930
30
0.0
11
89.882625
21
-81.562650
31
0.0
0
LINE
8
0
6
CONTINUOUS
10
75.713795
20
-77.116700
30
0.0
11
82.611115
21
-79.671930
31
0.0
0
LINE
8
0
6
CONTINUOUS
10
69.467795
20
-74.151110
30
0.0
11
75.713795
21
-77.116700
31
0.0
0
LINE
8
0
6
CONTINUOUS
10
51.664515
20
-54.217790
30
0.0
11
53.249315
21
-58.459610
31
0.0
0
LINE
8
0
6
CONTINUOUS
10
89.882725
20
-17.977230
30
0.0
11
86.246965
21
-18.923230
31
0.0
0
LINE
8
0
6
CONTINUOUS
10
98.085195
20
-16.495710
30
0.0
11
93.983955
21
-17.236470
31
0.0
0
LINE
8
0
6
CONTINUOUS
10
105.822815
20
-15.627300
30
0.0
11
101.954005
21
-16.061500
31
0.0
0
LINE
8
0
6
CONTINUOUS
10
113.932075
20
-15.269420
30
0.0
11
111.228995
21
-15.388710
31
0.0
0
LINE
8
0
6
CONTINUOUS
10
111.228995
20
-15.388710
30
0.0
11
108.525905
21
-15.507990
31
0.0
0
LINE
8
0
6
CONTINUOUS
10
122.041335
20
-15.627300
30
0.0
11
119.338245
21
-15.508000
31
0.0
0
LINE
8
0
6
CONTINUOUS
10
129.778955
20
-16.495720
30
0.0
11
125.910145
21
-16.061500
31
0.0
0
LINE
8
0
6
CONTINUOUS
10
137.981415
20
-17.977240
30
0.0
11
133.880185
21
-17.236490
31
0.0
0
LINE
8
0
6
CONTINUOUS
10
145.252945
20
-19.869250
30
0.0
11
141.617175
21
-18.923250
31
0.0
0
LINE
8
0
6
CONTINUOUS
10
152.150255
20
-22.424450
30
0.0
11
145.252945
21
-19.869250
31
0.0
0
LINE
8
0
6
CONTINUOUS
10
158.396255
20
-25.388800
30
0.0
11
152.150255
21
-22.424450
31
0.0
0
LINE
8
0
6
CONTINUOUS
10
176.852105
20
-49.770610
30
0.0
11
176.199535
21
-45.323350
31
0.0
0
LINE
8
0
6
CONTINUOUS
10
176.199535
20
-45.323350
30
0.0
11
174.614725
21
-41.081530
31
0.0
0
LINE
8
0
6
CONTINUOUS
10
174.614725
20
-41.081530
30
0.0
11
171.911225
21
-36.584310
31
0.0
0
LINE
8
0
6
CONTINUOUS
10
171.911225
20
-36.584310
30
0.0
11
168.463215
21
-32.596370
31
0.0
0
LINE
8
0
6
CONTINUOUS
10
168.463215
20
-32.596370
30
0.0
11
163.801985
21
-28.813640
31
0.0
0
LINE
8
0
6
CONTINUOUS
10
163.801985
20
-28.813640
30
0.0
11
158.396255
21
-25.388800
31
0.0
0
LINE
8
0
6
CONTINUOUS
10
176.199525
20
-54.217820
30
0.0
11
176.852105
21
-49.770610
31
0.0
0
LINE
8
0
6
CONTINUOUS
10
171.911195
20
-62.958170
30
0.0
11
174.614705
21
-58.459660
31
0.0
0
LINE
8
0
6
CONTINUOUS
10
168.463165
20
-66.944880
30
0.0
11
171.911195
21
-62.958170
31
0.0
0
LINE
8
0
6
CONTINUOUS
10
163.801925
20
-70.727650
30
0.0
11
168.463165
21
-66.944880
31
0.0
0
LINE
8
0
6
CONTINUOUS
10
158.396175
20
-74.151150
30
0.0
11
163.801925
21
-70.727650
31
0.0
0
LINE
8
0
6
CONTINUOUS
10
113.931975
20
-84.272990
30
0.0
11
122.041235
21
-83.913920
31
0.0
0
LINE
8
0
6
CONTINUOUS
10
122.041235
20
-83.913920
30
0.0
11
129.778855
21
-83.045460
31
0.0
0
LINE
8
0
6
CONTINUOUS
10
129.778855
20
-83.045460
30
0.0
11
137.981325
21
-81.562690
31
0.0
0
LINE
8
0
6
CONTINUOUS
10
137.981325
20
-81.562690
30
0.0
11
145.252845
21
-79.671930
31
0.0
0
LINE
8
0
6
CONTINUOUS
10
145.252845
20
-79.671930
30
0.0
11
152.150165
21
-77.116740
31
0.0
0
LINE
8
0
6
CONTINUOUS
10
152.150165
20
-77.116740
30
0.0
11
158.396175
21
-74.151150
31
0.0
0
LINE
8
0
6
CONTINUOUS
10
174.614705
20
-58.459660
30
0.0
11
176.199525
21
-54.217820
31
0.0
0
LINE
8
0
6
CONTINUOUS
10
141.617175
20
-18.923250
30
0.0
11
137.981415
21
-17.977240
31
0.0
0
LINE
8
0
6
CONTINUOUS
10
133.880185
20
-17.236490
30
0.0
11
129.778955
21
-16.495720
31
0.0
0
LINE
8
0
6
CONTINUOUS
10
125.910145
20
-16.061500
30
0.0
11
122.041335
21
-15.627300
31
0.0
0
LINE
8
0
6
CONTINUOUS
10
116.635155
20
-15.388710
30
0.0
11
113.932075
21
-15.269420
31
0.0
0
LINE
8
0
6
CONTINUOUS
10
119.338245
20
-15.508000
30
0.0
11
116.635155
21
-15.388710
31
0.0
0
LINE
8
0
6
CONTINUOUS
10
-153.218685
20
6.681980
30
0.0
11
-154.956234
21
6.617634
31
0.0
0
LINE
8
0
6
CONTINUOUS
10
-153.837045
20
13.768330
30
0.0
11
-157.138245
21
13.646060
31
0.0
0
LINE
8
0
6
CONTINUOUS
10
-150.016225
20
6.800590
30
0.0
11
-153.218685
21
6.681980
31
0.0
0
LINE
8
0
6
CONTINUOUS
10
-157.124665
20
-0.274260
30
0.0
11
-153.809945
21
-0.151490
31
0.0
0
LINE
8
0
6
CONTINUOUS
10
-156.808025
20
13.955960
30
0.0
11
-157.550051
21
13.928478
31
0.0
0
LINE
8
0
6
CONTINUOUS
10
-149.514555
20
13.928410
30
0.0
11
-153.837045
21
13.768330
31
0.0
0
LINE
8
0
6
CONTINUOUS
10
-145.843955
20
6.955110
30
0.0
11
-150.016225
21
6.800590
31
0.0
0
LINE
8
0
6
CONTINUOUS
10
-153.809945
20
-0.151490
30
0.0
11
-149.466835
21
0.009360
31
0.0
0
LINE
8
0
6
CONTINUOUS
10
-150.915425
20
14.174200
30
0.0
11
-156.808025
21
13.955960
31
0.0
0
LINE
8
0
6
CONTINUOUS
10
-144.053965
20
14.130650
30
0.0
11
-149.514555
21
13.928410
31
0.0
0
LINE
8
0
6
CONTINUOUS
10
-140.585525
20
7.149870
30
0.0
11
-145.843955
21
6.955110
31
0.0
0
LINE
8
0
6
CONTINUOUS
10
-149.466835
20
0.009360
30
0.0
11
-143.978545
21
0.212620
31
0.0
0
LINE
8
0
6
CONTINUOUS
10
-143.668755
20
14.442590
30
0.0
11
-150.915425
21
14.174200
31
0.0
0
LINE
8
0
6
CONTINUOUS
10
-137.324245
20
14.379900
30
0.0
11
-144.053965
21
14.130650
31
0.0
0
LINE
8
0
6
CONTINUOUS
10
-134.097685
20
7.390160
30
0.0
11
-140.585525
21
7.149870
31
0.0
0
LINE
8
0
6
CONTINUOUS
10
-143.978545
20
0.212620
30
0.0
11
-137.215665
21
0.463100
31
0.0
0
LINE
8
0
6
CONTINUOUS
10
-134.972415
20
14.764670
30
0.0
11
-143.668755
21
14.442590
31
0.0
0
LINE
8
0
6
CONTINUOUS
10
-129.183535
20
14.681400
30
0.0
11
-137.324245
21
14.379900
31
0.0
0
LINE
8
0
6
CONTINUOUS
10
-126.216975
20
7.682020
30
0.0
11
-134.097685
21
7.390160
31
0.0
0
LINE
8
0
6
CONTINUOUS
10
-137.215665
20
0.463100
30
0.0
11
-129.039295
21
0.765920
31
0.0
0
LINE
8
0
6
CONTINUOUS
10
-124.655565
20
15.146760
30
0.0
11
-134.972415
21
14.764670
31
0.0
0
LINE
8
0
6
CONTINUOUS
10
-119.575435
20
15.037240
30
0.0
11
-129.183535
21
14.681400
31
0.0
0
LINE
8
0
6
CONTINUOUS
10
-116.940525
20
8.025580
30
0.0
11
-126.216975
21
7.682020
31
0.0
0
LINE
8
0
6
CONTINUOUS
10
-129.039295
20
0.765920
30
0.0
11
-119.385745
21
1.123440
31
0.0
0
LINE
8
0
6
CONTINUOUS
10
-110.135185
20
15.684530
30
0.0
11
-124.655565
21
15.146760
31
0.0
0
LINE
8
0
6
CONTINUOUS
10
-106.075455
20
15.537230
30
0.0
11
-119.575435
21
15.037240
31
0.0
0
LINE
8
0
6
CONTINUOUS
10
-103.918015
20
8.507880
30
0.0
11
-116.940525
21
8.025580
31
0.0
0
LINE
8
0
6
CONTINUOUS
10
-119.385745
20
1.123440
30
0.0
11
-105.820305
21
1.625850
31
0.0
0
LINE
8
0
6
CONTINUOUS
10
-93.419675
20
16.303620
30
0.0
11
-110.135185
21
15.684530
31
0.0
0
LINE
8
0
6
CONTINUOUS
10
-90.505675
20
16.113870
30
0.0
11
-106.075455
21
15.537230
31
0.0
0
LINE
8
0
6
CONTINUOUS
10
-88.884355
20
9.064680
30
0.0
11
-103.918015
21
8.507880
31
0.0
0
LINE
8
0
6
CONTINUOUS
10
-105.820305
20
1.625850
30
0.0
11
-90.177035
21
2.205220
31
0.0
0
LINE
8
0
6
CONTINUOUS
10
-75.061215
20
16.983530
30
0.0
11
-93.419675
21
16.303620
31
0.0
0
LINE
8
0
6
CONTINUOUS
10
-73.212945
20
16.754320
30
0.0
11
-90.505675
21
16.113870
31
0.0
0
LINE
8
0
6
CONTINUOUS
10
-72.090325
20
9.686650
30
0.0
11
-88.884355
21
9.064680
31
0.0
0
LINE
8
0
6
CONTINUOUS
10
-90.177035
20
2.205220
30
0.0
11
-72.815945
21
2.848200
31
0.0
0
LINE
8
0
6
CONTINUOUS
10
-55.511245
20
17.707590
30
0.0
11
-75.061215
21
16.983530
31
0.0
0
LINE
8
0
6
CONTINUOUS
10
-54.658725
20
17.441490
30
0.0
11
-73.212945
21
16.754320
31
0.0
0
LINE
8
0
6
CONTINUOUS
10
-54.002025
20
10.356570
30
0.0
11
-72.090325
21
9.686650
31
0.0
0
LINE
8
0
6
CONTINUOUS
10
-72.815945
20
2.848200
30
0.0
11
-54.197845
21
3.537740
31
0.0
0
LINE
8
0
6
CONTINUOUS
10
-35.214525
20
18.459300
30
0.0
11
-55.511245
21
17.707590
31
0.0
0
LINE
8
0
6
CONTINUOUS
10
-35.312045
20
18.158020
30
0.0
11
-54.658725
21
17.441490
31
0.0
0
LINE
8
0
6
CONTINUOUS
10
-35.099885
20
11.056630
30
0.0
11
-54.002025
21
10.356570
31
0.0
0
LINE
8
0
6
CONTINUOUS
10
-54.197845
20
3.537740
30
0.0
11
-34.790215
21
4.256530
31
0.0
0
LINE
8
0
6
CONTINUOUS
10
-14.614455
20
19.222240
30
0.0
11
-35.214525
21
18.459300
31
0.0
0
LINE
8
0
6
CONTINUOUS
10
-15.643435
20
18.886470
30
0.0
11
-35.312045
21
18.158020
31
0.0
0
LINE
8
0
6
CONTINUOUS
10
-15.867135
20
11.768930
30
0.0
11
-35.099885
21
11.056630
31
0.0
0
LINE
8
0
6
CONTINUOUS
10
-34.790215
20
4.256530
30
0.0
11
-15.061855
21
4.987180
31
0.0
0
LINE
8
0
6
CONTINUOUS
10
5.844245
20
19.979950
30
0.0
11
-14.614455
21
19.222240
31
0.0
0
LINE
8
0
6
CONTINUOUS
10
3.877985
20
19.609460
30
0.0
11
-15.643435
21
18.886470
31
0.0
0
LINE
8
0
6
CONTINUOUS
10
3.215705
20
12.475690
30
0.0
11
-15.867135
21
11.768930
31
0.0
0
LINE
8
0
6
CONTINUOUS
10
-15.061855
20
4.987180
30
0.0
11
4.519685
21
5.712410
31
0.0
0
LINE
8
0
6
CONTINUOUS
10
25.713745
20
20.715840
30
0.0
11
5.844245
21
19.979950
31
0.0
0
LINE
8
0
6
CONTINUOUS
10
22.786715
20
20.309760
30
0.0
11
3.877985
21
19.609460
31
0.0
0
LINE
8
0
6
CONTINUOUS
10
21.674865
20
13.159340
30
0.0
11
3.215705
21
12.475690
31
0.0
0
LINE
8
0
6
CONTINUOUS
10
4.519685
20
5.712410
30
0.0
11
23.490055
21
6.415000
31
0.0
0
LINE
8
0
6
CONTINUOUS
10
44.540475
20
21.413100
30
0.0
11
25.713745
21
20.715840
31
0.0
0
LINE
8
0
6
CONTINUOUS
10
40.623735
20
20.970370
30
0.0
11
22.786715
21
20.309760
31
0.0
0
LINE
8
0
6
CONTINUOUS
10
39.048775
20
13.802810
30
0.0
11
21.674865
21
13.159340
31
0.0
0
LINE
8
0
6
CONTINUOUS
10
23.490055
20
6.415000
30
0.0
11
41.390555
21
7.077960
31
0.0
0
LINE
8
0
6
CONTINUOUS
10
49.819295
20
21.608610
30
0.0
11
44.540475
21
21.413100
31
0.0
0
LINE
8
0
6
CONTINUOUS
10
49.819295
20
21.310942
30
0.0
11
40.623735
21
20.970370
31
0.0
0
LINE
8
0
6
CONTINUOUS
10
47.941983
20
14.132178
30
0.0
11
39.048775
21
13.802810
31
0.0
0
LINE
8
0
6
CONTINUOUS
10
41.390555
20
7.077960
30
0.0
11
44.098382
21
7.178248
31
0.0
0
LINE
8
0
6
CONTINUOUS
10
72.289505
20
22.440820
30
0.0
11
68.934855
21
22.316578
31
0.0
0
LINE
8
0
6
CONTINUOUS
10
81.684325
20
22.788770
30
0.0
11
72.289505
21
22.440820
31
0.0
0
LINE
8
0
6
CONTINUOUS
10
75.840175
20
22.274660
30
0.0
11
68.934855
21
22.018911
31
0.0
0
LINE
8
0
6
CONTINUOUS
10
90.025185
20
23.097680
30
0.0
11
81.684325
21
22.788770
31
0.0
0
LINE
8
0
6
CONTINUOUS
10
83.684595
20
22.565190
30
0.0
11
75.840175
21
22.274660
31
0.0
0
LINE
8
0
6
CONTINUOUS
10
97.289925
20
23.366740
30
0.0
11
90.025185
21
23.097680
31
0.0
0
LINE
8
0
6
CONTINUOUS
10
90.477405
20
22.816760
30
0.0
11
83.684595
21
22.565190
31
0.0
0
LINE
8
0
6
CONTINUOUS
10
103.456655
20
23.595130
30
0.0
11
97.289925
21
23.366740
31
0.0
0
LINE
8
0
6
CONTINUOUS
10
96.232615
20
23.029920
30
0.0
11
90.477405
21
22.816760
31
0.0
0
LINE
8
0
6
CONTINUOUS
10
108.508385
20
23.782230
30
0.0
11
103.456655
21
23.595130
31
0.0
0
LINE
8
0
6
CONTINUOUS
10
100.958685
20
23.204950
30
0.0
11
96.232615
21
23.029920
31
0.0
0
LINE
8
0
6
CONTINUOUS
10
104.655315
20
23.341860
30
0.0
11
100.958685
21
23.204950
31
0.0
0
LINE
8
0
6
CONTINUOUS
10
107.313765
20
23.440310
30
0.0
11
104.655315
21
23.341860
31
0.0
0
LINE
8
0
6
CONTINUOUS
10
108.920055
20
23.499810
30
0.0
11
107.313765
21
23.440310
31
0.0
0
LINE
8
0
6
CONTINUOUS
10
-156.468785
20
1.575120
30
0.0
11
-159.119425
21
-1.854170
31
0.0
0
LINE
8
0
6
CONTINUOUS
10
-158.796555
20
-2.224530
30
0.0
11
-156.028625
21
1.356500
31
0.0
0
LINE
8
0
6
CONTINUOUS
10
-174.791675
20
-0.771630
30
0.0
11
-176.945565
21
2.989610
31
0.0
0
LINE
8
0
6
CONTINUOUS
10
-177.411475
20
2.833570
30
0.0
11
-175.162265
21
-1.094090
31
0.0
0
LINE
8
0
6
CONTINUOUS
10
-173.709285
20
14.900820
30
0.0
11
-169.948285
21
17.049380
31
0.0
0
LINE
8
0
6
CONTINUOUS
10
-170.104595
20
17.515460
30
0.0
11
-174.032015
21
15.271830
31
0.0
0
LINE
8
0
6
CONTINUOUS
10
-162.880605
20
-4.008190
30
0.0
11
-167.179785
21
-4.558780
31
0.0
0
LINE
8
0
6
CONTINUOUS
10
-167.213565
20
-5.048820
30
0.0
11
-162.724145
21
-4.473870
31
0.0
0
LINE
8
0
6
CONTINUOUS
10
-171.362445
20
-3.422360
30
0.0
11
-174.791675
21
-0.771630
31
0.0
0
LINE
8
0
6
CONTINUOUS
10
-175.162265
20
-1.094090
30
0.0
11
-171.581295
21
-3.862130
31
0.0
0
LINE
8
0
6
CONTINUOUS
10
-176.359915
20
11.471440
30
0.0
11
-173.709285
21
14.900820
31
0.0
0
LINE
8
0
6
CONTINUOUS
10
-174.032015
20
15.271830
30
0.0
11
-176.799895
21
11.690710
31
0.0
0
LINE
8
0
6
CONTINUOUS
10
-159.119425
20
-1.854170
30
0.0
11
-162.880605
21
-4.008190
31
0.0
0
LINE
8
0
6
CONTINUOUS
10
-162.724145
20
-4.473870
30
0.0
11
-158.796555
21
-2.224530
31
0.0
0
LINE
8
0
6
CONTINUOUS
10
-177.496295
20
7.288760
30
0.0
11
-176.359915
21
11.471440
31
0.0
0
LINE
8
0
6
CONTINUOUS
10
-176.799895
20
11.690710
30
0.0
11
-177.986555
21
7.322950
31
0.0
0
LINE
8
0
6
CONTINUOUS
10
-155.882985
20
10.056780
30
0.0
11
-155.332235
21
5.757760
31
0.0
0
LINE
8
0
6
CONTINUOUS
10
-154.841775
20
5.724210
30
0.0
11
-155.416905
21
10.213460
31
0.0
0
LINE
8
0
6
CONTINUOUS
10
-161.494265
20
16.415250
30
0.0
11
-158.039565
21
13.812600
31
0.0
0
LINE
8
0
6
CONTINUOUS
10
-157.668905
20
14.135470
30
0.0
11
-161.276485
21
16.853280
31
0.0
0
LINE
8
0
6
CONTINUOUS
10
-165.649925
20
17.553270
30
0.0
11
-161.494265
21
16.415250
31
0.0
0
LINE
8
0
6
CONTINUOUS
10
-161.276485
20
16.853280
30
0.0
11
-165.616025
21
18.041660
31
0.0
0
LINE
8
0
6
CONTINUOUS
10
-158.039565
20
13.812600
30
0.0
11
-155.882985
21
10.056780
31
0.0
0
LINE
8
0
6
CONTINUOUS
10
-155.416905
20
10.213460
30
0.0
11
-157.668905
21
14.135470
31
0.0
0
LINE
8
0
6
CONTINUOUS
10
-176.945565
20
2.989610
30
0.0
11
-177.496295
21
7.288760
31
0.0
0
LINE
8
0
6
CONTINUOUS
10
-177.986555
20
7.322950
30
0.0
11
-177.411475
21
2.833570
31
0.0
0
LINE
8
0
6
CONTINUOUS
10
-155.332235
20
5.757760
30
0.0
11
-156.468785
21
1.575120
31
0.0
0
LINE
8
0
6
CONTINUOUS
10
-156.028625
20
1.356500
30
0.0
11
-154.841775
21
5.724210
31
0.0
0
LINE
8
0
6
CONTINUOUS
10
-169.948285
20
17.049380
30
0.0
11
-165.649925
21
17.553270
31
0.0
0
LINE
8
0
6
CONTINUOUS
10
-165.616025
20
18.041660
30
0.0
11
-170.104595
21
17.515460
31
0.0
0
LINE
8
0
6
CONTINUOUS
10
-167.179785
20
-4.558780
30
0.0
11
-171.362445
21
-3.422360
31
0.0
0
LINE
8
0
6
CONTINUOUS
10
-171.581295
20
-3.862130
30
0.0
11
-167.213565
21
-5.048820
31
0.0
0
LINE
8
0
6
CONTINUOUS
10
-167.179785
20
-4.558780
30
0.0
11
-162.880605
21
-4.008190
31
0.0
0
LINE
8
0
6
CONTINUOUS
10
-162.880605
20
-4.008190
30
0.0
11
-159.119425
21
-1.854170
31
0.0
0
LINE
8
0
6
CONTINUOUS
10
-159.119425
20
-1.854170
30
0.0
11
-156.468785
21
1.575120
31
0.0
0
LINE
8
0
6
CONTINUOUS
10
-156.468785
20
1.575120
30
0.0
11
-155.332235
21
5.757760
31
0.0
0
LINE
8
0
6
CONTINUOUS
10
-155.332235
20
5.757760
30
0.0
11
-155.882985
21
10.056780
31
0.0
0
LINE
8
0
6
CONTINUOUS
10
-155.882985
20
10.056780
30
0.0
11
-158.039565
21
13.812600
31
0.0
0
LINE
8
0
6
CONTINUOUS
10
-158.039565
20
13.812600
30
0.0
11
-161.494265
21
16.415250
31
0.0
0
LINE
8
0
6
CONTINUOUS
10
-161.494265
20
16.415250
30
0.0
11
-165.649925
21
17.553270
31
0.0
0
LINE
8
0
6
CONTINUOUS
10
-165.649925
20
17.553270
30
0.0
11
-169.948285
21
17.049380
31
0.0
0
LINE
8
0
6
CONTINUOUS
10
-169.948285
20
17.049380
30
0.0
11
-173.709285
21
14.900820
31
0.0
0
LINE
8
0
6
CONTINUOUS
10
-173.709285
20
14.900820
30
0.0
11
-176.359915
21
11.471440
31
0.0
0
LINE
8
0
6
CONTINUOUS
10
-176.359915
20
11.471440
30
0.0
11
-177.496295
21
7.288760
31
0.0
0
LINE
8
0
6
CONTINUOUS
10
-177.496295
20
7.288760
30
0.0
11
-176.945565
21
2.989610
31
0.0
0
LINE
8
0
6
CONTINUOUS
10
-176.945565
20
2.989610
30
0.0
11
-174.791675
21
-0.771630
31
0.0
0
LINE
8
0
6
CONTINUOUS
10
-174.791675
20
-0.771630
30
0.0
11
-171.362445
21
-3.422360
31
0.0
0
LINE
8
0
6
CONTINUOUS
10
-171.362445
20
-3.422360
30
0.0
11
-167.179785
21
-4.558780
31
0.0
0
LINE
8
0
6
CONTINUOUS
10
124.662994
20
1.757310
30
0.0
11
123.811289
21
5.012670
31
0.0
0
ENDSEC
0
EOF
