999
Erzeugt mit innoplus bad 
0
SECTION
2
HEADER
9
$ACADVER
1
AC1009
9
$DWGCODEPAGE
3
ISO8859-1
0
ENDSEC
0
SECTION
2
TABLES
0
TABLE
2
LAYER
70
1
0
LAYER
2
0
70
0
62
7
6
CONTINUOUS
0
ENDTAB
0
ENDSEC
0
SECTION
2
ENTITIES
0
LINE
8
0
6
CONTINUOUS
10
-12.293940
20
31.000005
30
0.0
11
0.000000
21
31.000005
31
0.0
0
LINE
8
0
6
CONTINUOUS
10
0.000000
20
39.000005
30
0.0
11
-12.293940
21
39.000005
31
0.0
0
LINE
8
0
6
CONTINUOUS
10
-23.750030
20
31.000005
30
0.0
11
-12.293940
21
31.000005
31
0.0
0
LINE
8
0
6
CONTINUOUS
10
-12.293940
20
39.000005
30
0.0
11
-23.750030
21
39.000005
31
0.0
0
LINE
8
0
6
CONTINUOUS
10
-33.587590
20
31.000005
30
0.0
11
-23.750030
21
31.000005
31
0.0
0
LINE
8
0
6
CONTINUOUS
10
-23.750030
20
39.000005
30
0.0
11
-33.587590
21
39.000005
31
0.0
0
LINE
8
0
6
CONTINUOUS
10
-41.136220
20
31.000005
30
0.0
11
-33.587590
21
31.000005
31
0.0
0
LINE
8
0
6
CONTINUOUS
10
-33.587590
20
39.000005
30
0.0
11
-41.136220
21
39.000005
31
0.0
0
LINE
8
0
6
CONTINUOUS
10
-45.881470
20
31.000005
30
0.0
11
-41.136220
21
31.000005
31
0.0
0
LINE
8
0
6
CONTINUOUS
10
-41.136220
20
39.000005
30
0.0
11
-45.881470
21
39.000005
31
0.0
0
LINE
8
0
6
CONTINUOUS
10
-47.500000
20
31.000005
30
0.0
11
-45.881470
21
31.000005
31
0.0
0
LINE
8
0
6
CONTINUOUS
10
-47.500000
20
32.000005
30
0.0
11
-47.500000
21
31.000005
31
0.0
0
LINE
8
0
6
CONTINUOUS
10
-47.500000
20
39.000005
30
0.0
11
-47.500000
21
38.000005
31
0.0
0
LINE
8
0
6
CONTINUOUS
10
-45.881470
20
39.000005
30
0.0
11
-47.500000
21
39.000005
31
0.0
0
LINE
8
0
6
CONTINUOUS
10
47.500000
20
31.000005
30
0.0
11
47.500000
21
32.000005
31
0.0
0
LINE
8
0
6
CONTINUOUS
10
45.881470
20
31.000005
30
0.0
11
47.500000
21
31.000005
31
0.0
0
LINE
8
0
6
CONTINUOUS
10
47.500000
20
39.000005
30
0.0
11
45.881470
21
39.000005
31
0.0
0
LINE
8
0
6
CONTINUOUS
10
47.500000
20
38.000005
30
0.0
11
47.500000
21
39.000005
31
0.0
0
LINE
8
0
6
CONTINUOUS
10
41.136200
20
31.000005
30
0.0
11
45.881470
21
31.000005
31
0.0
0
LINE
8
0
6
CONTINUOUS
10
45.881470
20
39.000005
30
0.0
11
41.136200
21
39.000005
31
0.0
0
LINE
8
0
6
CONTINUOUS
10
33.587570
20
31.000005
30
0.0
11
41.136200
21
31.000005
31
0.0
0
LINE
8
0
6
CONTINUOUS
10
41.136200
20
39.000005
30
0.0
11
33.587570
21
39.000005
31
0.0
0
LINE
8
0
6
CONTINUOUS
10
23.750000
20
31.000005
30
0.0
11
33.587570
21
31.000005
31
0.0
0
LINE
8
0
6
CONTINUOUS
10
33.587570
20
39.000005
30
0.0
11
23.750000
21
39.000005
31
0.0
0
LINE
8
0
6
CONTINUOUS
10
12.293900
20
31.000005
30
0.0
11
23.750000
21
31.000005
31
0.0
0
LINE
8
0
6
CONTINUOUS
10
23.750000
20
39.000005
30
0.0
11
12.293910
21
39.000005
31
0.0
0
LINE
8
0
6
CONTINUOUS
10
0.000000
20
31.000005
30
0.0
11
12.293900
21
31.000005
31
0.0
0
LINE
8
0
6
CONTINUOUS
10
12.293910
20
39.000005
30
0.0
11
0.000000
21
39.000005
31
0.0
0
LINE
8
0
6
CONTINUOUS
10
-47.500000
20
38.000005
30
0.0
11
-47.500000
21
32.000005
31
0.0
0
LINE
8
0
6
CONTINUOUS
10
47.500000
20
32.000005
30
0.0
11
47.500000
21
38.000005
31
0.0
0
LINE
8
0
6
CONTINUOUS
10
-16.917140
20
-22.088505
30
0.0
11
-16.864020
21
-25.826395
31
0.0
0
LINE
8
0
6
CONTINUOUS
10
-11.104370
20
-30.928845
30
0.0
11
-11.975140
21
-28.491635
31
0.0
0
LINE
8
0
6
CONTINUOUS
10
-10.115630
20
-19.367675
30
0.0
11
-8.803210
21
-17.702615
31
0.0
0
LINE
8
0
6
CONTINUOUS
10
-16.864020
20
-25.826395
30
0.0
11
-16.354990
21
-29.528905
31
0.0
0
LINE
8
0
6
CONTINUOUS
10
-11.975140
20
-28.491635
30
0.0
11
-12.176260
21
-24.914085
31
0.0
0
LINE
8
0
6
CONTINUOUS
10
-6.149920
20
-15.656475
30
0.0
11
-2.965930
21
-14.418855
31
0.0
0
LINE
8
0
6
CONTINUOUS
10
-11.335930
20
-21.413885
30
0.0
11
-10.115630
21
-19.367675
31
0.0
0
LINE
8
0
6
CONTINUOUS
10
-12.176260
20
-24.914085
30
0.0
11
-11.335930
21
-21.413885
31
0.0
0
LINE
8
0
6
CONTINUOUS
10
-8.803210
20
-17.702615
30
0.0
11
-6.149920
21
-15.656475
31
0.0
0
LINE
8
0
6
CONTINUOUS
10
-2.965930
20
-14.418855
30
0.0
11
0.000050
21
-14.093675
31
0.0
0
LINE
8
0
6
CONTINUOUS
10
-10.492160
20
-32.366015
30
0.0
11
-11.104370
21
-30.928845
31
0.0
0
LINE
8
0
6
CONTINUOUS
10
-14.773390
20
-32.837115
30
0.0
11
-13.212010
21
-35.361385
31
0.0
0
LINE
8
0
6
CONTINUOUS
10
-9.770550
20
-38.599605
30
0.0
11
-9.770550
21
-33.780925
31
0.0
0
LINE
8
0
6
CONTINUOUS
10
-16.354990
20
-29.528905
30
0.0
11
-14.773390
21
-32.837115
31
0.0
0
LINE
8
0
6
CONTINUOUS
10
-17.890520
20
31.000005
30
0.0
11
-16.917140
21
-22.088505
31
0.0
0
LINE
8
0
6
CONTINUOUS
10
-9.982840
20
-33.036425
30
0.0
11
-10.492160
21
-32.366015
31
0.0
0
LINE
8
0
6
CONTINUOUS
10
-10.011690
20
-38.745045
30
0.0
11
-9.770550
21
-38.999995
31
0.0
0
LINE
8
0
6
CONTINUOUS
10
-9.770550
20
-38.999995
30
0.0
11
-9.770550
21
-38.599605
31
0.0
0
LINE
8
0
6
CONTINUOUS
10
-9.770550
20
-33.315855
30
0.0
11
-9.982840
21
-33.036425
31
0.0
0
LINE
8
0
6
CONTINUOUS
10
-9.770550
20
-33.780925
30
0.0
11
-9.770550
21
-33.315855
31
0.0
0
LINE
8
0
6
CONTINUOUS
10
-10.011690
20
-38.745045
30
0.0
11
-13.212010
21
-35.361385
31
0.0
0
LINE
8
0
6
CONTINUOUS
10
16.864110
20
-25.826395
30
0.0
11
16.917230
21
-22.088505
31
0.0
0
LINE
8
0
6
CONTINUOUS
10
11.975230
20
-28.491635
30
0.0
11
11.104460
21
-30.928845
31
0.0
0
LINE
8
0
6
CONTINUOUS
10
8.803300
20
-17.702615
30
0.0
11
10.115720
21
-19.367675
31
0.0
0
LINE
8
0
6
CONTINUOUS
10
16.355080
20
-29.528905
30
0.0
11
16.864110
21
-25.826395
31
0.0
0
LINE
8
0
6
CONTINUOUS
10
12.176350
20
-24.914085
30
0.0
11
11.975230
21
-28.491635
31
0.0
0
LINE
8
0
6
CONTINUOUS
10
2.966020
20
-14.418855
30
0.0
11
6.150010
21
-15.656475
31
0.0
0
LINE
8
0
6
CONTINUOUS
10
10.115720
20
-19.367675
30
0.0
11
11.336020
21
-21.413885
31
0.0
0
LINE
8
0
6
CONTINUOUS
10
11.336020
20
-21.413885
30
0.0
11
12.176350
21
-24.914085
31
0.0
0
LINE
8
0
6
CONTINUOUS
10
6.150010
20
-15.656475
30
0.0
11
8.803300
21
-17.702615
31
0.0
0
LINE
8
0
6
CONTINUOUS
10
0.000050
20
-14.093675
30
0.0
11
2.966020
21
-14.418855
31
0.0
0
LINE
8
0
6
CONTINUOUS
10
11.104460
20
-30.928845
30
0.0
11
10.492250
21
-32.366015
31
0.0
0
LINE
8
0
6
CONTINUOUS
10
13.212100
20
-35.361385
30
0.0
11
14.773480
21
-32.837115
31
0.0
0
LINE
8
0
6
CONTINUOUS
10
9.770640
20
-33.780925
30
0.0
11
9.770640
21
-38.599605
31
0.0
0
LINE
8
0
6
CONTINUOUS
10
14.773480
20
-32.837115
30
0.0
11
16.355080
21
-29.528905
31
0.0
0
LINE
8
0
6
CONTINUOUS
10
16.917230
20
-22.088505
30
0.0
11
17.890620
21
31.000005
31
0.0
0
LINE
8
0
6
CONTINUOUS
10
10.492250
20
-32.366015
30
0.0
11
9.982930
21
-33.036425
31
0.0
0
LINE
8
0
6
CONTINUOUS
10
9.770640
20
-38.599605
30
0.0
11
9.770640
21
-38.999995
31
0.0
0
LINE
8
0
6
CONTINUOUS
10
9.770640
20
-38.999995
30
0.0
11
10.011780
21
-38.745045
31
0.0
0
LINE
8
0
6
CONTINUOUS
10
9.770640
20
-33.315855
30
0.0
11
9.770640
21
-33.780925
31
0.0
0
LINE
8
0
6
CONTINUOUS
10
9.982930
20
-33.036425
30
0.0
11
9.770640
21
-33.315855
31
0.0
0
LINE
8
0
6
CONTINUOUS
10
13.212100
20
-35.361385
30
0.0
11
10.011780
21
-38.745045
31
0.0
0
ENDSEC
0
EOF
