999
Erzeugt mit innoplus bad 
0
SECTION
2
HEADER
9
$ACADVER
1
AC1009
9
$DWGCODEPAGE
3
ISO8859-1
0
ENDSEC
0
SECTION
2
TABLES
0
TABLE
2
LAYER
70
1
0
LAYER
2
0
70
0
62
7
6
CONTINUOUS
0
ENDTAB
0
ENDSEC
0
SECTION
2
ENTITIES
0
LINE
8
0
6
CONTINUOUS
10
31.000005
20
-8.536920
30
0.0
11
32.000005
21
-8.536920
31
0.0
0
LINE
8
0
6
CONTINUOUS
10
31.000005
20
-6.918380
30
0.0
11
31.000005
21
-8.536920
31
0.0
0
LINE
8
0
6
CONTINUOUS
10
39.000005
20
-8.536920
30
0.0
11
39.000005
21
-6.918380
31
0.0
0
LINE
8
0
6
CONTINUOUS
10
38.000005
20
-8.536920
30
0.0
11
39.000005
21
-8.536920
31
0.0
0
LINE
8
0
6
CONTINUOUS
10
31.000005
20
-2.173120
30
0.0
11
31.000005
21
-6.918380
31
0.0
0
LINE
8
0
6
CONTINUOUS
10
39.000005
20
-6.918380
30
0.0
11
39.000005
21
-2.173120
31
0.0
0
LINE
8
0
6
CONTINUOUS
10
31.000005
20
5.375520
30
0.0
11
31.000005
21
-2.173120
31
0.0
0
LINE
8
0
6
CONTINUOUS
10
39.000005
20
-2.173120
30
0.0
11
39.000005
21
5.375520
31
0.0
0
LINE
8
0
6
CONTINUOUS
10
31.000005
20
15.213090
30
0.0
11
31.000005
21
5.375520
31
0.0
0
LINE
8
0
6
CONTINUOUS
10
39.000005
20
5.375520
30
0.0
11
39.000005
21
15.213090
31
0.0
0
LINE
8
0
6
CONTINUOUS
10
31.000005
20
26.669180
30
0.0
11
31.000005
21
15.213090
31
0.0
0
LINE
8
0
6
CONTINUOUS
10
39.000005
20
15.213090
30
0.0
11
39.000005
21
26.669180
31
0.0
0
LINE
8
0
6
CONTINUOUS
10
31.000005
20
38.963080
30
0.0
11
31.000005
21
26.669180
31
0.0
0
LINE
8
0
6
CONTINUOUS
10
39.000005
20
26.669180
30
0.0
11
39.000005
21
38.963080
31
0.0
0
LINE
8
0
6
CONTINUOUS
10
31.000005
20
51.256990
30
0.0
11
31.000005
21
38.963080
31
0.0
0
LINE
8
0
6
CONTINUOUS
10
39.000005
20
38.963080
30
0.0
11
39.000005
21
51.256990
31
0.0
0
LINE
8
0
6
CONTINUOUS
10
31.000005
20
62.713080
30
0.0
11
31.000005
21
51.256990
31
0.0
0
LINE
8
0
6
CONTINUOUS
10
39.000005
20
51.256990
30
0.0
11
39.000005
21
62.713080
31
0.0
0
LINE
8
0
6
CONTINUOUS
10
31.000005
20
72.550650
30
0.0
11
31.000005
21
62.713080
31
0.0
0
LINE
8
0
6
CONTINUOUS
10
39.000005
20
62.713080
30
0.0
11
39.000005
21
72.550650
31
0.0
0
LINE
8
0
6
CONTINUOUS
10
31.000005
20
80.099280
30
0.0
11
31.000005
21
72.550650
31
0.0
0
LINE
8
0
6
CONTINUOUS
10
39.000005
20
72.550650
30
0.0
11
39.000005
21
80.099280
31
0.0
0
LINE
8
0
6
CONTINUOUS
10
31.000005
20
84.844550
30
0.0
11
31.000005
21
80.099280
31
0.0
0
LINE
8
0
6
CONTINUOUS
10
39.000005
20
80.099280
30
0.0
11
39.000005
21
84.844560
31
0.0
0
LINE
8
0
6
CONTINUOUS
10
31.000005
20
86.463080
30
0.0
11
31.000005
21
84.844550
31
0.0
0
LINE
8
0
6
CONTINUOUS
10
32.000005
20
86.463080
30
0.0
11
31.000005
21
86.463080
31
0.0
0
LINE
8
0
6
CONTINUOUS
10
39.000005
20
86.463080
30
0.0
11
38.000005
21
86.463080
31
0.0
0
LINE
8
0
6
CONTINUOUS
10
39.000005
20
84.844560
30
0.0
11
39.000005
21
86.463080
31
0.0
0
LINE
8
0
6
CONTINUOUS
10
38.000005
20
86.463080
30
0.0
11
32.000005
21
86.463080
31
0.0
0
LINE
8
0
6
CONTINUOUS
10
32.000005
20
-8.536920
30
0.0
11
38.000005
21
-8.536920
31
0.0
0
LINE
8
0
6
CONTINUOUS
10
31.000005
20
63.957920
30
0.0
11
-22.088505
21
63.957920
31
0.0
0
LINE
8
0
6
CONTINUOUS
10
-25.826395
20
63.957920
30
0.0
11
-29.528905
21
63.957920
31
0.0
0
LINE
8
0
6
CONTINUOUS
10
-22.088505
20
63.957920
30
0.0
11
-25.826395
21
63.957920
31
0.0
0
LINE
8
0
6
CONTINUOUS
10
-38.999995
20
63.957920
30
0.0
11
-39.000005
21
63.500610
31
0.0
0
LINE
8
0
6
CONTINUOUS
10
-38.745045
20
63.957920
30
0.0
11
-38.999995
21
63.957920
31
0.0
0
LINE
8
0
6
CONTINUOUS
10
-29.528905
20
63.957920
30
0.0
11
-32.837115
21
63.957920
31
0.0
0
LINE
8
0
6
CONTINUOUS
10
-32.837115
20
63.957920
30
0.0
11
-35.361385
21
63.957920
31
0.0
0
LINE
8
0
6
CONTINUOUS
10
-39.000005
20
63.500610
30
0.0
11
-39.000005
21
15.616280
31
0.0
0
LINE
8
0
6
CONTINUOUS
10
-35.361385
20
63.957920
30
0.0
11
-38.745045
21
63.957920
31
0.0
0
LINE
8
0
6
CONTINUOUS
10
-22.088505
20
15.158970
30
0.0
11
31.000005
21
15.158970
31
0.0
0
LINE
8
0
6
CONTINUOUS
10
-29.528905
20
15.158970
30
0.0
11
-25.826395
21
15.158970
31
0.0
0
LINE
8
0
6
CONTINUOUS
10
-25.826395
20
15.158970
30
0.0
11
-22.088505
21
15.158970
31
0.0
0
LINE
8
0
6
CONTINUOUS
10
-38.999995
20
15.158970
30
0.0
11
-38.745045
21
15.158970
31
0.0
0
LINE
8
0
6
CONTINUOUS
10
-39.000005
20
15.616280
30
0.0
11
-38.999995
21
15.158970
31
0.0
0
LINE
8
0
6
CONTINUOUS
10
-32.837115
20
15.158970
30
0.0
11
-29.528905
21
15.158970
31
0.0
0
LINE
8
0
6
CONTINUOUS
10
-35.361385
20
15.158970
30
0.0
11
-32.837115
21
15.158970
31
0.0
0
LINE
8
0
6
CONTINUOUS
10
-38.745045
20
15.158970
30
0.0
11
-35.361385
21
15.158970
31
0.0
0
LINE
8
0
6
CONTINUOUS
10
3.771715
20
-75.337560
30
0.0
11
6.530205
21
-77.080670
31
0.0
0
LINE
8
0
6
CONTINUOUS
10
3.755655
20
-85.117610
30
0.0
11
0.014645
21
-86.463080
31
0.0
0
LINE
8
0
6
CONTINUOUS
10
0.035625
20
-74.619250
30
0.0
11
3.771715
21
-75.337560
31
0.0
0
LINE
8
0
6
CONTINUOUS
10
3.771715
20
-75.337560
30
0.0
11
3.804474
21
-14.559881
31
0.0
0
LINE
8
0
6
CONTINUOUS
10
-6.415885
20
-77.094750
30
0.0
11
-3.669675
21
-75.346380
31
0.0
0
LINE
8
0
6
CONTINUOUS
10
6.530205
20
-77.080670
30
0.0
11
7.517425
21
-79.314920
31
0.0
0
LINE
8
0
6
CONTINUOUS
10
6.530205
20
-14.559660
30
0.0
11
6.530205
21
-77.080670
31
0.0
0
LINE
8
0
6
CONTINUOUS
10
-6.415885
20
-77.094750
30
0.0
11
-6.415885
21
-14.560694
31
0.0
0
LINE
8
0
6
CONTINUOUS
10
-7.431435
20
-79.332720
30
0.0
11
-6.415885
21
-77.094750
31
0.0
0
LINE
8
0
6
CONTINUOUS
10
-3.718775
20
-85.136660
30
0.0
11
-6.444225
21
-82.175000
31
0.0
0
LINE
8
0
6
CONTINUOUS
10
3.755655
20
-85.117610
30
0.0
11
3.755655
21
-75.334472
31
0.0
0
LINE
8
0
6
CONTINUOUS
10
6.501865
20
-82.152360
30
0.0
11
3.755655
21
-85.117610
31
0.0
0
LINE
8
0
6
CONTINUOUS
10
6.501865
20
-82.152360
30
0.0
11
6.501865
21
-77.062762
31
0.0
0
LINE
8
0
6
CONTINUOUS
10
7.517425
20
-79.314920
30
0.0
11
6.501865
21
-82.152360
31
0.0
0
LINE
8
0
6
CONTINUOUS
10
7.517425
20
-14.559581
30
0.0
11
7.517425
21
-79.314920
31
0.0
0
LINE
8
0
6
CONTINUOUS
10
-6.444225
20
-82.175000
30
0.0
11
-7.431435
21
-79.332720
31
0.0
0
LINE
8
0
6
CONTINUOUS
10
-6.444225
20
-77.157203
30
0.0
11
-6.444225
21
-82.175000
31
0.0
0
LINE
8
0
6
CONTINUOUS
10
-7.431435
20
-79.332720
30
0.0
11
-7.431435
21
-14.560775
31
0.0
0
LINE
8
0
6
CONTINUOUS
10
-3.718775
20
-85.136660
30
0.0
11
-3.718775
21
-75.377639
31
0.0
0
LINE
8
0
6
CONTINUOUS
10
0.014645
20
-86.463080
30
0.0
11
-3.718775
21
-85.136660
31
0.0
0
LINE
8
0
6
CONTINUOUS
10
0.014645
20
-74.623367
30
0.0
11
0.014645
21
-86.463080
31
0.0
0
LINE
8
0
6
CONTINUOUS
10
0.035625
20
-74.619250
30
0.0
11
0.071028
21
-14.560178
31
0.0
0
LINE
8
0
6
CONTINUOUS
10
-3.669675
20
-75.346380
30
0.0
11
0.035625
21
-74.619250
31
0.0
0
LINE
8
0
6
CONTINUOUS
10
-3.669675
20
-14.560474
30
0.0
11
-3.669675
21
-75.346380
31
0.0
0
LINE
8
0
6
CONTINUOUS
10
-10.269315
20
-14.560980
30
0.0
11
-10.292675
21
-14.038860
31
0.0
0
LINE
8
0
6
CONTINUOUS
10
10.364735
20
-14.559340
30
0.0
11
10.387915
21
-14.037230
31
0.0
0
LINE
8
0
6
CONTINUOUS
10
-10.292675
20
-14.038860
30
0.0
11
-11.632955
21
15.158970
31
0.0
0
LINE
8
0
6
CONTINUOUS
10
10.387915
20
-14.037230
30
0.0
11
11.718435
21
15.158970
31
0.0
0
LINE
8
0
6
CONTINUOUS
10
-3.899995
20
-14.560470
30
0.0
11
-7.247195
21
-14.560740
31
0.0
0
LINE
8
0
6
CONTINUOUS
10
-9.483795
20
-14.560920
30
0.0
11
-10.269315
21
-14.560980
31
0.0
0
LINE
8
0
6
CONTINUOUS
10
7.343295
20
-14.559580
30
0.0
11
3.996315
21
-14.559850
31
0.0
0
LINE
8
0
6
CONTINUOUS
10
10.364735
20
-14.559340
30
0.0
11
9.579585
21
-14.559400
31
0.0
0
LINE
8
0
6
CONTINUOUS
10
9.579585
20
-14.559400
30
0.0
11
7.343295
21
-14.559580
31
0.0
0
LINE
8
0
6
CONTINUOUS
10
-7.247195
20
-14.560740
30
0.0
11
-9.483795
21
-14.560920
31
0.0
0
LINE
8
0
6
CONTINUOUS
10
3.996315
20
-14.559850
30
0.0
11
0.048195
21
-14.560160
31
0.0
0
LINE
8
0
6
CONTINUOUS
10
0.048195
20
-14.560160
30
0.0
11
-3.899995
21
-14.560470
31
0.0
0
ENDSEC
0
EOF
