999
Erzeugt mit innoplus bad 
0
SECTION
2
HEADER
9
$ACADVER
1
AC1009
9
$DWGCODEPAGE
3
ISO8859-1
0
ENDSEC
0
SECTION
2
TABLES
0
TABLE
2
LAYER
70
1
0
LAYER
2
0
70
0
62
7
6
CONTINUOUS
0
ENDTAB
0
ENDSEC
0
SECTION
2
ENTITIES
0
LINE
8
0
6
CONTINUOUS
10
-44.999980
20
40.213080
30
0.0
11
-44.928900
21
29.681560
31
0.0
0
LINE
8
0
6
CONTINUOUS
10
-15.267620
20
-4.551390
30
0.0
11
-10.757142
21
-4.685808
31
0.0
0
LINE
8
0
6
CONTINUOUS
10
-20.346530
20
-4.323900
30
0.0
11
-15.267620
21
-4.551390
31
0.0
0
LINE
8
0
6
CONTINUOUS
10
-25.411650
20
-3.897600
30
0.0
11
-20.346530
21
-4.323900
31
0.0
0
LINE
8
0
6
CONTINUOUS
10
-30.439920
20
-3.140730
30
0.0
11
-25.411650
21
-3.897600
31
0.0
0
LINE
8
0
6
CONTINUOUS
10
-35.269240
20
-1.736710
30
0.0
11
-30.439920
21
-3.140730
31
0.0
0
LINE
8
0
6
CONTINUOUS
10
-39.167870
20
0.804360
30
0.0
11
-35.269240
21
-1.736710
31
0.0
0
LINE
8
0
6
CONTINUOUS
10
-41.898530
20
4.818700
30
0.0
11
-39.167870
21
0.804360
31
0.0
0
LINE
8
0
6
CONTINUOUS
10
-43.420440
20
9.597440
30
0.0
11
-41.898530
21
4.818700
31
0.0
0
LINE
8
0
6
CONTINUOUS
10
-44.117770
20
14.580770
30
0.0
11
-43.420440
21
9.597440
31
0.0
0
LINE
8
0
6
CONTINUOUS
10
-44.541030
20
19.605030
30
0.0
11
-44.117770
21
14.580770
31
0.0
0
LINE
8
0
6
CONTINUOUS
10
-44.791240
20
24.640240
30
0.0
11
-44.541030
21
19.605030
31
0.0
0
LINE
8
0
6
CONTINUOUS
10
-44.928900
20
29.681560
30
0.0
11
-44.791240
21
24.640240
31
0.0
0
LINE
8
0
6
CONTINUOUS
10
0.000000
20
85.213080
30
0.0
11
-10.189980
21
85.128870
31
0.0
0
LINE
8
0
6
CONTINUOUS
10
-44.928900
20
50.744600
30
0.0
11
-44.999980
21
40.213080
31
0.0
0
LINE
8
0
6
CONTINUOUS
10
-10.189980
20
85.128870
30
0.0
11
-15.267620
21
84.977550
31
0.0
0
LINE
8
0
6
CONTINUOUS
10
-15.267620
20
84.977550
30
0.0
11
-20.346530
21
84.750060
31
0.0
0
LINE
8
0
6
CONTINUOUS
10
-20.346530
20
84.750060
30
0.0
11
-25.411650
21
84.323760
31
0.0
0
LINE
8
0
6
CONTINUOUS
10
-25.411650
20
84.323760
30
0.0
11
-30.439920
21
83.566890
31
0.0
0
LINE
8
0
6
CONTINUOUS
10
-30.439920
20
83.566890
30
0.0
11
-35.269240
21
82.162870
31
0.0
0
LINE
8
0
6
CONTINUOUS
10
-35.269240
20
82.162870
30
0.0
11
-39.167870
21
79.621800
31
0.0
0
LINE
8
0
6
CONTINUOUS
10
-39.167870
20
79.621800
30
0.0
11
-41.898530
21
75.607460
31
0.0
0
LINE
8
0
6
CONTINUOUS
10
-41.898530
20
75.607460
30
0.0
11
-43.420440
21
70.828720
31
0.0
0
LINE
8
0
6
CONTINUOUS
10
-43.420440
20
70.828720
30
0.0
11
-44.117770
21
65.845390
31
0.0
0
LINE
8
0
6
CONTINUOUS
10
-44.117770
20
65.845390
30
0.0
11
-44.541030
21
60.821130
31
0.0
0
LINE
8
0
6
CONTINUOUS
10
-44.541030
20
60.821130
30
0.0
11
-44.791240
21
55.785920
31
0.0
0
LINE
8
0
6
CONTINUOUS
10
-44.791240
20
55.785920
30
0.0
11
-44.928900
21
50.744600
31
0.0
0
LINE
8
0
6
CONTINUOUS
10
44.928900
20
29.681560
30
0.0
11
44.999980
21
40.213080
31
0.0
0
LINE
8
0
6
CONTINUOUS
10
10.664468
20
-4.688570
30
0.0
11
15.267620
21
-4.551390
31
0.0
0
LINE
8
0
6
CONTINUOUS
10
15.267620
20
-4.551390
30
0.0
11
20.346530
21
-4.323900
31
0.0
0
LINE
8
0
6
CONTINUOUS
10
20.346530
20
-4.323900
30
0.0
11
25.411650
21
-3.897600
31
0.0
0
LINE
8
0
6
CONTINUOUS
10
25.411650
20
-3.897600
30
0.0
11
30.439920
21
-3.140730
31
0.0
0
LINE
8
0
6
CONTINUOUS
10
30.439920
20
-3.140730
30
0.0
11
35.269240
21
-1.736710
31
0.0
0
LINE
8
0
6
CONTINUOUS
10
35.269240
20
-1.736710
30
0.0
11
39.167870
21
0.804360
31
0.0
0
LINE
8
0
6
CONTINUOUS
10
39.167870
20
0.804360
30
0.0
11
41.898530
21
4.818700
31
0.0
0
LINE
8
0
6
CONTINUOUS
10
41.898530
20
4.818700
30
0.0
11
43.420440
21
9.597440
31
0.0
0
LINE
8
0
6
CONTINUOUS
10
43.420440
20
9.597440
30
0.0
11
44.117770
21
14.580770
31
0.0
0
LINE
8
0
6
CONTINUOUS
10
44.117770
20
14.580770
30
0.0
11
44.541030
21
19.605030
31
0.0
0
LINE
8
0
6
CONTINUOUS
10
44.541030
20
19.605030
30
0.0
11
44.791240
21
24.640240
31
0.0
0
LINE
8
0
6
CONTINUOUS
10
44.791240
20
24.640240
30
0.0
11
44.928900
21
29.681560
31
0.0
0
LINE
8
0
6
CONTINUOUS
10
10.189980
20
85.128870
30
0.0
11
0.000000
21
85.213080
31
0.0
0
LINE
8
0
6
CONTINUOUS
10
44.999980
20
40.213080
30
0.0
11
44.928900
21
50.744600
31
0.0
0
LINE
8
0
6
CONTINUOUS
10
15.267620
20
84.977550
30
0.0
11
10.189980
21
85.128870
31
0.0
0
LINE
8
0
6
CONTINUOUS
10
20.346530
20
84.750060
30
0.0
11
15.267620
21
84.977550
31
0.0
0
LINE
8
0
6
CONTINUOUS
10
25.411650
20
84.323760
30
0.0
11
20.346530
21
84.750060
31
0.0
0
LINE
8
0
6
CONTINUOUS
10
30.439920
20
83.566890
30
0.0
11
25.411650
21
84.323760
31
0.0
0
LINE
8
0
6
CONTINUOUS
10
35.269240
20
82.162870
30
0.0
11
30.439920
21
83.566890
31
0.0
0
LINE
8
0
6
CONTINUOUS
10
39.167870
20
79.621800
30
0.0
11
35.269240
21
82.162870
31
0.0
0
LINE
8
0
6
CONTINUOUS
10
41.898530
20
75.607460
30
0.0
11
39.167870
21
79.621800
31
0.0
0
LINE
8
0
6
CONTINUOUS
10
43.420440
20
70.828720
30
0.0
11
41.898530
21
75.607460
31
0.0
0
LINE
8
0
6
CONTINUOUS
10
44.117770
20
65.845390
30
0.0
11
43.420440
21
70.828720
31
0.0
0
LINE
8
0
6
CONTINUOUS
10
44.541030
20
60.821130
30
0.0
11
44.117770
21
65.845390
31
0.0
0
LINE
8
0
6
CONTINUOUS
10
44.791240
20
55.785920
30
0.0
11
44.541030
21
60.821130
31
0.0
0
LINE
8
0
6
CONTINUOUS
10
44.928900
20
50.744600
30
0.0
11
44.791240
21
55.785920
31
0.0
0
LINE
8
0
6
CONTINUOUS
10
3.715820
20
-75.844750
30
0.0
11
6.441270
21
-74.096380
31
0.0
0
LINE
8
0
6
CONTINUOUS
10
3.715820
20
-75.844750
30
0.0
11
3.715820
21
-13.310923
31
0.0
0
LINE
8
0
6
CONTINUOUS
10
-0.017600
20
-78.082720
30
0.0
11
3.715820
21
-75.844750
31
0.0
0
LINE
8
0
6
CONTINUOUS
10
-6.504820
20
-83.886660
30
0.0
11
-3.758610
21
-80.925000
31
0.0
0
LINE
8
0
6
CONTINUOUS
10
-3.758610
20
-80.925000
30
0.0
11
-0.017600
21
-78.082720
31
0.0
0
LINE
8
0
6
CONTINUOUS
10
-3.758610
20
-13.310924
30
0.0
11
-3.758610
21
-80.925000
31
0.0
0
LINE
8
0
6
CONTINUOUS
10
-0.017600
20
-78.082720
30
0.0
11
-0.017600
21
-13.310980
31
0.0
0
LINE
8
0
6
CONTINUOUS
10
-6.504820
20
-83.886660
30
0.0
11
-6.504820
21
-13.310785
31
0.0
0
LINE
8
0
6
CONTINUOUS
10
-7.520370
20
-85.213080
30
0.0
11
-6.504820
21
-83.886660
31
0.0
0
LINE
8
0
6
CONTINUOUS
10
-7.520370
20
-13.310178
30
0.0
11
-7.520370
21
-85.213080
31
0.0
0
LINE
8
0
6
CONTINUOUS
10
7.434840
20
-73.369250
30
0.0
11
7.428535
21
-13.310718
31
0.0
0
LINE
8
0
6
CONTINUOUS
10
6.441270
20
-74.096380
30
0.0
11
7.434840
21
-73.369250
31
0.0
0
LINE
8
0
6
CONTINUOUS
10
6.441270
20
-13.310474
30
0.0
11
6.441270
21
-74.085168
31
0.0
0
LINE
8
0
6
CONTINUOUS
10
-10.363280
20
-13.310160
30
0.0
11
-10.386540
21
-12.788050
31
0.0
0
LINE
8
0
6
CONTINUOUS
10
10.294040
20
-12.788050
30
0.0
11
10.270780
21
-13.310160
31
0.0
0
LINE
8
0
6
CONTINUOUS
10
-10.386540
20
-12.788050
30
0.0
11
-11.722030
21
16.408970
31
0.0
0
LINE
8
0
6
CONTINUOUS
10
11.629360
20
16.408970
30
0.0
11
10.294040
21
-12.788050
31
0.0
0
LINE
8
0
6
CONTINUOUS
10
9.485630
20
-13.310470
30
0.0
11
7.249340
21
-13.310740
31
0.0
0
LINE
8
0
6
CONTINUOUS
10
-3.993950
20
-13.310920
30
0.0
11
-7.341150
21
-13.310740
31
0.0
0
LINE
8
0
6
CONTINUOUS
10
-7.341150
20
-13.310740
30
0.0
11
-9.577750
21
-13.310470
31
0.0
0
LINE
8
0
6
CONTINUOUS
10
-9.577750
20
-13.310470
30
0.0
11
-10.363280
21
-13.310160
31
0.0
0
LINE
8
0
6
CONTINUOUS
10
3.902360
20
-13.310920
30
0.0
11
-0.045760
21
-13.310980
31
0.0
0
LINE
8
0
6
CONTINUOUS
10
-0.045760
20
-13.310980
30
0.0
11
-3.993950
21
-13.310920
31
0.0
0
LINE
8
0
6
CONTINUOUS
10
7.249340
20
-13.310740
30
0.0
11
3.902360
21
-13.310920
31
0.0
0
LINE
8
0
6
CONTINUOUS
10
10.270780
20
-13.310160
30
0.0
11
9.485630
21
-13.310470
31
0.0
0
LINE
8
0
6
CONTINUOUS
10
-17.890520
20
65.207920
30
0.0
11
-17.890520
21
64.750610
31
0.0
0
LINE
8
0
6
CONTINUOUS
10
-16.917140
20
65.207920
30
0.0
11
-17.890520
21
65.207920
31
0.0
0
LINE
8
0
6
CONTINUOUS
10
-17.890520
20
64.750610
30
0.0
11
-17.890520
21
16.866280
31
0.0
0
LINE
8
0
6
CONTINUOUS
10
-8.803210
20
65.207920
30
0.0
11
-10.115630
21
65.207920
31
0.0
0
LINE
8
0
6
CONTINUOUS
10
0.000050
20
65.207920
30
0.0
11
-2.965930
21
65.207920
31
0.0
0
LINE
8
0
6
CONTINUOUS
10
-2.965930
20
65.207920
30
0.0
11
-6.149920
21
65.207920
31
0.0
0
LINE
8
0
6
CONTINUOUS
10
-6.149920
20
65.207920
30
0.0
11
-8.803210
21
65.207920
31
0.0
0
LINE
8
0
6
CONTINUOUS
10
-16.354990
20
65.207920
30
0.0
11
-16.864020
21
65.207920
31
0.0
0
LINE
8
0
6
CONTINUOUS
10
-16.864020
20
65.207920
30
0.0
11
-16.917140
21
65.207920
31
0.0
0
LINE
8
0
6
CONTINUOUS
10
-9.770550
20
65.207920
30
0.0
11
-10.011690
21
65.207920
31
0.0
0
LINE
8
0
6
CONTINUOUS
10
-9.770550
20
64.750610
30
0.0
11
-9.770550
21
65.207920
31
0.0
0
LINE
8
0
6
CONTINUOUS
10
-14.773390
20
65.207920
30
0.0
11
-16.354990
21
65.207920
31
0.0
0
LINE
8
0
6
CONTINUOUS
10
-13.212010
20
65.207920
30
0.0
11
-14.773390
21
65.207920
31
0.0
0
LINE
8
0
6
CONTINUOUS
10
-9.770550
20
16.866280
30
0.0
11
-9.770550
21
64.750610
31
0.0
0
LINE
8
0
6
CONTINUOUS
10
-10.011690
20
65.207920
30
0.0
11
-13.212010
21
65.207920
31
0.0
0
LINE
8
0
6
CONTINUOUS
10
-17.890520
20
16.408970
30
0.0
11
-16.917140
21
16.408970
31
0.0
0
LINE
8
0
6
CONTINUOUS
10
-17.890520
20
16.866280
30
0.0
11
-17.890520
21
16.408970
31
0.0
0
LINE
8
0
6
CONTINUOUS
10
-10.115630
20
16.408970
30
0.0
11
-8.803210
21
16.408970
31
0.0
0
LINE
8
0
6
CONTINUOUS
10
-2.965930
20
16.408970
30
0.0
11
0.000050
21
16.408970
31
0.0
0
LINE
8
0
6
CONTINUOUS
10
-6.149920
20
16.408970
30
0.0
11
-2.965930
21
16.408970
31
0.0
0
LINE
8
0
6
CONTINUOUS
10
-8.803210
20
16.408970
30
0.0
11
-6.149920
21
16.408970
31
0.0
0
LINE
8
0
6
CONTINUOUS
10
-16.864020
20
16.408970
30
0.0
11
-16.354990
21
16.408970
31
0.0
0
LINE
8
0
6
CONTINUOUS
10
-16.917140
20
16.408970
30
0.0
11
-16.864020
21
16.408970
31
0.0
0
LINE
8
0
6
CONTINUOUS
10
-9.770550
20
16.408970
30
0.0
11
-9.770550
21
16.866280
31
0.0
0
LINE
8
0
6
CONTINUOUS
10
-10.011690
20
16.408970
30
0.0
11
-9.770550
21
16.408970
31
0.0
0
LINE
8
0
6
CONTINUOUS
10
-16.354990
20
16.408970
30
0.0
11
-14.773390
21
16.408970
31
0.0
0
LINE
8
0
6
CONTINUOUS
10
-14.773390
20
16.408970
30
0.0
11
-13.212010
21
16.408970
31
0.0
0
LINE
8
0
6
CONTINUOUS
10
-13.212010
20
16.408970
30
0.0
11
-10.011690
21
16.408970
31
0.0
0
LINE
8
0
6
CONTINUOUS
10
17.890620
20
65.207920
30
0.0
11
16.917230
21
65.207920
31
0.0
0
LINE
8
0
6
CONTINUOUS
10
17.890620
20
64.750610
30
0.0
11
17.890620
21
65.207920
31
0.0
0
LINE
8
0
6
CONTINUOUS
10
17.890620
20
16.866280
30
0.0
11
17.890620
21
64.750610
31
0.0
0
LINE
8
0
6
CONTINUOUS
10
10.115720
20
65.207920
30
0.0
11
8.803300
21
65.207920
31
0.0
0
LINE
8
0
6
CONTINUOUS
10
2.966020
20
65.207920
30
0.0
11
0.000050
21
65.207920
31
0.0
0
LINE
8
0
6
CONTINUOUS
10
6.150010
20
65.207920
30
0.0
11
2.966020
21
65.207920
31
0.0
0
LINE
8
0
6
CONTINUOUS
10
8.803300
20
65.207920
30
0.0
11
6.150010
21
65.207920
31
0.0
0
LINE
8
0
6
CONTINUOUS
10
16.864110
20
65.207920
30
0.0
11
16.355080
21
65.207920
31
0.0
0
LINE
8
0
6
CONTINUOUS
10
16.917230
20
65.207920
30
0.0
11
16.864110
21
65.207920
31
0.0
0
LINE
8
0
6
CONTINUOUS
10
9.770640
20
65.207920
30
0.0
11
9.770640
21
64.750610
31
0.0
0
LINE
8
0
6
CONTINUOUS
10
10.011780
20
65.207920
30
0.0
11
9.770640
21
65.207920
31
0.0
0
LINE
8
0
6
CONTINUOUS
10
16.355080
20
65.207920
30
0.0
11
14.773480
21
65.207920
31
0.0
0
LINE
8
0
6
CONTINUOUS
10
14.773480
20
65.207920
30
0.0
11
13.212100
21
65.207920
31
0.0
0
LINE
8
0
6
CONTINUOUS
10
9.770640
20
64.750610
30
0.0
11
9.770640
21
16.866280
31
0.0
0
LINE
8
0
6
CONTINUOUS
10
13.212100
20
65.207920
30
0.0
11
10.011780
21
65.207920
31
0.0
0
LINE
8
0
6
CONTINUOUS
10
17.890620
20
16.408970
30
0.0
11
17.890620
21
16.866280
31
0.0
0
LINE
8
0
6
CONTINUOUS
10
16.917230
20
16.408970
30
0.0
11
17.890620
21
16.408970
31
0.0
0
LINE
8
0
6
CONTINUOUS
10
8.803300
20
16.408970
30
0.0
11
10.115720
21
16.408970
31
0.0
0
LINE
8
0
6
CONTINUOUS
10
0.000050
20
16.408970
30
0.0
11
2.966020
21
16.408970
31
0.0
0
LINE
8
0
6
CONTINUOUS
10
2.966020
20
16.408970
30
0.0
11
6.150010
21
16.408970
31
0.0
0
LINE
8
0
6
CONTINUOUS
10
6.150010
20
16.408970
30
0.0
11
8.803300
21
16.408970
31
0.0
0
LINE
8
0
6
CONTINUOUS
10
16.355080
20
16.408970
30
0.0
11
16.864110
21
16.408970
31
0.0
0
LINE
8
0
6
CONTINUOUS
10
16.864110
20
16.408970
30
0.0
11
16.917230
21
16.408970
31
0.0
0
LINE
8
0
6
CONTINUOUS
10
9.770640
20
16.408970
30
0.0
11
10.011780
21
16.408970
31
0.0
0
LINE
8
0
6
CONTINUOUS
10
9.770640
20
16.866280
30
0.0
11
9.770640
21
16.408970
31
0.0
0
LINE
8
0
6
CONTINUOUS
10
14.773480
20
16.408970
30
0.0
11
16.355080
21
16.408970
31
0.0
0
LINE
8
0
6
CONTINUOUS
10
13.212100
20
16.408970
30
0.0
11
14.773480
21
16.408970
31
0.0
0
LINE
8
0
6
CONTINUOUS
10
10.011780
20
16.408970
30
0.0
11
13.212100
21
16.408970
31
0.0
0
ENDSEC
0
EOF
