999
Erzeugt mit innoplus bad 
0
SECTION
2
HEADER
9
$ACADVER
1
AC1009
9
$DWGCODEPAGE
3
ISO8859-1
0
ENDSEC
0
SECTION
2
TABLES
0
TABLE
2
LAYER
70
1
0
LAYER
2
0
70
0
62
7
6
CONTINUOUS
0
ENDTAB
0
ENDSEC
0
SECTION
2
ENTITIES
0
LINE
8
0
6
CONTINUOUS
10
3.445980
20
-24.778135
30
0.0
11
3.445980
21
-24.701305
31
0.0
0
LINE
8
0
6
CONTINUOUS
10
3.243830
20
-42.497345
30
0.0
11
3.445980
21
-42.103285
31
0.0
0
LINE
8
0
6
CONTINUOUS
10
2.915770
20
-42.806955
30
0.0
11
3.243830
21
-42.497345
31
0.0
0
LINE
8
0
6
CONTINUOUS
10
2.498270
20
-42.997755
30
0.0
11
2.915770
21
-42.806955
31
0.0
0
LINE
8
0
6
CONTINUOUS
10
2.387750
20
-42.997755
30
0.0
11
2.498270
21
-42.997755
31
0.0
0
LINE
8
0
6
CONTINUOUS
10
2.093430
20
-42.997755
30
0.0
11
2.387750
21
-42.997755
31
0.0
0
LINE
8
0
6
CONTINUOUS
10
1.629570
20
-42.997755
30
0.0
11
2.093430
21
-42.997755
31
0.0
0
LINE
8
0
6
CONTINUOUS
10
-0.000250
20
-42.997755
30
0.0
11
0.353990
21
-42.997755
31
0.0
0
LINE
8
0
6
CONTINUOUS
10
1.033670
20
-42.997755
30
0.0
11
1.629570
21
-42.997755
31
0.0
0
LINE
8
0
6
CONTINUOUS
10
0.353990
20
-42.997755
30
0.0
11
1.033670
21
-42.997755
31
0.0
0
LINE
8
0
6
CONTINUOUS
10
2.915770
20
-23.997635
30
0.0
11
2.498270
21
-23.806845
31
0.0
0
LINE
8
0
6
CONTINUOUS
10
2.498270
20
-23.806845
30
0.0
11
2.387750
21
-23.806845
31
0.0
0
LINE
8
0
6
CONTINUOUS
10
3.243830
20
-24.307255
30
0.0
11
2.915770
21
-23.997635
31
0.0
0
LINE
8
0
6
CONTINUOUS
10
3.445980
20
-24.701305
30
0.0
11
3.243830
21
-24.307255
31
0.0
0
LINE
8
0
6
CONTINUOUS
10
3.306420
20
-24.701305
30
0.0
11
3.445980
21
-24.701305
31
0.0
0
LINE
8
0
6
CONTINUOUS
10
2.898880
20
-24.701305
30
0.0
11
3.306420
21
-24.701305
31
0.0
0
LINE
8
0
6
CONTINUOUS
10
2.387750
20
-23.806845
30
0.0
11
2.093430
21
-23.806845
31
0.0
0
LINE
8
0
6
CONTINUOUS
10
2.256600
20
-24.701305
30
0.0
11
2.898880
21
-24.701305
31
0.0
0
LINE
8
0
6
CONTINUOUS
10
2.093430
20
-23.806845
30
0.0
11
1.629570
21
-23.806845
31
0.0
0
LINE
8
0
6
CONTINUOUS
10
0.353990
20
-23.806845
30
0.0
11
-0.000250
21
-23.806845
31
0.0
0
LINE
8
0
6
CONTINUOUS
10
1.431420
20
-24.701305
30
0.0
11
2.256600
21
-24.701305
31
0.0
0
LINE
8
0
6
CONTINUOUS
10
1.629570
20
-23.806845
30
0.0
11
1.033670
21
-23.806845
31
0.0
0
LINE
8
0
6
CONTINUOUS
10
0.490240
20
-24.701305
30
0.0
11
1.431420
21
-24.701305
31
0.0
0
LINE
8
0
6
CONTINUOUS
10
1.033670
20
-23.806845
30
0.0
11
0.353990
21
-23.806845
31
0.0
0
LINE
8
0
6
CONTINUOUS
10
0.490240
20
-42.103285
30
0.0
11
1.431420
21
-42.103285
31
0.0
0
LINE
8
0
6
CONTINUOUS
10
1.431420
20
-42.103285
30
0.0
11
2.256600
21
-42.103285
31
0.0
0
LINE
8
0
6
CONTINUOUS
10
2.898880
20
-42.103285
30
0.0
11
3.306420
21
-42.103285
31
0.0
0
LINE
8
0
6
CONTINUOUS
10
2.256600
20
-42.103285
30
0.0
11
2.898880
21
-42.103285
31
0.0
0
LINE
8
0
6
CONTINUOUS
10
3.445980
20
-42.103285
30
0.0
11
3.445980
21
-41.908485
31
0.0
0
LINE
8
0
6
CONTINUOUS
10
3.306420
20
-42.103285
30
0.0
11
3.445980
21
-42.103285
31
0.0
0
LINE
8
0
6
CONTINUOUS
10
3.445980
20
-41.908485
30
0.0
11
3.445980
21
-24.778135
31
0.0
0
LINE
8
0
6
CONTINUOUS
10
0.490240
20
-24.701305
30
0.0
11
-0.000250
21
-24.701305
31
0.0
0
LINE
8
0
6
CONTINUOUS
10
-0.000250
20
-42.103285
30
0.0
11
0.490240
21
-42.103285
31
0.0
0
LINE
8
0
6
CONTINUOUS
10
-3.446480
20
-24.701305
30
0.0
11
-3.446480
21
-24.778135
31
0.0
0
LINE
8
0
6
CONTINUOUS
10
-3.446480
20
-42.103285
30
0.0
11
-3.244330
21
-42.497345
31
0.0
0
LINE
8
0
6
CONTINUOUS
10
-3.244330
20
-42.497345
30
0.0
11
-2.916270
21
-42.806955
31
0.0
0
LINE
8
0
6
CONTINUOUS
10
-2.498770
20
-42.997755
30
0.0
11
-2.388250
21
-42.997755
31
0.0
0
LINE
8
0
6
CONTINUOUS
10
-2.916270
20
-42.806955
30
0.0
11
-2.498770
21
-42.997755
31
0.0
0
LINE
8
0
6
CONTINUOUS
10
-2.388250
20
-42.997755
30
0.0
11
-2.093930
21
-42.997755
31
0.0
0
LINE
8
0
6
CONTINUOUS
10
-2.093930
20
-42.997755
30
0.0
11
-1.630070
21
-42.997755
31
0.0
0
LINE
8
0
6
CONTINUOUS
10
-0.354490
20
-42.997755
30
0.0
11
-0.000250
21
-42.997755
31
0.0
0
LINE
8
0
6
CONTINUOUS
10
-1.630070
20
-42.997755
30
0.0
11
-1.034170
21
-42.997755
31
0.0
0
LINE
8
0
6
CONTINUOUS
10
-1.034170
20
-42.997755
30
0.0
11
-0.354490
21
-42.997755
31
0.0
0
LINE
8
0
6
CONTINUOUS
10
-2.388250
20
-23.806845
30
0.0
11
-2.498770
21
-23.806845
31
0.0
0
LINE
8
0
6
CONTINUOUS
10
-2.498770
20
-23.806845
30
0.0
11
-2.916270
21
-23.997635
31
0.0
0
LINE
8
0
6
CONTINUOUS
10
-2.916270
20
-23.997635
30
0.0
11
-3.244330
21
-24.307255
31
0.0
0
LINE
8
0
6
CONTINUOUS
10
-3.446480
20
-24.701305
30
0.0
11
-3.306920
21
-24.701305
31
0.0
0
LINE
8
0
6
CONTINUOUS
10
-3.244330
20
-24.307255
30
0.0
11
-3.446480
21
-24.701305
31
0.0
0
LINE
8
0
6
CONTINUOUS
10
-3.306920
20
-24.701305
30
0.0
11
-2.899380
21
-24.701305
31
0.0
0
LINE
8
0
6
CONTINUOUS
10
-2.093930
20
-23.806845
30
0.0
11
-2.388250
21
-23.806845
31
0.0
0
LINE
8
0
6
CONTINUOUS
10
-2.899380
20
-24.701305
30
0.0
11
-2.257100
21
-24.701305
31
0.0
0
LINE
8
0
6
CONTINUOUS
10
-1.630070
20
-23.806845
30
0.0
11
-2.093930
21
-23.806845
31
0.0
0
LINE
8
0
6
CONTINUOUS
10
-0.000250
20
-23.806845
30
0.0
11
-0.354490
21
-23.806845
31
0.0
0
LINE
8
0
6
CONTINUOUS
10
-2.257100
20
-24.701305
30
0.0
11
-1.431920
21
-24.701305
31
0.0
0
LINE
8
0
6
CONTINUOUS
10
-1.034170
20
-23.806845
30
0.0
11
-1.630070
21
-23.806845
31
0.0
0
LINE
8
0
6
CONTINUOUS
10
-1.431920
20
-24.701305
30
0.0
11
-0.490740
21
-24.701305
31
0.0
0
LINE
8
0
6
CONTINUOUS
10
-0.354490
20
-23.806845
30
0.0
11
-1.034170
21
-23.806845
31
0.0
0
LINE
8
0
6
CONTINUOUS
10
-1.431920
20
-42.103285
30
0.0
11
-0.490740
21
-42.103285
31
0.0
0
LINE
8
0
6
CONTINUOUS
10
-2.257100
20
-42.103285
30
0.0
11
-1.431920
21
-42.103285
31
0.0
0
LINE
8
0
6
CONTINUOUS
10
-3.306920
20
-42.103285
30
0.0
11
-2.899380
21
-42.103285
31
0.0
0
LINE
8
0
6
CONTINUOUS
10
-2.899380
20
-42.103285
30
0.0
11
-2.257100
21
-42.103285
31
0.0
0
LINE
8
0
6
CONTINUOUS
10
-3.446480
20
-42.103285
30
0.0
11
-3.306920
21
-42.103285
31
0.0
0
LINE
8
0
6
CONTINUOUS
10
-3.446480
20
-41.908485
30
0.0
11
-3.446480
21
-42.103285
31
0.0
0
LINE
8
0
6
CONTINUOUS
10
-3.446480
20
-24.778135
30
0.0
11
-3.446480
21
-41.908485
31
0.0
0
LINE
8
0
6
CONTINUOUS
10
-0.000250
20
-24.701305
30
0.0
11
-0.490740
21
-24.701305
31
0.0
0
LINE
8
0
6
CONTINUOUS
10
-0.490740
20
-42.103285
30
0.0
11
-0.000250
21
-42.103285
31
0.0
0
LINE
8
0
6
CONTINUOUS
10
-0.000270
20
-43.000025
30
0.0
11
5.221520
21
-43.000025
31
0.0
0
LINE
8
0
6
CONTINUOUS
10
5.221520
20
-43.000025
30
0.0
11
10.181530
21
-43.000005
31
0.0
0
LINE
8
0
6
CONTINUOUS
10
10.181530
20
-43.000005
30
0.0
11
14.630950
21
-43.000005
31
0.0
0
LINE
8
0
6
CONTINUOUS
10
14.630950
20
-43.000005
30
0.0
11
18.346700
21
-42.999995
31
0.0
0
LINE
8
0
6
CONTINUOUS
10
18.346700
20
-42.999995
30
0.0
11
21.142470
21
-42.999995
31
0.0
0
LINE
8
0
6
CONTINUOUS
10
21.142470
20
-42.999995
30
0.0
11
22.878060
21
-42.999995
31
0.0
0
LINE
8
0
6
CONTINUOUS
10
23.466410
20
-42.999995
30
0.0
11
23.868570
21
-42.833395
31
0.0
0
LINE
8
0
6
CONTINUOUS
10
22.878060
20
-42.999995
30
0.0
11
23.466410
21
-42.999995
31
0.0
0
LINE
8
0
6
CONTINUOUS
10
-23.869040
20
-42.833405
30
0.0
11
-23.466870
21
-42.999995
31
0.0
0
LINE
8
0
6
CONTINUOUS
10
-23.466870
20
-42.999995
30
0.0
11
-22.878520
21
-42.999995
31
0.0
0
LINE
8
0
6
CONTINUOUS
10
-22.878520
20
-42.999995
30
0.0
11
-21.142970
21
-42.999995
31
0.0
0
LINE
8
0
6
CONTINUOUS
10
-21.142970
20
-42.999995
30
0.0
11
-18.347230
21
-42.999995
31
0.0
0
LINE
8
0
6
CONTINUOUS
10
-18.347230
20
-42.999995
30
0.0
11
-14.631480
21
-42.999995
31
0.0
0
LINE
8
0
6
CONTINUOUS
10
-14.631480
20
-42.999995
30
0.0
11
-10.182060
21
-42.999995
31
0.0
0
LINE
8
0
6
CONTINUOUS
10
-10.182060
20
-42.999995
30
0.0
11
-5.222080
21
-43.000005
31
0.0
0
LINE
8
0
6
CONTINUOUS
10
-5.222080
20
-43.000005
30
0.0
11
-0.000270
21
-43.000025
31
0.0
0
LINE
8
0
6
CONTINUOUS
10
5.395490
20
-7.861815
30
0.0
11
-0.000250
21
-7.861815
31
0.0
0
LINE
8
0
6
CONTINUOUS
10
-5.396030
20
-7.861815
30
0.0
11
-10.521280
21
-7.861815
31
0.0
0
LINE
8
0
6
CONTINUOUS
10
-21.847320
20
-7.861815
30
0.0
11
-23.640720
21
-7.861815
31
0.0
0
LINE
8
0
6
CONTINUOUS
10
24.248200
20
-7.861825
30
0.0
11
23.640230
21
-7.861825
31
0.0
0
LINE
8
0
6
CONTINUOUS
10
24.248200
20
-41.875805
30
0.0
11
24.248200
21
-11.999995
31
0.0
0
LINE
8
0
6
CONTINUOUS
10
24.248200
20
-11.999995
30
0.0
11
24.248200
21
-8.000005
31
0.0
0
LINE
8
0
6
CONTINUOUS
10
24.248200
20
-8.000005
30
0.0
11
24.248200
21
-7.861825
31
0.0
0
LINE
8
0
6
CONTINUOUS
10
15.118360
20
-7.861825
30
0.0
11
10.520710
21
-7.861825
31
0.0
0
LINE
8
0
6
CONTINUOUS
10
-18.958430
20
-7.861815
30
0.0
11
-21.847320
21
-7.861815
31
0.0
0
LINE
8
0
6
CONTINUOUS
10
18.957910
20
-7.861815
30
0.0
11
15.118360
21
-7.861825
31
0.0
0
LINE
8
0
6
CONTINUOUS
10
-0.000250
20
-7.861815
30
0.0
11
-5.396030
21
-7.861815
31
0.0
0
LINE
8
0
6
CONTINUOUS
10
-15.118910
20
-7.861815
30
0.0
11
-18.958430
21
-7.861815
31
0.0
0
LINE
8
0
6
CONTINUOUS
10
21.846830
20
-7.861825
30
0.0
11
18.957910
21
-7.861815
31
0.0
0
LINE
8
0
6
CONTINUOUS
10
-24.248670
20
-7.861815
30
0.0
11
-24.248670
21
-8.000005
31
0.0
0
LINE
8
0
6
CONTINUOUS
10
-24.248670
20
-8.000005
30
0.0
11
-24.248668
21
-11.999995
31
0.0
0
LINE
8
0
6
CONTINUOUS
10
-24.248668
20
-11.999995
30
0.0
11
-24.248650
21
-41.875835
31
0.0
0
LINE
8
0
6
CONTINUOUS
10
-23.640720
20
-7.861815
30
0.0
11
-24.248670
21
-7.861815
31
0.0
0
LINE
8
0
6
CONTINUOUS
10
-10.521280
20
-7.861815
30
0.0
11
-15.118910
21
-7.861815
31
0.0
0
LINE
8
0
6
CONTINUOUS
10
23.640230
20
-7.861825
30
0.0
11
21.846830
21
-7.861825
31
0.0
0
LINE
8
0
6
CONTINUOUS
10
10.479590
20
-42.541875
30
0.0
11
5.374400
21
-42.541875
31
0.0
0
LINE
8
0
6
CONTINUOUS
10
5.311020
20
-42.833425
30
0.0
11
10.356020
21
-42.833425
31
0.0
0
LINE
8
0
6
CONTINUOUS
10
15.059280
20
-42.541875
30
0.0
11
10.479590
21
-42.541875
31
0.0
0
LINE
8
0
6
CONTINUOUS
10
10.356020
20
-42.833425
30
0.0
11
14.881690
21
-42.833405
31
0.0
0
LINE
8
0
6
CONTINUOUS
10
18.883820
20
-42.541875
30
0.0
11
15.059280
21
-42.541875
31
0.0
0
LINE
8
0
6
CONTINUOUS
10
14.881690
20
-42.833405
30
0.0
11
18.661130
21
-42.833405
31
0.0
0
LINE
8
0
6
CONTINUOUS
10
21.761400
20
-42.541875
30
0.0
11
18.883820
21
-42.541875
31
0.0
0
LINE
8
0
6
CONTINUOUS
10
18.661130
20
-42.833405
30
0.0
11
21.504800
21
-42.833405
31
0.0
0
LINE
8
0
6
CONTINUOUS
10
23.547780
20
-42.541855
30
0.0
11
21.761400
21
-42.541875
31
0.0
0
LINE
8
0
6
CONTINUOUS
10
21.504800
20
-42.833405
30
0.0
11
23.270120
21
-42.833395
31
0.0
0
LINE
8
0
6
CONTINUOUS
10
24.153410
20
-42.541845
30
0.0
11
24.248200
21
-42.164425
31
0.0
0
LINE
8
0
6
CONTINUOUS
10
24.153410
20
-42.541845
30
0.0
11
23.547780
21
-42.541855
31
0.0
0
LINE
8
0
6
CONTINUOUS
10
23.868570
20
-42.833395
30
0.0
11
24.153410
21
-42.541845
31
0.0
0
LINE
8
0
6
CONTINUOUS
10
23.270120
20
-42.833395
30
0.0
11
23.868570
21
-42.833395
31
0.0
0
LINE
8
0
6
CONTINUOUS
10
-24.248650
20
-42.164445
30
0.0
11
-24.153860
21
-42.541865
31
0.0
0
LINE
8
0
6
CONTINUOUS
10
-24.153860
20
-42.541865
30
0.0
11
-23.869040
21
-42.833405
31
0.0
0
LINE
8
0
6
CONTINUOUS
10
-23.548290
20
-42.541865
30
0.0
11
-24.153860
21
-42.541865
31
0.0
0
LINE
8
0
6
CONTINUOUS
10
-23.869040
20
-42.833405
30
0.0
11
-23.270610
21
-42.833405
31
0.0
0
LINE
8
0
6
CONTINUOUS
10
-21.761900
20
-42.541875
30
0.0
11
-23.548290
21
-42.541865
31
0.0
0
LINE
8
0
6
CONTINUOUS
10
-23.270610
20
-42.833405
30
0.0
11
-21.505290
21
-42.833405
31
0.0
0
LINE
8
0
6
CONTINUOUS
10
-18.884330
20
-42.541875
30
0.0
11
-21.761900
21
-42.541875
31
0.0
0
LINE
8
0
6
CONTINUOUS
10
-21.505290
20
-42.833405
30
0.0
11
-18.661650
21
-42.833405
31
0.0
0
LINE
8
0
6
CONTINUOUS
10
-15.059780
20
-42.541875
30
0.0
11
-18.884330
21
-42.541875
31
0.0
0
LINE
8
0
6
CONTINUOUS
10
-18.661650
20
-42.833405
30
0.0
11
-14.882210
21
-42.833405
31
0.0
0
LINE
8
0
6
CONTINUOUS
10
-10.480140
20
-42.541875
30
0.0
11
-15.059780
21
-42.541875
31
0.0
0
LINE
8
0
6
CONTINUOUS
10
-14.882210
20
-42.833405
30
0.0
11
-10.356560
21
-42.833425
31
0.0
0
LINE
8
0
6
CONTINUOUS
10
-5.374960
20
-42.541875
30
0.0
11
-10.480140
21
-42.541875
31
0.0
0
LINE
8
0
6
CONTINUOUS
10
-10.356560
20
-42.833425
30
0.0
11
-5.311570
21
-42.833425
31
0.0
0
LINE
8
0
6
CONTINUOUS
10
24.248200
20
-42.164425
30
0.0
11
24.248200
21
-41.875805
31
0.0
0
LINE
8
0
6
CONTINUOUS
10
-24.248650
20
-41.875835
30
0.0
11
-24.248650
21
-42.164445
31
0.0
0
LINE
8
0
6
CONTINUOUS
10
10.520710
20
-7.861825
30
0.0
11
5.395490
21
-7.861815
31
0.0
0
LINE
8
0
6
CONTINUOUS
10
-74.348400
20
-7.500015
30
0.0
11
74.348370
21
-7.500015
31
0.0
0
LINE
8
0
6
CONTINUOUS
10
74.842880
20
12.000005
30
0.0
11
-74.842900
21
12.000005
31
0.0
0
LINE
8
0
6
CONTINUOUS
10
77.605490
20
-7.500015
30
0.0
11
77.630840
21
-6.500365
31
0.0
0
LINE
8
0
6
CONTINUOUS
10
77.449220
20
-7.500015
30
0.0
11
77.605490
21
-7.500015
31
0.0
0
LINE
8
0
6
CONTINUOUS
10
78.074650
20
11.000355
30
0.0
11
78.099990
21
12.000005
31
0.0
0
LINE
8
0
6
CONTINUOUS
10
78.099990
20
12.000005
30
0.0
11
77.943890
21
12.000005
31
0.0
0
LINE
8
0
6
CONTINUOUS
10
77.449220
20
-7.500015
30
0.0
11
77.474570
21
-6.500365
31
0.0
0
LINE
8
0
6
CONTINUOUS
10
76.788410
20
-7.500015
30
0.0
11
77.449220
21
-7.500015
31
0.0
0
LINE
8
0
6
CONTINUOUS
10
77.918530
20
11.000355
30
0.0
11
77.943890
21
12.000005
31
0.0
0
LINE
8
0
6
CONTINUOUS
10
77.943890
20
12.000005
30
0.0
11
77.283010
21
12.000005
31
0.0
0
LINE
8
0
6
CONTINUOUS
10
76.788410
20
-7.500015
30
0.0
11
76.813760
21
-6.500365
31
0.0
0
LINE
8
0
6
CONTINUOUS
10
75.652610
20
-7.500015
30
0.0
11
76.788410
21
-7.500015
31
0.0
0
LINE
8
0
6
CONTINUOUS
10
77.257660
20
11.000355
30
0.0
11
77.283010
21
12.000005
31
0.0
0
LINE
8
0
6
CONTINUOUS
10
77.283010
20
12.000005
30
0.0
11
76.147730
21
12.000005
31
0.0
0
LINE
8
0
6
CONTINUOUS
10
75.652610
20
-7.500015
30
0.0
11
75.678000
21
-6.500365
31
0.0
0
LINE
8
0
6
CONTINUOUS
10
74.348370
20
-7.500015
30
0.0
11
75.652610
21
-7.500015
31
0.0
0
LINE
8
0
6
CONTINUOUS
10
76.122350
20
11.000365
30
0.0
11
76.147730
21
12.000005
31
0.0
0
LINE
8
0
6
CONTINUOUS
10
76.147730
20
12.000005
30
0.0
11
74.842880
21
12.000005
31
0.0
0
LINE
8
0
6
CONTINUOUS
10
-78.100020
20
12.000005
30
0.0
11
-78.074670
21
11.000355
31
0.0
0
LINE
8
0
6
CONTINUOUS
10
-77.943740
20
12.000005
30
0.0
11
-78.100020
21
12.000005
31
0.0
0
LINE
8
0
6
CONTINUOUS
10
-77.630860
20
-6.500365
30
0.0
11
-77.605510
21
-7.500015
31
0.0
0
LINE
8
0
6
CONTINUOUS
10
-77.605510
20
-7.500015
30
0.0
11
-77.449410
21
-7.500015
31
0.0
0
LINE
8
0
6
CONTINUOUS
10
-77.943740
20
12.000005
30
0.0
11
-77.918400
21
11.000365
31
0.0
0
LINE
8
0
6
CONTINUOUS
10
-77.282930
20
12.000005
30
0.0
11
-77.943740
21
12.000005
31
0.0
0
LINE
8
0
6
CONTINUOUS
10
-77.474750
20
-6.500365
30
0.0
11
-77.449410
21
-7.500015
31
0.0
0
LINE
8
0
6
CONTINUOUS
10
-77.449410
20
-7.500015
30
0.0
11
-76.788530
21
-7.500015
31
0.0
0
LINE
8
0
6
CONTINUOUS
10
-77.282930
20
12.000005
30
0.0
11
-77.257590
21
11.000365
31
0.0
0
LINE
8
0
6
CONTINUOUS
10
-76.147140
20
12.000005
30
0.0
11
-77.282930
21
12.000005
31
0.0
0
LINE
8
0
6
CONTINUOUS
10
-76.813870
20
-6.500365
30
0.0
11
-76.788530
21
-7.500015
31
0.0
0
LINE
8
0
6
CONTINUOUS
10
-76.788530
20
-7.500015
30
0.0
11
-75.653250
21
-7.500015
31
0.0
0
LINE
8
0
6
CONTINUOUS
10
-76.147140
20
12.000005
30
0.0
11
-76.121820
21
11.000365
31
0.0
0
LINE
8
0
6
CONTINUOUS
10
-74.842900
20
12.000005
30
0.0
11
-76.147140
21
12.000005
31
0.0
0
LINE
8
0
6
CONTINUOUS
10
-75.678570
20
-6.500365
30
0.0
11
-75.653250
21
-7.500015
31
0.0
0
LINE
8
0
6
CONTINUOUS
10
-75.653250
20
-7.500015
30
0.0
11
-74.348400
21
-7.500015
31
0.0
0
LINE
8
0
6
CONTINUOUS
10
77.257660
20
11.000355
30
0.0
11
76.813760
21
-6.500365
31
0.0
0
LINE
8
0
6
CONTINUOUS
10
-75.678570
20
-6.500365
30
0.0
11
-76.121820
21
11.000365
31
0.0
0
LINE
8
0
6
CONTINUOUS
10
-76.813870
20
-6.500365
30
0.0
11
-77.257590
21
11.000365
31
0.0
0
LINE
8
0
6
CONTINUOUS
10
-78.074670
20
11.000355
30
0.0
11
-77.630860
21
-6.500365
31
0.0
0
LINE
8
0
6
CONTINUOUS
10
-77.474750
20
-6.500365
30
0.0
11
-77.918400
21
11.000365
31
0.0
0
LINE
8
0
6
CONTINUOUS
10
75.678000
20
-6.500365
30
0.0
11
76.122350
21
11.000365
31
0.0
0
LINE
8
0
6
CONTINUOUS
10
77.630840
20
-6.500365
30
0.0
11
78.074650
21
11.000355
31
0.0
0
LINE
8
0
6
CONTINUOUS
10
77.918530
20
11.000355
30
0.0
11
77.474570
21
-6.500365
31
0.0
0
LINE
8
0
6
CONTINUOUS
10
74.748110
20
-7.756955
30
0.0
11
76.050260
21
-7.756955
31
0.0
0
LINE
8
0
6
CONTINUOUS
10
-74.748060
20
-7.756955
30
0.0
11
74.748110
21
-7.756955
31
0.0
0
LINE
8
0
6
CONTINUOUS
10
-76.050830
20
-7.756955
30
0.0
11
-74.748060
21
-7.756955
31
0.0
0
LINE
8
0
6
CONTINUOUS
10
-77.184290
20
-7.756955
30
0.0
11
-76.050830
21
-7.756955
31
0.0
0
LINE
8
0
6
CONTINUOUS
10
-77.844110
20
-7.756955
30
0.0
11
-77.184290
21
-7.756955
31
0.0
0
LINE
8
0
6
CONTINUOUS
10
-77.999960
20
-7.756955
30
0.0
11
-77.844110
21
-7.756955
31
0.0
0
LINE
8
0
6
CONTINUOUS
10
-77.843980
20
-7.756955
30
0.0
11
-78.000010
21
-7.756955
31
0.0
0
LINE
8
0
6
CONTINUOUS
10
-77.184240
20
-7.756955
30
0.0
11
-77.843980
21
-7.756955
31
0.0
0
LINE
8
0
6
CONTINUOUS
10
-76.050260
20
-7.756955
30
0.0
11
-77.184240
21
-7.756955
31
0.0
0
LINE
8
0
6
CONTINUOUS
10
-74.748110
20
-7.756955
30
0.0
11
-76.050260
21
-7.756955
31
0.0
0
LINE
8
0
6
CONTINUOUS
10
74.748060
20
-7.756955
30
0.0
11
-74.748110
21
-7.756955
31
0.0
0
LINE
8
0
6
CONTINUOUS
10
76.050830
20
-7.756955
30
0.0
11
74.748060
21
-7.756955
31
0.0
0
LINE
8
0
6
CONTINUOUS
10
77.184290
20
-7.756955
30
0.0
11
76.050830
21
-7.756955
31
0.0
0
LINE
8
0
6
CONTINUOUS
10
77.844100
20
-7.756955
30
0.0
11
77.184290
21
-7.756955
31
0.0
0
LINE
8
0
6
CONTINUOUS
10
77.999960
20
-7.756955
30
0.0
11
77.844100
21
-7.756955
31
0.0
0
LINE
8
0
6
CONTINUOUS
10
77.843980
20
-7.756955
30
0.0
11
78.000010
21
-7.756955
31
0.0
0
LINE
8
0
6
CONTINUOUS
10
77.184240
20
-7.756955
30
0.0
11
77.843980
21
-7.756955
31
0.0
0
LINE
8
0
6
CONTINUOUS
10
76.050260
20
-7.756955
30
0.0
11
77.184240
21
-7.756955
31
0.0
0
LINE
8
0
6
CONTINUOUS
10
11.766200
20
-8.383505
30
0.0
11
13.106060
21
-8.383505
31
0.0
0
LINE
8
0
6
CONTINUOUS
10
13.106060
20
-8.383505
30
0.0
11
13.609130
21
-8.383505
31
0.0
0
LINE
8
0
6
CONTINUOUS
10
6.783370
20
-8.383505
30
0.0
11
9.631420
21
-8.383495
31
0.0
0
LINE
8
0
6
CONTINUOUS
10
3.517290
20
-8.383505
30
0.0
11
6.783370
21
-8.383505
31
0.0
0
LINE
8
0
6
CONTINUOUS
10
13.609130
20
-8.383505
30
0.0
11
13.106060
21
-8.383505
31
0.0
0
LINE
8
0
6
CONTINUOUS
10
13.609130
20
-11.714945
30
0.0
11
13.609130
21
-8.383505
31
0.0
0
LINE
8
0
6
CONTINUOUS
10
9.631420
20
-8.383495
30
0.0
11
6.783370
21
-8.383505
31
0.0
0
LINE
8
0
6
CONTINUOUS
10
6.783370
20
-8.383505
30
0.0
11
3.517290
21
-8.383505
31
0.0
0
LINE
8
0
6
CONTINUOUS
10
11.766200
20
-8.383505
30
0.0
11
9.631420
21
-8.383495
31
0.0
0
LINE
8
0
6
CONTINUOUS
10
3.517290
20
-8.383505
30
0.0
11
0.000030
21
-8.383505
31
0.0
0
LINE
8
0
6
CONTINUOUS
10
9.631420
20
-8.383495
30
0.0
11
11.766200
21
-8.383505
31
0.0
0
LINE
8
0
6
CONTINUOUS
10
13.106060
20
-8.383505
30
0.0
11
11.766200
21
-8.383505
31
0.0
0
LINE
8
0
6
CONTINUOUS
10
0.000030
20
-8.383505
30
0.0
11
3.517290
21
-8.383505
31
0.0
0
LINE
8
0
6
CONTINUOUS
10
13.106060
20
-11.999995
30
0.0
11
11.766200
21
-11.999995
31
0.0
0
LINE
8
0
6
CONTINUOUS
10
13.609130
20
-11.999995
30
0.0
11
13.106060
21
-11.999995
31
0.0
0
LINE
8
0
6
CONTINUOUS
10
9.631420
20
-11.999995
30
0.0
11
6.783370
21
-11.999995
31
0.0
0
LINE
8
0
6
CONTINUOUS
10
6.783370
20
-11.999995
30
0.0
11
3.517290
21
-11.999995
31
0.0
0
LINE
8
0
6
CONTINUOUS
10
13.609130
20
-11.999995
30
0.0
11
13.609130
21
-11.714945
31
0.0
0
LINE
8
0
6
CONTINUOUS
10
13.106060
20
-11.999995
30
0.0
11
13.609130
21
-11.999995
31
0.0
0
LINE
8
0
6
CONTINUOUS
10
6.783370
20
-11.999995
30
0.0
11
9.631420
21
-11.999995
31
0.0
0
LINE
8
0
6
CONTINUOUS
10
3.517290
20
-11.999995
30
0.0
11
6.783370
21
-11.999995
31
0.0
0
LINE
8
0
6
CONTINUOUS
10
9.631420
20
-11.999995
30
0.0
11
11.766200
21
-11.999995
31
0.0
0
LINE
8
0
6
CONTINUOUS
10
0.000030
20
-11.999995
30
0.0
11
3.517290
21
-11.999995
31
0.0
0
LINE
8
0
6
CONTINUOUS
10
11.766200
20
-11.999995
30
0.0
11
9.631420
21
-11.999995
31
0.0
0
LINE
8
0
6
CONTINUOUS
10
11.766200
20
-11.999995
30
0.0
11
13.106060
21
-11.999995
31
0.0
0
LINE
8
0
6
CONTINUOUS
10
3.517290
20
-11.999995
30
0.0
11
0.000030
21
-11.999995
31
0.0
0
LINE
8
0
6
CONTINUOUS
10
-13.106000
20
-8.383495
30
0.0
11
-11.766140
21
-8.383495
31
0.0
0
LINE
8
0
6
CONTINUOUS
10
-13.609060
20
-8.383495
30
0.0
11
-13.106000
21
-8.383495
31
0.0
0
LINE
8
0
6
CONTINUOUS
10
-9.631350
20
-8.383505
30
0.0
11
-6.783310
21
-8.383505
31
0.0
0
LINE
8
0
6
CONTINUOUS
10
-6.783310
20
-8.383505
30
0.0
11
-3.517220
21
-8.383505
31
0.0
0
LINE
8
0
6
CONTINUOUS
10
-13.609060
20
-8.383495
30
0.0
11
-13.609060
21
-11.714945
31
0.0
0
LINE
8
0
6
CONTINUOUS
10
-13.106000
20
-8.383495
30
0.0
11
-13.609060
21
-8.383495
31
0.0
0
LINE
8
0
6
CONTINUOUS
10
-6.783310
20
-8.383505
30
0.0
11
-9.631350
21
-8.383505
31
0.0
0
LINE
8
0
6
CONTINUOUS
10
-3.517230
20
-8.383505
30
0.0
11
-6.783310
21
-8.383505
31
0.0
0
LINE
8
0
6
CONTINUOUS
10
-9.631350
20
-8.383505
30
0.0
11
-11.766130
21
-8.383495
31
0.0
0
LINE
8
0
6
CONTINUOUS
10
0.000030
20
-8.383505
30
0.0
11
-3.517230
21
-8.383505
31
0.0
0
LINE
8
0
6
CONTINUOUS
10
-11.766140
20
-8.383495
30
0.0
11
-9.631350
21
-8.383505
31
0.0
0
LINE
8
0
6
CONTINUOUS
10
-11.766130
20
-8.383495
30
0.0
11
-13.106000
21
-8.383495
31
0.0
0
LINE
8
0
6
CONTINUOUS
10
-3.517220
20
-8.383505
30
0.0
11
0.000030
21
-8.383505
31
0.0
0
LINE
8
0
6
CONTINUOUS
10
-9.631350
20
-12.000005
30
0.0
11
-9.384560
21
-12.000005
31
0.0
0
LINE
8
0
6
CONTINUOUS
10
-6.783310
20
-11.999995
30
0.0
11
-6.611400
21
-11.999995
31
0.0
0
LINE
8
0
6
CONTINUOUS
10
-11.766140
20
-12.000005
30
0.0
11
-13.106000
21
-12.000005
31
0.0
0
LINE
8
0
6
CONTINUOUS
10
-13.106000
20
-12.000005
30
0.0
11
-13.609060
21
-12.000005
31
0.0
0
LINE
8
0
6
CONTINUOUS
10
-6.783310
20
-11.999995
30
0.0
11
-9.631350
21
-12.000005
31
0.0
0
LINE
8
0
6
CONTINUOUS
10
-3.517220
20
-11.999995
30
0.0
11
-6.783310
21
-11.999995
31
0.0
0
LINE
8
0
6
CONTINUOUS
10
-13.609060
20
-12.000005
30
0.0
11
-13.106000
21
-12.000005
31
0.0
0
LINE
8
0
6
CONTINUOUS
10
-13.609060
20
-11.714945
30
0.0
11
-13.609060
21
-12.000005
31
0.0
0
LINE
8
0
6
CONTINUOUS
10
-9.631350
20
-12.000005
30
0.0
11
-6.783310
21
-11.999995
31
0.0
0
LINE
8
0
6
CONTINUOUS
10
-6.783310
20
-11.999995
30
0.0
11
-3.517230
21
-11.999995
31
0.0
0
LINE
8
0
6
CONTINUOUS
10
-11.766130
20
-12.000005
30
0.0
11
-9.631350
21
-12.000005
31
0.0
0
LINE
8
0
6
CONTINUOUS
10
-3.517230
20
-11.999995
30
0.0
11
0.000030
21
-11.999995
31
0.0
0
LINE
8
0
6
CONTINUOUS
10
-9.631350
20
-12.000005
30
0.0
11
-11.766140
21
-12.000005
31
0.0
0
LINE
8
0
6
CONTINUOUS
10
-13.106000
20
-12.000005
30
0.0
11
-11.766130
21
-12.000005
31
0.0
0
LINE
8
0
6
CONTINUOUS
10
0.000030
20
-11.999995
30
0.0
11
-3.517220
21
-11.999995
31
0.0
0
LINE
8
0
6
CONTINUOUS
10
-6.611400
20
-11.999995
30
0.0
11
-9.384560
21
-12.000005
31
0.0
0
LINE
8
0
6
CONTINUOUS
10
75.888330
20
-11.999995
30
0.0
11
7.192290
21
-12.000005
31
0.0
0
LINE
8
0
6
CONTINUOUS
10
3.570850
20
-8.383505
30
0.0
11
6.886680
21
-8.383505
31
0.0
0
LINE
8
0
6
CONTINUOUS
10
3.570850
20
-8.383505
30
0.0
11
0.000030
21
-8.383505
31
0.0
0
LINE
8
0
6
CONTINUOUS
10
13.305650
20
-8.383505
30
0.0
11
13.816370
21
-8.383505
31
0.0
0
LINE
8
0
6
CONTINUOUS
10
9.778090
20
-8.383505
30
0.0
11
11.945370
21
-8.383505
31
0.0
0
LINE
8
0
6
CONTINUOUS
10
6.886680
20
-8.383505
30
0.0
11
9.778090
21
-8.383505
31
0.0
0
LINE
8
0
6
CONTINUOUS
10
13.305650
20
-8.383505
30
0.0
11
11.945370
21
-8.383505
31
0.0
0
LINE
8
0
6
CONTINUOUS
10
0.000030
20
-8.383505
30
0.0
11
3.570850
21
-8.383505
31
0.0
0
LINE
8
0
6
CONTINUOUS
10
13.816370
20
-8.383505
30
0.0
11
13.305650
21
-8.383505
31
0.0
0
LINE
8
0
6
CONTINUOUS
10
13.816370
20
-12.000005
30
0.0
11
13.816370
21
-8.383505
31
0.0
0
LINE
8
0
6
CONTINUOUS
10
11.945370
20
-8.383505
30
0.0
11
13.305650
21
-8.383505
31
0.0
0
LINE
8
0
6
CONTINUOUS
10
11.945370
20
-8.383505
30
0.0
11
9.778090
21
-8.383505
31
0.0
0
LINE
8
0
6
CONTINUOUS
10
9.778090
20
-8.383505
30
0.0
11
6.886670
21
-8.383505
31
0.0
0
LINE
8
0
6
CONTINUOUS
10
6.886670
20
-8.383505
30
0.0
11
3.570850
21
-8.383505
31
0.0
0
LINE
8
0
6
CONTINUOUS
10
11.945370
20
-12.000005
30
0.0
11
9.778090
21
-12.000005
31
0.0
0
LINE
8
0
6
CONTINUOUS
10
0.000030
20
-11.999995
30
0.0
11
3.570850
21
-11.999995
31
0.0
0
LINE
8
0
6
CONTINUOUS
10
9.778090
20
-12.000005
30
0.0
11
11.945370
21
-12.000005
31
0.0
0
LINE
8
0
6
CONTINUOUS
10
3.570850
20
-11.999995
30
0.0
11
6.886680
21
-12.000005
31
0.0
0
LINE
8
0
6
CONTINUOUS
10
3.729320
20
-11.999995
30
0.0
11
3.570850
21
-11.999995
31
0.0
0
LINE
8
0
6
CONTINUOUS
10
6.886670
20
-12.000005
30
0.0
11
3.570850
21
-11.999995
31
0.0
0
LINE
8
0
6
CONTINUOUS
10
11.945370
20
-12.000005
30
0.0
11
13.305650
21
-12.000005
31
0.0
0
LINE
8
0
6
CONTINUOUS
10
13.305650
20
-12.000005
30
0.0
11
11.945370
21
-12.000005
31
0.0
0
LINE
8
0
6
CONTINUOUS
10
13.305650
20
-12.000005
30
0.0
11
13.816370
21
-12.000005
31
0.0
0
LINE
8
0
6
CONTINUOUS
10
3.570850
20
-11.999995
30
0.0
11
0.000030
21
-11.999995
31
0.0
0
LINE
8
0
6
CONTINUOUS
10
9.778090
20
-12.000005
30
0.0
11
6.886670
21
-12.000005
31
0.0
0
LINE
8
0
6
CONTINUOUS
10
13.816370
20
-12.000005
30
0.0
11
13.305650
21
-12.000005
31
0.0
0
LINE
8
0
6
CONTINUOUS
10
6.886680
20
-12.000005
30
0.0
11
9.778090
21
-12.000005
31
0.0
0
LINE
8
0
6
CONTINUOUS
10
7.192290
20
-12.000005
30
0.0
11
6.886680
21
-12.000005
31
0.0
0
LINE
8
0
6
CONTINUOUS
10
-74.748080
20
-8.000005
30
0.0
11
-24.248670
21
-8.000005
31
0.0
0
LINE
8
0
6
CONTINUOUS
10
77.843990
20
-8.500005
30
0.0
11
77.844120
21
-11.499995
31
0.0
0
LINE
8
0
6
CONTINUOUS
10
77.184310
20
-11.499995
30
0.0
11
77.184230
21
-8.500005
31
0.0
0
LINE
8
0
6
CONTINUOUS
10
77.999960
20
-8.500005
30
0.0
11
77.999960
21
-11.499995
31
0.0
0
LINE
8
0
6
CONTINUOUS
10
77.843950
20
-11.499995
30
0.0
11
77.844090
21
-8.500005
31
0.0
0
LINE
8
0
6
CONTINUOUS
10
77.184200
20
-11.499995
30
0.0
11
77.184280
21
-8.500005
31
0.0
0
LINE
8
0
6
CONTINUOUS
10
76.050290
20
-11.499995
30
0.0
11
76.050750
21
-8.500005
31
0.0
0
LINE
8
0
6
CONTINUOUS
10
76.050310
20
-8.500005
30
0.0
11
76.050780
21
-11.499995
31
0.0
0
LINE
8
0
6
CONTINUOUS
10
-77.184330
20
-11.499995
30
0.0
11
-77.184250
21
-8.500005
31
0.0
0
LINE
8
0
6
CONTINUOUS
10
-77.844000
20
-8.500005
30
0.0
11
-77.844140
21
-11.499995
31
0.0
0
LINE
8
0
6
CONTINUOUS
10
-77.843970
20
-11.499995
30
0.0
11
-77.844110
21
-8.500005
31
0.0
0
LINE
8
0
6
CONTINUOUS
10
-76.050330
20
-8.500005
30
0.0
11
-76.050800
21
-11.499995
31
0.0
0
LINE
8
0
6
CONTINUOUS
10
-77.184220
20
-11.499995
30
0.0
11
-77.184300
21
-8.500005
31
0.0
0
LINE
8
0
6
CONTINUOUS
10
-76.050770
20
-8.500005
30
0.0
11
-76.050310
21
-11.499995
31
0.0
0
LINE
8
0
6
CONTINUOUS
10
-78.000010
20
-11.499995
30
0.0
11
-78.000010
21
-8.500005
31
0.0
0
LINE
8
0
6
CONTINUOUS
10
76.050860
20
-11.999995
30
0.0
11
74.748090
21
-11.999995
31
0.0
0
LINE
8
0
6
CONTINUOUS
10
74.748090
20
-8.000005
30
0.0
11
76.050240
21
-8.000005
31
0.0
0
LINE
8
0
6
CONTINUOUS
10
76.050860
20
-11.999995
30
0.0
11
76.050780
21
-11.499995
31
0.0
0
LINE
8
0
6
CONTINUOUS
10
77.184320
20
-11.999995
30
0.0
11
76.050860
21
-11.999995
31
0.0
0
LINE
8
0
6
CONTINUOUS
10
76.050310
20
-8.500005
30
0.0
11
76.050240
21
-8.000005
31
0.0
0
LINE
8
0
6
CONTINUOUS
10
76.050240
20
-8.000005
30
0.0
11
77.184220
21
-8.000005
31
0.0
0
LINE
8
0
6
CONTINUOUS
10
77.184320
20
-11.999995
30
0.0
11
77.184310
21
-11.499995
31
0.0
0
LINE
8
0
6
CONTINUOUS
10
77.844140
20
-11.999995
30
0.0
11
77.184320
21
-11.999995
31
0.0
0
LINE
8
0
6
CONTINUOUS
10
77.184230
20
-8.500005
30
0.0
11
77.184220
21
-8.000005
31
0.0
0
LINE
8
0
6
CONTINUOUS
10
77.184220
20
-8.000005
30
0.0
11
77.843960
21
-8.000005
31
0.0
0
LINE
8
0
6
CONTINUOUS
10
77.844140
20
-11.999995
30
0.0
11
77.844120
21
-11.499995
31
0.0
0
LINE
8
0
6
CONTINUOUS
10
77.999990
20
-11.999995
30
0.0
11
77.844140
21
-11.999995
31
0.0
0
LINE
8
0
6
CONTINUOUS
10
77.843990
20
-8.500005
30
0.0
11
77.843960
21
-8.000005
31
0.0
0
LINE
8
0
6
CONTINUOUS
10
77.843960
20
-8.000005
30
0.0
11
77.999990
21
-8.000005
31
0.0
0
LINE
8
0
6
CONTINUOUS
10
76.050830
20
-8.000005
30
0.0
11
74.748060
21
-8.000005
31
0.0
0
LINE
8
0
6
CONTINUOUS
10
74.718280
20
-11.999995
30
0.0
11
75.888330
21
-11.999995
31
0.0
0
LINE
8
0
6
CONTINUOUS
10
74.748060
20
-11.999995
30
0.0
11
76.050210
21
-11.999995
31
0.0
0
LINE
8
0
6
CONTINUOUS
10
76.050830
20
-8.000005
30
0.0
11
76.050750
21
-8.500005
31
0.0
0
LINE
8
0
6
CONTINUOUS
10
77.184290
20
-8.000005
30
0.0
11
76.050830
21
-8.000005
31
0.0
0
LINE
8
0
6
CONTINUOUS
10
76.050290
20
-11.499995
30
0.0
11
76.050210
21
-11.999995
31
0.0
0
LINE
8
0
6
CONTINUOUS
10
76.050210
20
-11.999995
30
0.0
11
77.184190
21
-11.999995
31
0.0
0
LINE
8
0
6
CONTINUOUS
10
77.184290
20
-8.000005
30
0.0
11
77.184280
21
-8.500005
31
0.0
0
LINE
8
0
6
CONTINUOUS
10
77.844100
20
-8.000005
30
0.0
11
77.184290
21
-8.000005
31
0.0
0
LINE
8
0
6
CONTINUOUS
10
77.184200
20
-11.499995
30
0.0
11
77.184190
21
-11.999995
31
0.0
0
LINE
8
0
6
CONTINUOUS
10
77.184190
20
-11.999995
30
0.0
11
77.843920
21
-11.999995
31
0.0
0
LINE
8
0
6
CONTINUOUS
10
77.844100
20
-8.000005
30
0.0
11
77.844090
21
-8.500005
31
0.0
0
LINE
8
0
6
CONTINUOUS
10
77.999960
20
-8.000005
30
0.0
11
77.844100
21
-8.000005
31
0.0
0
LINE
8
0
6
CONTINUOUS
10
77.843950
20
-11.499995
30
0.0
11
77.843920
21
-11.999995
31
0.0
0
LINE
8
0
6
CONTINUOUS
10
77.843920
20
-11.999995
30
0.0
11
77.999960
21
-11.999995
31
0.0
0
LINE
8
0
6
CONTINUOUS
10
-77.843980
20
-8.000005
30
0.0
11
-78.000010
21
-8.000005
31
0.0
0
LINE
8
0
6
CONTINUOUS
10
-78.000010
20
-11.999995
30
0.0
11
-77.844160
21
-11.999995
31
0.0
0
LINE
8
0
6
CONTINUOUS
10
-77.843980
20
-8.000005
30
0.0
11
-77.844000
21
-8.500005
31
0.0
0
LINE
8
0
6
CONTINUOUS
10
-77.184240
20
-8.000005
30
0.0
11
-77.843980
21
-8.000005
31
0.0
0
LINE
8
0
6
CONTINUOUS
10
-77.844140
20
-11.499995
30
0.0
11
-77.844160
21
-11.999995
31
0.0
0
LINE
8
0
6
CONTINUOUS
10
-77.844160
20
-11.999995
30
0.0
11
-77.184340
21
-11.999995
31
0.0
0
LINE
8
0
6
CONTINUOUS
10
-77.184240
20
-8.000005
30
0.0
11
-77.184250
21
-8.500005
31
0.0
0
LINE
8
0
6
CONTINUOUS
10
-76.050260
20
-8.000005
30
0.0
11
-77.184240
21
-8.000005
31
0.0
0
LINE
8
0
6
CONTINUOUS
10
-77.184330
20
-11.499995
30
0.0
11
-77.184340
21
-11.999995
31
0.0
0
LINE
8
0
6
CONTINUOUS
10
-77.184340
20
-11.999995
30
0.0
11
-76.050880
21
-11.999995
31
0.0
0
LINE
8
0
6
CONTINUOUS
10
-76.050260
20
-8.000005
30
0.0
11
-76.050330
21
-8.500005
31
0.0
0
LINE
8
0
6
CONTINUOUS
10
-74.748110
20
-8.000005
30
0.0
11
-76.050260
21
-8.000005
31
0.0
0
LINE
8
0
6
CONTINUOUS
10
-76.050800
20
-11.499995
30
0.0
11
-76.050880
21
-11.999995
31
0.0
0
LINE
8
0
6
CONTINUOUS
10
-76.050880
20
-11.999995
30
0.0
11
-74.748110
21
-11.999995
31
0.0
0
LINE
8
0
6
CONTINUOUS
10
-76.050850
20
-8.000005
30
0.0
11
-74.748080
21
-8.000005
31
0.0
0
LINE
8
0
6
CONTINUOUS
10
-74.748080
20
-11.999995
30
0.0
11
-76.050230
21
-11.999995
31
0.0
0
LINE
8
0
6
CONTINUOUS
10
-76.050850
20
-8.000005
30
0.0
11
-76.050770
21
-8.500005
31
0.0
0
LINE
8
0
6
CONTINUOUS
10
-77.184310
20
-8.000005
30
0.0
11
-76.050850
21
-8.000005
31
0.0
0
LINE
8
0
6
CONTINUOUS
10
-76.050310
20
-11.499995
30
0.0
11
-76.050230
21
-11.999995
31
0.0
0
LINE
8
0
6
CONTINUOUS
10
-76.050230
20
-11.999995
30
0.0
11
-77.184210
21
-11.999995
31
0.0
0
LINE
8
0
6
CONTINUOUS
10
-77.184310
20
-8.000005
30
0.0
11
-77.184300
21
-8.500005
31
0.0
0
LINE
8
0
6
CONTINUOUS
10
-77.844120
20
-8.000005
30
0.0
11
-77.184310
21
-8.000005
31
0.0
0
LINE
8
0
6
CONTINUOUS
10
-77.184220
20
-11.499995
30
0.0
11
-77.184210
21
-11.999995
31
0.0
0
LINE
8
0
6
CONTINUOUS
10
-77.184210
20
-11.999995
30
0.0
11
-77.843940
21
-11.999995
31
0.0
0
LINE
8
0
6
CONTINUOUS
10
-77.844120
20
-8.000005
30
0.0
11
-77.844110
21
-8.500005
31
0.0
0
LINE
8
0
6
CONTINUOUS
10
-77.999980
20
-8.000005
30
0.0
11
-77.844120
21
-8.000005
31
0.0
0
LINE
8
0
6
CONTINUOUS
10
-77.843970
20
-11.499995
30
0.0
11
-77.843940
21
-11.999995
31
0.0
0
LINE
8
0
6
CONTINUOUS
10
-77.843940
20
-11.999995
30
0.0
11
-77.999980
21
-11.999995
31
0.0
0
LINE
8
0
6
CONTINUOUS
10
-78.000010
20
-11.999995
30
0.0
11
-78.000010
21
-11.499995
31
0.0
0
LINE
8
0
6
CONTINUOUS
10
24.248200
20
-11.999995
30
0.0
11
74.748090
21
-11.999995
31
0.0
0
LINE
8
0
6
CONTINUOUS
10
77.999960
20
-11.499995
30
0.0
11
77.999960
21
-11.999995
31
0.0
0
LINE
8
0
6
CONTINUOUS
10
-0.000020
20
-11.999995
30
0.0
11
-74.748110
21
-11.999995
31
0.0
0
LINE
8
0
6
CONTINUOUS
10
24.248200
20
-8.000005
30
0.0
11
74.748090
21
-8.000005
31
0.0
0
LINE
8
0
6
CONTINUOUS
10
-0.000020
20
-8.000005
30
0.0
11
-74.748110
21
-8.000005
31
0.0
0
LINE
8
0
6
CONTINUOUS
10
77.999960
20
-8.000005
30
0.0
11
77.999960
21
-8.500005
31
0.0
0
LINE
8
0
6
CONTINUOUS
10
-0.000020
20
-8.000005
30
0.0
11
74.748060
21
-8.000005
31
0.0
0
LINE
8
0
6
CONTINUOUS
10
-0.000020
20
-11.999995
30
0.0
11
74.748060
21
-11.999995
31
0.0
0
LINE
8
0
6
CONTINUOUS
10
-24.248668
20
-11.999995
30
0.0
11
-74.748080
21
-11.999995
31
0.0
0
LINE
8
0
6
CONTINUOUS
10
-78.000010
20
-8.500005
30
0.0
11
-78.000010
21
-8.000005
31
0.0
0
LINE
8
0
6
CONTINUOUS
10
3.729320
20
-11.999995
30
0.0
11
74.718280
21
-11.999995
31
0.0
0
LINE
8
0
6
CONTINUOUS
10
-6.886670
20
-8.383505
30
0.0
11
-3.570840
21
-8.383505
31
0.0
0
LINE
8
0
6
CONTINUOUS
10
-13.816350
20
-8.383505
30
0.0
11
-13.305640
21
-8.383505
31
0.0
0
LINE
8
0
6
CONTINUOUS
10
-11.945360
20
-8.383505
30
0.0
11
-9.778080
21
-8.383505
31
0.0
0
LINE
8
0
6
CONTINUOUS
10
-9.778080
20
-8.383505
30
0.0
11
-6.886670
21
-8.383505
31
0.0
0
LINE
8
0
6
CONTINUOUS
10
-11.945360
20
-8.383505
30
0.0
11
-13.305640
21
-8.383505
31
0.0
0
LINE
8
0
6
CONTINUOUS
10
-13.816350
20
-8.383505
30
0.0
11
-13.816350
21
-12.000005
31
0.0
0
LINE
8
0
6
CONTINUOUS
10
-13.305640
20
-8.383505
30
0.0
11
-13.816350
21
-8.383505
31
0.0
0
LINE
8
0
6
CONTINUOUS
10
-13.305640
20
-8.383505
30
0.0
11
-11.945360
21
-8.383505
31
0.0
0
LINE
8
0
6
CONTINUOUS
10
-9.778080
20
-8.383505
30
0.0
11
-11.945360
21
-8.383505
31
0.0
0
LINE
8
0
6
CONTINUOUS
10
-6.886650
20
-8.383505
30
0.0
11
-9.778080
21
-8.383505
31
0.0
0
LINE
8
0
6
CONTINUOUS
10
-3.570840
20
-8.383505
30
0.0
11
-6.886650
21
-8.383505
31
0.0
0
LINE
8
0
6
CONTINUOUS
10
-9.778080
20
-12.000005
30
0.0
11
-11.945360
21
-12.000005
31
0.0
0
LINE
8
0
6
CONTINUOUS
10
-11.945360
20
-12.000005
30
0.0
11
-9.778080
21
-12.000005
31
0.0
0
LINE
8
0
6
CONTINUOUS
10
-6.886670
20
-12.000005
30
0.0
11
-3.570840
21
-11.999995
31
0.0
0
LINE
8
0
6
CONTINUOUS
10
-3.570840
20
-11.999995
30
0.0
11
-6.886650
21
-12.000005
31
0.0
0
LINE
8
0
6
CONTINUOUS
10
-13.305640
20
-12.000005
30
0.0
11
-11.945360
21
-12.000005
31
0.0
0
LINE
8
0
6
CONTINUOUS
10
-11.945360
20
-12.000005
30
0.0
11
-13.305640
21
-12.000005
31
0.0
0
LINE
8
0
6
CONTINUOUS
10
-13.816350
20
-12.000005
30
0.0
11
-13.305640
21
-12.000005
31
0.0
0
LINE
8
0
6
CONTINUOUS
10
-6.886650
20
-12.000005
30
0.0
11
-9.778080
21
-12.000005
31
0.0
0
LINE
8
0
6
CONTINUOUS
10
-13.305640
20
-12.000005
30
0.0
11
-13.816350
21
-12.000005
31
0.0
0
LINE
8
0
6
CONTINUOUS
10
-6.886670
20
-12.000005
30
0.0
11
-7.192280
21
-12.000005
31
0.0
0
LINE
8
0
6
CONTINUOUS
10
-9.778080
20
-12.000005
30
0.0
11
-6.886670
21
-12.000005
31
0.0
0
LINE
8
0
6
CONTINUOUS
10
-74.718350
20
-11.999995
30
0.0
11
-75.888930
21
-11.999995
31
0.0
0
LINE
8
0
6
CONTINUOUS
10
-7.192280
20
-12.000005
30
0.0
11
-75.888930
21
-11.999995
31
0.0
0
LINE
8
0
6
CONTINUOUS
10
0.000030
20
-8.383505
30
0.0
11
-3.570840
21
-8.383505
31
0.0
0
LINE
8
0
6
CONTINUOUS
10
-3.570840
20
-8.383505
30
0.0
11
0.000030
21
-8.383505
31
0.0
0
LINE
8
0
6
CONTINUOUS
10
-3.729300
20
-11.999995
30
0.0
11
-3.570840
21
-11.999995
31
0.0
0
LINE
8
0
6
CONTINUOUS
10
-3.570840
20
-11.999995
30
0.0
11
0.000030
21
-11.999995
31
0.0
0
LINE
8
0
6
CONTINUOUS
10
0.000030
20
-11.999995
30
0.0
11
-3.570840
21
-11.999995
31
0.0
0
LINE
8
0
6
CONTINUOUS
10
-74.718350
20
-11.999995
30
0.0
11
-3.729300
21
-11.999995
31
0.0
0
LINE
8
0
6
CONTINUOUS
10
0.000024
20
-11.999995
30
0.0
11
5.395490
21
-11.999995
31
0.0
0
LINE
8
0
6
CONTINUOUS
10
24.248200
20
-11.999995
30
0.0
11
23.640232
21
-11.999995
31
0.0
0
LINE
8
0
6
CONTINUOUS
10
24.248200
20
-8.000005
30
0.0
11
23.640230
21
-8.000005
31
0.0
0
LINE
8
0
6
CONTINUOUS
10
10.520712
20
-11.999995
30
0.0
11
15.118360
21
-11.999995
31
0.0
0
LINE
8
0
6
CONTINUOUS
10
10.520710
20
-8.000005
30
0.0
11
15.118360
21
-8.000005
31
0.0
0
LINE
8
0
6
CONTINUOUS
10
-21.847320
20
-11.999995
30
0.0
11
-18.958430
21
-11.999995
31
0.0
0
LINE
8
0
6
CONTINUOUS
10
-21.847320
20
-8.000005
30
0.0
11
-18.958430
21
-8.000005
31
0.0
0
LINE
8
0
6
CONTINUOUS
10
15.118360
20
-11.999995
30
0.0
11
18.957912
21
-11.999995
31
0.0
0
LINE
8
0
6
CONTINUOUS
10
15.118360
20
-8.000005
30
0.0
11
18.957910
21
-8.000005
31
0.0
0
LINE
8
0
6
CONTINUOUS
10
21.846830
20
-11.999995
30
0.0
11
18.957912
21
-11.999995
31
0.0
0
LINE
8
0
6
CONTINUOUS
10
21.846830
20
-8.000005
30
0.0
11
18.957910
21
-8.000005
31
0.0
0
LINE
8
0
6
CONTINUOUS
10
-24.248670
20
-8.000005
30
0.0
11
-23.640720
21
-8.000005
31
0.0
0
LINE
8
0
6
CONTINUOUS
10
23.640232
20
-11.999995
30
0.0
11
21.846830
21
-11.999995
31
0.0
0
LINE
8
0
6
CONTINUOUS
10
5.395490
20
-11.999995
30
0.0
11
10.520712
21
-11.999995
31
0.0
0
LINE
8
0
6
CONTINUOUS
10
23.640230
20
-8.000005
30
0.0
11
21.846830
21
-8.000005
31
0.0
0
LINE
8
0
6
CONTINUOUS
10
-23.640720
20
-8.000005
30
0.0
11
-21.847320
21
-8.000005
31
0.0
0
LINE
8
0
6
CONTINUOUS
10
-18.958430
20
-8.000005
30
0.0
11
-15.118910
21
-8.000005
31
0.0
0
LINE
8
0
6
CONTINUOUS
10
5.395490
20
-8.000005
30
0.0
11
10.520710
21
-8.000005
31
0.0
0
ENDSEC
0
EOF
