999
Erzeugt mit innoplus bad 
0
SECTION
2
HEADER
9
$ACADVER
1
AC1009
9
$DWGCODEPAGE
3
ISO8859-1
0
ENDSEC
0
SECTION
2
TABLES
0
TABLE
2
LAYER
70
1
0
LAYER
2
0
70
0
62
7
6
CONTINUOUS
0
ENDTAB
0
ENDSEC
0
SECTION
2
ENTITIES
0
LINE
8
0
6
CONTINUOUS
10
174.399470
20
-76.000000
30
0.0
11
186.980360
21
-76.000000
31
0.0
0
LINE
8
0
6
CONTINUOUS
10
191.229360
20
-76.000000
30
0.0
11
207.970370
21
-76.000000
31
0.0
0
LINE
8
0
6
CONTINUOUS
10
212.219370
20
-76.000000
30
0.0
11
222.572750
21
-76.000000
31
0.0
0
LINE
8
0
6
CONTINUOUS
10
222.572750
20
-76.000000
30
0.0
11
174.399470
21
-76.000000
31
0.0
0
LINE
8
0
6
CONTINUOUS
10
-222.572750
20
-76.000000
30
0.0
11
-211.829720
21
-76.000000
31
0.0
0
LINE
8
0
6
CONTINUOUS
10
-207.580760
20
-76.000000
30
0.0
11
-190.839730
21
-76.000000
31
0.0
0
LINE
8
0
6
CONTINUOUS
10
-186.590770
20
-76.000000
30
0.0
11
-174.399470
21
-76.000000
31
0.0
0
LINE
8
0
6
CONTINUOUS
10
-174.399470
20
-76.000000
30
0.0
11
-222.572750
21
-76.000000
31
0.0
0
LINE
8
0
6
CONTINUOUS
10
-232.532640
20
-76.000000
30
0.0
11
-231.774500
21
-76.000000
31
0.0
0
LINE
8
0
6
CONTINUOUS
10
-231.774500
20
-76.000000
30
0.0
11
-229.615460
21
-76.000000
31
0.0
0
LINE
8
0
6
CONTINUOUS
10
-231.774480
20
-76.500010
30
0.0
11
-231.774500
21
-76.000000
31
0.0
0
LINE
8
0
6
CONTINUOUS
10
-229.615460
20
-76.000000
30
0.0
11
-226.384200
21
-76.000000
31
0.0
0
LINE
8
0
6
CONTINUOUS
10
-226.384200
20
-76.000000
30
0.0
11
-222.572750
21
-76.000000
31
0.0
0
LINE
8
0
6
CONTINUOUS
10
222.572750
20
-76.000000
30
0.0
11
226.384200
21
-76.000000
31
0.0
0
LINE
8
0
6
CONTINUOUS
10
226.384200
20
-76.000000
30
0.0
11
229.615460
21
-76.000000
31
0.0
0
LINE
8
0
6
CONTINUOUS
10
229.615460
20
-76.000000
30
0.0
11
231.774500
21
-76.000000
31
0.0
0
LINE
8
0
6
CONTINUOUS
10
231.774500
20
-76.000000
30
0.0
11
232.532630
21
-76.000000
31
0.0
0
LINE
8
0
6
CONTINUOUS
10
231.774480
20
-76.500010
30
0.0
11
231.774500
21
-76.000000
31
0.0
0
LINE
8
0
6
CONTINUOUS
10
-232.532640
20
-76.000000
30
0.0
11
-232.532640
21
-76.500010
31
0.0
0
LINE
8
0
6
CONTINUOUS
10
-231.774500
20
-76.000000
30
0.0
11
-232.532640
21
-76.000000
31
0.0
0
LINE
8
0
6
CONTINUOUS
10
-231.774500
20
-76.000000
30
0.0
11
-231.774480
21
-76.500010
31
0.0
0
LINE
8
0
6
CONTINUOUS
10
-229.615440
20
-76.000000
30
0.0
11
-231.774500
21
-76.000000
31
0.0
0
LINE
8
0
6
CONTINUOUS
10
-226.384200
20
-76.000000
30
0.0
11
-229.615440
21
-76.000000
31
0.0
0
LINE
8
0
6
CONTINUOUS
10
-222.572750
20
-76.000000
30
0.0
11
-226.384200
21
-76.000000
31
0.0
0
LINE
8
0
6
CONTINUOUS
10
226.384200
20
-76.000000
30
0.0
11
222.572750
21
-76.000000
31
0.0
0
LINE
8
0
6
CONTINUOUS
10
229.615460
20
-76.000000
30
0.0
11
226.384200
21
-76.000000
31
0.0
0
LINE
8
0
6
CONTINUOUS
10
231.774500
20
-76.000000
30
0.0
11
229.615460
21
-76.000000
31
0.0
0
LINE
8
0
6
CONTINUOUS
10
231.774500
20
-76.000000
30
0.0
11
231.774480
21
-76.500010
31
0.0
0
LINE
8
0
6
CONTINUOUS
10
232.532630
20
-76.000000
30
0.0
11
231.774500
21
-76.000000
31
0.0
0
LINE
8
0
6
CONTINUOUS
10
232.532630
20
-76.500010
30
0.0
11
232.532630
21
-76.000000
31
0.0
0
LINE
8
0
6
CONTINUOUS
10
174.399470
20
-76.000000
30
0.0
11
116.266320
21
-76.000000
31
0.0
0
LINE
8
0
6
CONTINUOUS
10
174.399470
20
-76.000000
30
0.0
11
170.239350
21
-76.000000
31
0.0
0
LINE
8
0
6
CONTINUOUS
10
165.990350
20
-76.000000
30
0.0
11
149.249340
21
-76.000000
31
0.0
0
LINE
8
0
6
CONTINUOUS
10
145.000340
20
-76.000000
30
0.0
11
128.259320
21
-76.000000
31
0.0
0
LINE
8
0
6
CONTINUOUS
10
124.010340
20
-76.000000
30
0.0
11
116.266320
21
-76.000000
31
0.0
0
LINE
8
0
6
CONTINUOUS
10
116.266320
20
-76.000000
30
0.0
11
0.000010
21
-76.000000
31
0.0
0
LINE
8
0
6
CONTINUOUS
10
0.000010
20
-76.000000
30
0.0
11
-116.266320
21
-76.000000
31
0.0
0
LINE
8
0
6
CONTINUOUS
10
-116.266320
20
-76.000000
30
0.0
11
-174.399470
21
-76.000000
31
0.0
0
LINE
8
0
6
CONTINUOUS
10
116.266320
20
-76.000000
30
0.0
11
107.269310
21
-76.000000
31
0.0
0
LINE
8
0
6
CONTINUOUS
10
103.020330
20
-76.000000
30
0.0
11
86.279310
21
-76.000000
31
0.0
0
LINE
8
0
6
CONTINUOUS
10
82.030320
20
-76.000000
30
0.0
11
65.289300
21
-76.000000
31
0.0
0
LINE
8
0
6
CONTINUOUS
10
61.040310
20
-76.000000
30
0.0
11
44.299300
21
-76.000000
31
0.0
0
LINE
8
0
6
CONTINUOUS
10
40.050300
20
-76.000000
30
0.0
11
28.268320
21
-76.000000
31
0.0
0
LINE
8
0
6
CONTINUOUS
10
24.019320
20
-76.000000
30
0.0
11
23.309290
21
-76.000000
31
0.0
0
LINE
8
0
6
CONTINUOUS
10
19.060290
20
-76.000000
30
0.0
11
17.894320
21
-76.000000
31
0.0
0
LINE
8
0
6
CONTINUOUS
10
-17.894360
20
-76.000000
30
0.0
11
-18.670730
21
-76.000000
31
0.0
0
LINE
8
0
6
CONTINUOUS
10
-22.919730
20
-76.000000
30
0.0
11
-23.851830
21
-76.000000
31
0.0
0
LINE
8
0
6
CONTINUOUS
10
-28.100830
20
-76.000000
30
0.0
11
-39.660740
21
-76.000000
31
0.0
0
LINE
8
0
6
CONTINUOUS
10
-43.909740
20
-76.000000
30
0.0
11
-60.650750
21
-76.000000
31
0.0
0
LINE
8
0
6
CONTINUOUS
10
-64.899750
20
-76.000000
30
0.0
11
-81.640760
21
-76.000000
31
0.0
0
LINE
8
0
6
CONTINUOUS
10
-85.889760
20
-76.000000
30
0.0
11
-102.630770
21
-76.000000
31
0.0
0
LINE
8
0
6
CONTINUOUS
10
-106.879770
20
-76.000000
30
0.0
11
-116.266320
21
-76.000000
31
0.0
0
LINE
8
0
6
CONTINUOUS
10
-116.266320
20
-76.000000
30
0.0
11
-123.620800
21
-76.000000
31
0.0
0
LINE
8
0
6
CONTINUOUS
10
-127.869760
20
-76.000000
30
0.0
11
-144.610790
21
-76.000000
31
0.0
0
LINE
8
0
6
CONTINUOUS
10
-148.859750
20
-76.000000
30
0.0
11
-165.600780
21
-76.000000
31
0.0
0
LINE
8
0
6
CONTINUOUS
10
-169.849740
20
-76.000000
30
0.0
11
-174.399470
21
-76.000000
31
0.0
0
LINE
8
0
6
CONTINUOUS
10
174.399470
20
-80.000000
30
0.0
11
186.980360
21
-80.000000
31
0.0
0
LINE
8
0
6
CONTINUOUS
10
191.229360
20
-80.000000
30
0.0
11
207.970370
21
-80.000000
31
0.0
0
LINE
8
0
6
CONTINUOUS
10
212.219370
20
-80.000000
30
0.0
11
222.572750
21
-80.000000
31
0.0
0
LINE
8
0
6
CONTINUOUS
10
222.572750
20
-80.000000
30
0.0
11
174.399470
21
-80.000000
31
0.0
0
LINE
8
0
6
CONTINUOUS
10
-222.572750
20
-80.000000
30
0.0
11
-211.829720
21
-80.000000
31
0.0
0
LINE
8
0
6
CONTINUOUS
10
-207.580760
20
-80.000000
30
0.0
11
-190.839730
21
-80.000000
31
0.0
0
LINE
8
0
6
CONTINUOUS
10
-186.590770
20
-80.000000
30
0.0
11
-174.399470
21
-80.000000
31
0.0
0
LINE
8
0
6
CONTINUOUS
10
-174.399470
20
-80.000000
30
0.0
11
-222.572750
21
-80.000000
31
0.0
0
LINE
8
0
6
CONTINUOUS
10
-232.532640
20
-80.000000
30
0.0
11
-231.774500
21
-80.000000
31
0.0
0
LINE
8
0
6
CONTINUOUS
10
-231.774500
20
-80.000000
30
0.0
11
-231.774480
21
-79.500000
31
0.0
0
LINE
8
0
6
CONTINUOUS
10
-231.774500
20
-80.000000
30
0.0
11
-229.615460
21
-80.000000
31
0.0
0
LINE
8
0
6
CONTINUOUS
10
-229.615460
20
-80.000000
30
0.0
11
-226.384200
21
-80.000000
31
0.0
0
LINE
8
0
6
CONTINUOUS
10
-226.384200
20
-80.000000
30
0.0
11
-222.572750
21
-80.000000
31
0.0
0
LINE
8
0
6
CONTINUOUS
10
222.572750
20
-80.000000
30
0.0
11
226.384200
21
-80.000000
31
0.0
0
LINE
8
0
6
CONTINUOUS
10
226.384200
20
-80.000000
30
0.0
11
229.615460
21
-80.000000
31
0.0
0
LINE
8
0
6
CONTINUOUS
10
229.615460
20
-80.000000
30
0.0
11
231.774500
21
-80.000000
31
0.0
0
LINE
8
0
6
CONTINUOUS
10
231.774500
20
-80.000000
30
0.0
11
231.774480
21
-79.500000
31
0.0
0
LINE
8
0
6
CONTINUOUS
10
231.774500
20
-80.000000
30
0.0
11
232.532630
21
-80.000000
31
0.0
0
LINE
8
0
6
CONTINUOUS
10
-232.532640
20
-79.500000
30
0.0
11
-232.532640
21
-80.000000
31
0.0
0
LINE
8
0
6
CONTINUOUS
10
-231.774500
20
-80.000000
30
0.0
11
-232.532640
21
-80.000000
31
0.0
0
LINE
8
0
6
CONTINUOUS
10
-231.774480
20
-79.500000
30
0.0
11
-231.774500
21
-80.000000
31
0.0
0
LINE
8
0
6
CONTINUOUS
10
-229.615460
20
-80.000000
30
0.0
11
-231.774500
21
-80.000000
31
0.0
0
LINE
8
0
6
CONTINUOUS
10
-226.384200
20
-80.000000
30
0.0
11
-229.615460
21
-80.000000
31
0.0
0
LINE
8
0
6
CONTINUOUS
10
-222.572750
20
-80.000000
30
0.0
11
-226.384200
21
-80.000000
31
0.0
0
LINE
8
0
6
CONTINUOUS
10
226.384200
20
-80.000000
30
0.0
11
222.572750
21
-80.000000
31
0.0
0
LINE
8
0
6
CONTINUOUS
10
229.615440
20
-80.000000
30
0.0
11
226.384200
21
-80.000000
31
0.0
0
LINE
8
0
6
CONTINUOUS
10
231.774500
20
-80.000000
30
0.0
11
229.615440
21
-80.000000
31
0.0
0
LINE
8
0
6
CONTINUOUS
10
231.774480
20
-79.500000
30
0.0
11
231.774500
21
-80.000000
31
0.0
0
LINE
8
0
6
CONTINUOUS
10
232.532630
20
-80.000000
30
0.0
11
232.532630
21
-79.500000
31
0.0
0
LINE
8
0
6
CONTINUOUS
10
232.532630
20
-80.000000
30
0.0
11
231.774500
21
-80.000000
31
0.0
0
LINE
8
0
6
CONTINUOUS
10
174.399470
20
-80.000000
30
0.0
11
116.266320
21
-80.000000
31
0.0
0
LINE
8
0
6
CONTINUOUS
10
174.399470
20
-80.000000
30
0.0
11
170.239350
21
-80.000000
31
0.0
0
LINE
8
0
6
CONTINUOUS
10
165.990350
20
-80.000000
30
0.0
11
149.249340
21
-80.000000
31
0.0
0
LINE
8
0
6
CONTINUOUS
10
145.000340
20
-80.000000
30
0.0
11
128.259320
21
-80.000000
31
0.0
0
LINE
8
0
6
CONTINUOUS
10
124.010340
20
-80.000000
30
0.0
11
116.266320
21
-80.000000
31
0.0
0
LINE
8
0
6
CONTINUOUS
10
116.266320
20
-80.000000
30
0.0
11
0.000010
21
-80.000000
31
0.0
0
LINE
8
0
6
CONTINUOUS
10
0.000010
20
-80.000000
30
0.0
11
-116.266320
21
-80.000000
31
0.0
0
LINE
8
0
6
CONTINUOUS
10
-116.266320
20
-80.000000
30
0.0
11
-174.399470
21
-80.000000
31
0.0
0
LINE
8
0
6
CONTINUOUS
10
116.266320
20
-80.000000
30
0.0
11
107.269310
21
-80.000000
31
0.0
0
LINE
8
0
6
CONTINUOUS
10
103.020330
20
-80.000000
30
0.0
11
86.279310
21
-80.000000
31
0.0
0
LINE
8
0
6
CONTINUOUS
10
82.030320
20
-80.000000
30
0.0
11
65.289300
21
-80.000000
31
0.0
0
LINE
8
0
6
CONTINUOUS
10
61.040310
20
-80.000000
30
0.0
11
44.299300
21
-80.000000
31
0.0
0
LINE
8
0
6
CONTINUOUS
10
40.050300
20
-80.000000
30
0.0
11
28.268320
21
-80.000000
31
0.0
0
LINE
8
0
6
CONTINUOUS
10
24.019320
20
-80.000000
30
0.0
11
23.309290
21
-80.000000
31
0.0
0
LINE
8
0
6
CONTINUOUS
10
19.060290
20
-80.000000
30
0.0
11
17.894320
21
-80.000000
31
0.0
0
LINE
8
0
6
CONTINUOUS
10
-17.894360
20
-80.000000
30
0.0
11
-18.670730
21
-80.000000
31
0.0
0
LINE
8
0
6
CONTINUOUS
10
-22.919730
20
-80.000000
30
0.0
11
-23.851830
21
-80.000000
31
0.0
0
LINE
8
0
6
CONTINUOUS
10
-28.100830
20
-80.000000
30
0.0
11
-39.660740
21
-80.000000
31
0.0
0
LINE
8
0
6
CONTINUOUS
10
-43.909740
20
-80.000000
30
0.0
11
-60.650750
21
-80.000000
31
0.0
0
LINE
8
0
6
CONTINUOUS
10
-64.899750
20
-80.000000
30
0.0
11
-81.640760
21
-80.000000
31
0.0
0
LINE
8
0
6
CONTINUOUS
10
-85.889760
20
-80.000000
30
0.0
11
-102.630770
21
-80.000000
31
0.0
0
LINE
8
0
6
CONTINUOUS
10
-106.879770
20
-80.000000
30
0.0
11
-116.266320
21
-80.000000
31
0.0
0
LINE
8
0
6
CONTINUOUS
10
-116.266320
20
-80.000000
30
0.0
11
-123.620800
21
-80.000000
31
0.0
0
LINE
8
0
6
CONTINUOUS
10
-127.869760
20
-80.000000
30
0.0
11
-144.610790
21
-80.000000
31
0.0
0
LINE
8
0
6
CONTINUOUS
10
-148.859750
20
-80.000000
30
0.0
11
-165.600780
21
-80.000000
31
0.0
0
LINE
8
0
6
CONTINUOUS
10
-169.849740
20
-80.000000
30
0.0
11
-174.399470
21
-80.000000
31
0.0
0
LINE
8
0
6
CONTINUOUS
10
-231.774480
20
-76.500010
30
0.0
11
-231.774480
21
-79.500000
31
0.0
0
LINE
8
0
6
CONTINUOUS
10
229.615460
20
-76.500010
30
0.0
11
229.615460
21
-79.500000
31
0.0
0
LINE
8
0
6
CONTINUOUS
10
-229.615460
20
-76.500010
30
0.0
11
-229.615460
21
-79.500000
31
0.0
0
LINE
8
0
6
CONTINUOUS
10
-232.532640
20
-79.500000
30
0.0
11
-232.532640
21
-76.500010
31
0.0
0
LINE
8
0
6
CONTINUOUS
10
-231.774480
20
-79.500000
30
0.0
11
-231.774480
21
-76.500010
31
0.0
0
LINE
8
0
6
CONTINUOUS
10
-229.615460
20
-79.500000
30
0.0
11
-229.615460
21
-76.500010
31
0.0
0
LINE
8
0
6
CONTINUOUS
10
231.774480
20
-76.500010
30
0.0
11
231.774480
21
-79.500000
31
0.0
0
LINE
8
0
6
CONTINUOUS
10
229.615460
20
-79.500000
30
0.0
11
229.615460
21
-76.500010
31
0.0
0
LINE
8
0
6
CONTINUOUS
10
232.532630
20
-79.500000
30
0.0
11
232.532630
21
-76.500010
31
0.0
0
LINE
8
0
6
CONTINUOUS
10
231.774480
20
-76.500010
30
0.0
11
231.774480
21
-79.500000
31
0.0
0
LINE
8
0
6
CONTINUOUS
10
-58.206490
20
-40.168710
30
0.0
11
-116.405340
21
-42.057020
31
0.0
0
LINE
8
0
6
CONTINUOUS
10
58.206510
20
-40.168730
30
0.0
11
33.420100
21
-39.481163
31
0.0
0
LINE
8
0
6
CONTINUOUS
10
174.759960
20
-47.907530
30
0.0
11
116.405350
21
-42.056990
31
0.0
0
LINE
8
0
6
CONTINUOUS
10
-116.405340
20
-42.057020
30
0.0
11
-174.759980
21
-47.907470
31
0.0
0
LINE
8
0
6
CONTINUOUS
10
-232.999970
20
-57.500000
30
0.0
11
-232.999970
21
-74.299990
31
0.0
0
LINE
8
0
6
CONTINUOUS
10
232.017650
20
-56.272110
30
0.0
11
222.886390
21
-54.153710
31
0.0
0
LINE
8
0
6
CONTINUOUS
10
222.886390
20
-54.153710
30
0.0
11
174.759960
21
-47.907530
31
0.0
0
LINE
8
0
6
CONTINUOUS
10
232.240290
20
-57.500000
30
0.0
11
232.240290
21
-74.299990
31
0.0
0
LINE
8
0
6
CONTINUOUS
10
232.999970
20
-74.299990
30
0.0
11
232.999970
21
-57.500000
31
0.0
0
LINE
8
0
6
CONTINUOUS
10
-174.759980
20
-47.907470
30
0.0
11
-222.255630
21
-54.012580
31
0.0
0
LINE
8
0
6
CONTINUOUS
10
-232.240300
20
-57.500000
30
0.0
11
-232.240300
21
-74.299990
31
0.0
0
LINE
8
0
6
CONTINUOUS
10
230.076920
20
-74.299990
30
0.0
11
230.076920
21
-57.500000
31
0.0
0
LINE
8
0
6
CONTINUOUS
10
-222.255630
20
-54.012580
30
0.0
11
-232.017560
21
-56.272560
31
0.0
0
LINE
8
0
6
CONTINUOUS
10
-232.999970
20
-74.299990
30
0.0
11
-232.999970
21
-74.799990
31
0.0
0
LINE
8
0
6
CONTINUOUS
10
-232.240300
20
-74.799990
30
0.0
11
-232.999970
21
-74.799990
31
0.0
0
LINE
8
0
6
CONTINUOUS
10
-232.240300
20
-74.299990
30
0.0
11
-232.240300
21
-74.799990
31
0.0
0
LINE
8
0
6
CONTINUOUS
10
-230.076920
20
-74.799990
30
0.0
11
-232.240300
21
-74.799990
31
0.0
0
LINE
8
0
6
CONTINUOUS
10
-226.839180
20
-74.799990
30
0.0
11
-230.076920
21
-74.799990
31
0.0
0
LINE
8
0
6
CONTINUOUS
10
-223.020040
20
-74.799990
30
0.0
11
-226.839180
21
-74.799990
31
0.0
0
LINE
8
0
6
CONTINUOUS
10
226.839180
20
-74.799990
30
0.0
11
223.020040
21
-74.799990
31
0.0
0
LINE
8
0
6
CONTINUOUS
10
230.076920
20
-74.799990
30
0.0
11
226.839180
21
-74.799990
31
0.0
0
LINE
8
0
6
CONTINUOUS
10
232.240290
20
-74.799990
30
0.0
11
230.076920
21
-74.799990
31
0.0
0
LINE
8
0
6
CONTINUOUS
10
232.999970
20
-74.799990
30
0.0
11
232.999970
21
-74.299990
31
0.0
0
LINE
8
0
6
CONTINUOUS
10
232.240290
20
-74.299990
30
0.0
11
232.240290
21
-74.799990
31
0.0
0
LINE
8
0
6
CONTINUOUS
10
232.999970
20
-74.799990
30
0.0
11
232.240290
21
-74.799990
31
0.0
0
LINE
8
0
6
CONTINUOUS
10
174.749980
20
-74.799990
30
0.0
11
223.020040
21
-74.799990
31
0.0
0
LINE
8
0
6
CONTINUOUS
10
-174.749990
20
-74.799990
30
0.0
11
-116.499990
21
-74.799990
31
0.0
0
LINE
8
0
6
CONTINUOUS
10
-58.249990
20
-74.799990
30
0.0
11
0.000010
21
-74.799990
31
0.0
0
LINE
8
0
6
CONTINUOUS
10
58.250000
20
-74.799990
30
0.0
11
116.499990
21
-74.799990
31
0.0
0
LINE
8
0
6
CONTINUOUS
10
116.499990
20
-74.799990
30
0.0
11
174.749980
21
-74.799990
31
0.0
0
LINE
8
0
6
CONTINUOUS
10
-223.020040
20
-74.799990
30
0.0
11
-174.749990
21
-74.799990
31
0.0
0
LINE
8
0
6
CONTINUOUS
10
-174.749990
20
-56.500010
30
0.0
11
-116.499990
21
-56.499990
31
0.0
0
LINE
8
0
6
CONTINUOUS
10
-58.249990
20
-56.499990
30
0.0
11
0.000010
21
-56.500000
31
0.0
0
LINE
8
0
6
CONTINUOUS
10
58.250000
20
-56.500010
30
0.0
11
116.499990
21
-56.500010
31
0.0
0
LINE
8
0
6
CONTINUOUS
10
232.999950
20
-56.500000
30
0.0
11
232.015110
21
-56.283460
31
0.0
0
LINE
8
0
6
CONTINUOUS
10
232.999990
20
-56.500000
30
0.0
11
232.017650
21
-56.272110
31
0.0
0
LINE
8
0
6
CONTINUOUS
10
-232.017560
20
-56.272560
30
0.0
11
-232.999970
21
-56.500000
31
0.0
0
LINE
8
0
6
CONTINUOUS
10
116.499990
20
-56.500010
30
0.0
11
174.749980
21
-56.500010
31
0.0
0
LINE
8
0
6
CONTINUOUS
10
232.999970
20
-57.500000
30
0.0
11
232.999970
21
-56.500010
31
0.0
0
LINE
8
0
6
CONTINUOUS
10
232.999970
20
-56.500010
30
0.0
11
232.240280
21
-56.500000
31
0.0
0
LINE
8
0
6
CONTINUOUS
10
232.240290
20
-57.500000
30
0.0
11
232.240280
21
-56.500000
31
0.0
0
LINE
8
0
6
CONTINUOUS
10
232.240280
20
-56.500000
30
0.0
11
230.076920
21
-56.499990
31
0.0
0
LINE
8
0
6
CONTINUOUS
10
230.076920
20
-57.500000
30
0.0
11
230.076920
21
-56.499990
31
0.0
0
LINE
8
0
6
CONTINUOUS
10
230.076920
20
-56.499990
30
0.0
11
226.839180
21
-56.500000
31
0.0
0
LINE
8
0
6
CONTINUOUS
10
226.839180
20
-56.500000
30
0.0
11
223.020040
21
-56.499990
31
0.0
0
LINE
8
0
6
CONTINUOUS
10
-223.003960
20
-56.439750
30
0.0
11
-226.839180
21
-56.500000
31
0.0
0
LINE
8
0
6
CONTINUOUS
10
-223.020040
20
-56.500010
30
0.0
11
-226.839180
21
-56.500000
31
0.0
0
LINE
8
0
6
CONTINUOUS
10
-226.839180
20
-56.500000
30
0.0
11
-230.076940
21
-56.500000
31
0.0
0
LINE
8
0
6
CONTINUOUS
10
-229.346640
20
-56.439880
30
0.0
11
-232.240280
21
-56.500000
31
0.0
0
LINE
8
0
6
CONTINUOUS
10
-230.076920
20
-57.500000
30
0.0
11
-230.076940
21
-56.500000
31
0.0
0
LINE
8
0
6
CONTINUOUS
10
-230.076940
20
-56.500000
30
0.0
11
-232.240280
21
-56.500000
31
0.0
0
LINE
8
0
6
CONTINUOUS
10
-231.993390
20
-56.441030
30
0.0
11
-232.999970
21
-56.499990
31
0.0
0
LINE
8
0
6
CONTINUOUS
10
-232.240300
20
-57.500000
30
0.0
11
-232.240280
21
-56.500000
31
0.0
0
LINE
8
0
6
CONTINUOUS
10
-232.999970
20
-56.499990
30
0.0
11
-232.999970
21
-57.500000
31
0.0
0
LINE
8
0
6
CONTINUOUS
10
-232.240280
20
-56.500000
30
0.0
11
-232.999970
21
-56.499990
31
0.0
0
LINE
8
0
6
CONTINUOUS
10
-232.009890
20
-56.308830
30
0.0
11
-232.999990
21
-56.500010
31
0.0
0
LINE
8
0
6
CONTINUOUS
10
-174.749990
20
-56.500010
30
0.0
11
-223.020040
21
-56.500010
31
0.0
0
LINE
8
0
6
CONTINUOUS
10
223.020040
20
-56.499990
30
0.0
11
174.749980
21
-56.500010
31
0.0
0
LINE
8
0
6
CONTINUOUS
10
232.999970
20
-56.500010
30
0.0
11
232.010150
21
-56.307410
31
0.0
0
LINE
8
0
6
CONTINUOUS
10
58.250000
20
-56.500010
30
0.0
11
0.000010
21
-56.500000
31
0.0
0
LINE
8
0
6
CONTINUOUS
10
58.250000
20
-74.799990
30
0.0
11
0.000010
21
-74.799990
31
0.0
0
LINE
8
0
6
CONTINUOUS
10
116.405350
20
-42.056990
30
0.0
11
58.206510
21
-40.168730
31
0.0
0
LINE
8
0
6
CONTINUOUS
10
-58.249990
20
-56.499990
30
0.0
11
-116.499990
21
-56.499990
31
0.0
0
LINE
8
0
6
CONTINUOUS
10
-58.249990
20
-74.799990
30
0.0
11
-116.499990
21
-74.799990
31
0.0
0
LINE
8
0
6
CONTINUOUS
10
-33.420135
20
-39.481153
30
0.0
11
-58.206490
21
-40.168710
31
0.0
0
LINE
8
0
6
CONTINUOUS
10
16.532190
20
-81.999990
30
0.0
11
17.894320
21
-81.999990
31
0.0
0
LINE
8
0
6
CONTINUOUS
10
17.894320
20
-81.999990
30
0.0
11
17.894320
21
-80.000000
31
0.0
0
LINE
8
0
6
CONTINUOUS
10
17.894320
20
-80.000000
30
0.0
11
17.894320
21
-76.000000
31
0.0
0
LINE
8
0
6
CONTINUOUS
10
17.894320
20
-76.000000
30
0.0
11
17.894320
21
-74.800000
31
0.0
0
LINE
8
0
6
CONTINUOUS
10
12.653200
20
-81.999990
30
0.0
11
16.532190
21
-81.999990
31
0.0
0
LINE
8
0
6
CONTINUOUS
10
6.847840
20
-81.999990
30
0.0
11
12.653200
21
-81.999990
31
0.0
0
LINE
8
0
6
CONTINUOUS
10
12.653200
20
-81.999990
30
0.0
11
12.653200
21
-80.000000
31
0.0
0
LINE
8
0
6
CONTINUOUS
10
12.653200
20
-80.000000
30
0.0
11
12.653200
21
-76.000000
31
0.0
0
LINE
8
0
6
CONTINUOUS
10
12.653200
20
-76.000000
30
0.0
11
12.653200
21
-74.800000
31
0.0
0
LINE
8
0
6
CONTINUOUS
10
2.319280
20
-81.999990
30
0.0
11
6.847840
21
-81.999990
31
0.0
0
LINE
8
0
6
CONTINUOUS
10
-6.847880
20
-81.999990
30
0.0
11
-1.929720
21
-81.999990
31
0.0
0
LINE
8
0
6
CONTINUOUS
10
-12.653220
20
-81.999990
30
0.0
11
-6.847880
21
-81.999990
31
0.0
0
LINE
8
0
6
CONTINUOUS
10
-16.532230
20
-81.999990
30
0.0
11
-12.653220
21
-81.999990
31
0.0
0
LINE
8
0
6
CONTINUOUS
10
-17.894360
20
-81.999990
30
0.0
11
-16.532230
21
-81.999990
31
0.0
0
LINE
8
0
6
CONTINUOUS
10
-17.894360
20
-74.800000
30
0.0
11
-17.894360
21
-81.999990
31
0.0
0
LINE
8
0
6
CONTINUOUS
10
28.268320
20
-82.000000
30
0.0
11
28.268320
21
-80.000000
31
0.0
0
LINE
8
0
6
CONTINUOUS
10
28.268320
20
-80.000000
30
0.0
11
28.268320
21
-76.000000
31
0.0
0
LINE
8
0
6
CONTINUOUS
10
28.268320
20
-76.000000
30
0.0
11
28.268320
21
-74.800000
31
0.0
0
LINE
8
0
6
CONTINUOUS
10
26.143820
20
-82.000000
30
0.0
11
28.268320
21
-82.000000
31
0.0
0
LINE
8
0
6
CONTINUOUS
10
24.019320
20
-74.800000
30
0.0
11
24.019320
21
-76.000000
31
0.0
0
LINE
8
0
6
CONTINUOUS
10
24.019320
20
-76.000000
30
0.0
11
24.019320
21
-80.000000
31
0.0
0
LINE
8
0
6
CONTINUOUS
10
24.019320
20
-80.000000
30
0.0
11
24.019320
21
-82.000000
31
0.0
0
LINE
8
0
6
CONTINUOUS
10
26.143820
20
-82.000000
30
0.0
11
26.143820
21
-80.000000
31
0.0
0
LINE
8
0
6
CONTINUOUS
10
26.143820
20
-80.000000
30
0.0
11
26.143820
21
-76.000000
31
0.0
0
LINE
8
0
6
CONTINUOUS
10
26.143820
20
-76.000000
30
0.0
11
26.143820
21
-74.800000
31
0.0
0
LINE
8
0
6
CONTINUOUS
10
24.019320
20
-82.000000
30
0.0
11
26.143820
21
-82.000000
31
0.0
0
LINE
8
0
6
CONTINUOUS
10
-23.851830
20
-82.000000
30
0.0
11
-23.851830
21
-80.000000
31
0.0
0
LINE
8
0
6
CONTINUOUS
10
-23.851830
20
-80.000000
30
0.0
11
-23.851830
21
-76.000000
31
0.0
0
LINE
8
0
6
CONTINUOUS
10
-23.851830
20
-76.000000
30
0.0
11
-23.851830
21
-74.800000
31
0.0
0
LINE
8
0
6
CONTINUOUS
10
-25.976330
20
-82.000000
30
0.0
11
-23.851830
21
-82.000000
31
0.0
0
LINE
8
0
6
CONTINUOUS
10
-28.100830
20
-74.800000
30
0.0
11
-28.100830
21
-76.000000
31
0.0
0
LINE
8
0
6
CONTINUOUS
10
-28.100830
20
-76.000000
30
0.0
11
-28.100830
21
-80.000000
31
0.0
0
LINE
8
0
6
CONTINUOUS
10
-28.100830
20
-80.000000
30
0.0
11
-28.100830
21
-82.000000
31
0.0
0
LINE
8
0
6
CONTINUOUS
10
-25.976330
20
-82.000000
30
0.0
11
-25.976330
21
-80.000000
31
0.0
0
LINE
8
0
6
CONTINUOUS
10
-25.976330
20
-80.000000
30
0.0
11
-25.976330
21
-76.000000
31
0.0
0
LINE
8
0
6
CONTINUOUS
10
-25.976330
20
-76.000000
30
0.0
11
-25.976330
21
-74.800000
31
0.0
0
LINE
8
0
6
CONTINUOUS
10
-28.100830
20
-82.000000
30
0.0
11
-25.976330
21
-82.000000
31
0.0
0
LINE
8
0
6
CONTINUOUS
10
212.219370
20
-82.000000
30
0.0
11
212.219370
21
-80.000000
31
0.0
0
LINE
8
0
6
CONTINUOUS
10
212.219370
20
-80.000000
30
0.0
11
212.219370
21
-76.000000
31
0.0
0
LINE
8
0
6
CONTINUOUS
10
212.219370
20
-76.000000
30
0.0
11
212.219370
21
-74.800000
31
0.0
0
LINE
8
0
6
CONTINUOUS
10
210.094870
20
-82.000000
30
0.0
11
212.219370
21
-82.000000
31
0.0
0
LINE
8
0
6
CONTINUOUS
10
207.970370
20
-74.800000
30
0.0
11
207.970370
21
-76.000000
31
0.0
0
LINE
8
0
6
CONTINUOUS
10
207.970370
20
-76.000000
30
0.0
11
207.970370
21
-80.000000
31
0.0
0
LINE
8
0
6
CONTINUOUS
10
207.970370
20
-80.000000
30
0.0
11
207.970370
21
-82.000000
31
0.0
0
LINE
8
0
6
CONTINUOUS
10
210.094870
20
-82.000000
30
0.0
11
210.094870
21
-80.000000
31
0.0
0
LINE
8
0
6
CONTINUOUS
10
210.094870
20
-80.000000
30
0.0
11
210.094870
21
-76.000000
31
0.0
0
LINE
8
0
6
CONTINUOUS
10
210.094870
20
-76.000000
30
0.0
11
210.094870
21
-74.800000
31
0.0
0
LINE
8
0
6
CONTINUOUS
10
207.970370
20
-82.000000
30
0.0
11
210.094870
21
-82.000000
31
0.0
0
LINE
8
0
6
CONTINUOUS
10
191.229360
20
-82.000000
30
0.0
11
191.229360
21
-80.000000
31
0.0
0
LINE
8
0
6
CONTINUOUS
10
191.229360
20
-80.000000
30
0.0
11
191.229360
21
-76.000000
31
0.0
0
LINE
8
0
6
CONTINUOUS
10
191.229360
20
-76.000000
30
0.0
11
191.229360
21
-74.800000
31
0.0
0
LINE
8
0
6
CONTINUOUS
10
189.104860
20
-82.000000
30
0.0
11
191.229360
21
-82.000000
31
0.0
0
LINE
8
0
6
CONTINUOUS
10
186.980360
20
-74.800000
30
0.0
11
186.980360
21
-76.000000
31
0.0
0
LINE
8
0
6
CONTINUOUS
10
186.980360
20
-76.000000
30
0.0
11
186.980360
21
-80.000000
31
0.0
0
LINE
8
0
6
CONTINUOUS
10
186.980360
20
-80.000000
30
0.0
11
186.980360
21
-82.000000
31
0.0
0
LINE
8
0
6
CONTINUOUS
10
189.104860
20
-82.000000
30
0.0
11
189.104860
21
-80.000000
31
0.0
0
LINE
8
0
6
CONTINUOUS
10
189.104860
20
-80.000000
30
0.0
11
189.104860
21
-76.000000
31
0.0
0
LINE
8
0
6
CONTINUOUS
10
189.104860
20
-76.000000
30
0.0
11
189.104860
21
-74.800000
31
0.0
0
LINE
8
0
6
CONTINUOUS
10
186.980360
20
-82.000000
30
0.0
11
189.104860
21
-82.000000
31
0.0
0
LINE
8
0
6
CONTINUOUS
10
170.239350
20
-82.000000
30
0.0
11
170.239350
21
-80.000000
31
0.0
0
LINE
8
0
6
CONTINUOUS
10
170.239350
20
-80.000000
30
0.0
11
170.239350
21
-76.000000
31
0.0
0
LINE
8
0
6
CONTINUOUS
10
170.239350
20
-76.000000
30
0.0
11
170.239350
21
-74.800000
31
0.0
0
LINE
8
0
6
CONTINUOUS
10
168.114850
20
-82.000000
30
0.0
11
170.239350
21
-82.000000
31
0.0
0
LINE
8
0
6
CONTINUOUS
10
165.990350
20
-74.800000
30
0.0
11
165.990350
21
-76.000000
31
0.0
0
LINE
8
0
6
CONTINUOUS
10
165.990350
20
-76.000000
30
0.0
11
165.990350
21
-80.000000
31
0.0
0
LINE
8
0
6
CONTINUOUS
10
165.990350
20
-80.000000
30
0.0
11
165.990350
21
-82.000000
31
0.0
0
LINE
8
0
6
CONTINUOUS
10
168.114850
20
-82.000000
30
0.0
11
168.114850
21
-80.000000
31
0.0
0
LINE
8
0
6
CONTINUOUS
10
168.114850
20
-80.000000
30
0.0
11
168.114850
21
-76.000000
31
0.0
0
LINE
8
0
6
CONTINUOUS
10
168.114850
20
-76.000000
30
0.0
11
168.114850
21
-74.800000
31
0.0
0
LINE
8
0
6
CONTINUOUS
10
165.990350
20
-82.000000
30
0.0
11
168.114850
21
-82.000000
31
0.0
0
LINE
8
0
6
CONTINUOUS
10
149.249340
20
-82.000000
30
0.0
11
149.249340
21
-80.000000
31
0.0
0
LINE
8
0
6
CONTINUOUS
10
149.249340
20
-80.000000
30
0.0
11
149.249340
21
-76.000000
31
0.0
0
LINE
8
0
6
CONTINUOUS
10
149.249340
20
-76.000000
30
0.0
11
149.249340
21
-74.800000
31
0.0
0
LINE
8
0
6
CONTINUOUS
10
147.124840
20
-82.000000
30
0.0
11
149.249340
21
-82.000000
31
0.0
0
LINE
8
0
6
CONTINUOUS
10
145.000340
20
-74.800000
30
0.0
11
145.000340
21
-76.000000
31
0.0
0
LINE
8
0
6
CONTINUOUS
10
145.000340
20
-76.000000
30
0.0
11
145.000340
21
-80.000000
31
0.0
0
LINE
8
0
6
CONTINUOUS
10
145.000340
20
-80.000000
30
0.0
11
145.000340
21
-82.000000
31
0.0
0
LINE
8
0
6
CONTINUOUS
10
147.124840
20
-82.000000
30
0.0
11
147.124840
21
-80.000000
31
0.0
0
LINE
8
0
6
CONTINUOUS
10
147.124840
20
-80.000000
30
0.0
11
147.124840
21
-76.000000
31
0.0
0
LINE
8
0
6
CONTINUOUS
10
147.124840
20
-76.000000
30
0.0
11
147.124840
21
-74.800000
31
0.0
0
LINE
8
0
6
CONTINUOUS
10
145.000340
20
-82.000000
30
0.0
11
147.124840
21
-82.000000
31
0.0
0
LINE
8
0
6
CONTINUOUS
10
128.259320
20
-82.000000
30
0.0
11
128.259320
21
-80.000000
31
0.0
0
LINE
8
0
6
CONTINUOUS
10
128.259320
20
-80.000000
30
0.0
11
128.259320
21
-76.000000
31
0.0
0
LINE
8
0
6
CONTINUOUS
10
128.259320
20
-76.000000
30
0.0
11
128.259320
21
-74.800000
31
0.0
0
LINE
8
0
6
CONTINUOUS
10
126.134830
20
-82.000000
30
0.0
11
128.259320
21
-82.000000
31
0.0
0
LINE
8
0
6
CONTINUOUS
10
124.010340
20
-74.800000
30
0.0
11
124.010340
21
-76.000000
31
0.0
0
LINE
8
0
6
CONTINUOUS
10
124.010340
20
-76.000000
30
0.0
11
124.010340
21
-80.000000
31
0.0
0
LINE
8
0
6
CONTINUOUS
10
124.010340
20
-80.000000
30
0.0
11
124.010340
21
-82.000000
31
0.0
0
LINE
8
0
6
CONTINUOUS
10
126.134830
20
-82.000000
30
0.0
11
126.134830
21
-80.000000
31
0.0
0
LINE
8
0
6
CONTINUOUS
10
126.134830
20
-80.000000
30
0.0
11
126.134830
21
-76.000000
31
0.0
0
LINE
8
0
6
CONTINUOUS
10
126.134830
20
-76.000000
30
0.0
11
126.134830
21
-74.800000
31
0.0
0
LINE
8
0
6
CONTINUOUS
10
124.010340
20
-82.000000
30
0.0
11
126.134830
21
-82.000000
31
0.0
0
LINE
8
0
6
CONTINUOUS
10
107.269310
20
-82.000000
30
0.0
11
107.269310
21
-80.000000
31
0.0
0
LINE
8
0
6
CONTINUOUS
10
107.269310
20
-80.000000
30
0.0
11
107.269310
21
-76.000000
31
0.0
0
LINE
8
0
6
CONTINUOUS
10
107.269310
20
-76.000000
30
0.0
11
107.269310
21
-74.800000
31
0.0
0
LINE
8
0
6
CONTINUOUS
10
105.144820
20
-82.000000
30
0.0
11
107.269310
21
-82.000000
31
0.0
0
LINE
8
0
6
CONTINUOUS
10
103.020330
20
-74.800000
30
0.0
11
103.020330
21
-76.000000
31
0.0
0
LINE
8
0
6
CONTINUOUS
10
103.020330
20
-76.000000
30
0.0
11
103.020330
21
-80.000000
31
0.0
0
LINE
8
0
6
CONTINUOUS
10
103.020330
20
-80.000000
30
0.0
11
103.020330
21
-82.000000
31
0.0
0
LINE
8
0
6
CONTINUOUS
10
105.144820
20
-82.000000
30
0.0
11
105.144820
21
-80.000000
31
0.0
0
LINE
8
0
6
CONTINUOUS
10
105.144820
20
-80.000000
30
0.0
11
105.144820
21
-76.000000
31
0.0
0
LINE
8
0
6
CONTINUOUS
10
105.144820
20
-76.000000
30
0.0
11
105.144820
21
-74.800000
31
0.0
0
LINE
8
0
6
CONTINUOUS
10
103.020330
20
-82.000000
30
0.0
11
105.144820
21
-82.000000
31
0.0
0
LINE
8
0
6
CONTINUOUS
10
86.279310
20
-82.000000
30
0.0
11
86.279310
21
-80.000000
31
0.0
0
LINE
8
0
6
CONTINUOUS
10
86.279310
20
-80.000000
30
0.0
11
86.279310
21
-76.000000
31
0.0
0
LINE
8
0
6
CONTINUOUS
10
86.279310
20
-76.000000
30
0.0
11
86.279310
21
-74.800000
31
0.0
0
LINE
8
0
6
CONTINUOUS
10
84.154810
20
-82.000000
30
0.0
11
86.279310
21
-82.000000
31
0.0
0
LINE
8
0
6
CONTINUOUS
10
82.030320
20
-74.800000
30
0.0
11
82.030320
21
-76.000000
31
0.0
0
LINE
8
0
6
CONTINUOUS
10
82.030320
20
-76.000000
30
0.0
11
82.030320
21
-80.000000
31
0.0
0
LINE
8
0
6
CONTINUOUS
10
82.030320
20
-80.000000
30
0.0
11
82.030320
21
-82.000000
31
0.0
0
LINE
8
0
6
CONTINUOUS
10
84.154810
20
-82.000000
30
0.0
11
84.154810
21
-80.000000
31
0.0
0
LINE
8
0
6
CONTINUOUS
10
84.154810
20
-80.000000
30
0.0
11
84.154810
21
-76.000000
31
0.0
0
LINE
8
0
6
CONTINUOUS
10
84.154810
20
-76.000000
30
0.0
11
84.154810
21
-74.800000
31
0.0
0
LINE
8
0
6
CONTINUOUS
10
82.030320
20
-82.000000
30
0.0
11
84.154810
21
-82.000000
31
0.0
0
LINE
8
0
6
CONTINUOUS
10
65.289300
20
-82.000000
30
0.0
11
65.289300
21
-80.000000
31
0.0
0
LINE
8
0
6
CONTINUOUS
10
65.289300
20
-80.000000
30
0.0
11
65.289300
21
-76.000000
31
0.0
0
LINE
8
0
6
CONTINUOUS
10
65.289300
20
-76.000000
30
0.0
11
65.289300
21
-74.800000
31
0.0
0
LINE
8
0
6
CONTINUOUS
10
63.164810
20
-82.000000
30
0.0
11
65.289300
21
-82.000000
31
0.0
0
LINE
8
0
6
CONTINUOUS
10
61.040310
20
-74.800000
30
0.0
11
61.040310
21
-76.000000
31
0.0
0
LINE
8
0
6
CONTINUOUS
10
61.040310
20
-76.000000
30
0.0
11
61.040310
21
-80.000000
31
0.0
0
LINE
8
0
6
CONTINUOUS
10
61.040310
20
-80.000000
30
0.0
11
61.040310
21
-82.000000
31
0.0
0
LINE
8
0
6
CONTINUOUS
10
63.164810
20
-82.000000
30
0.0
11
63.164810
21
-80.000000
31
0.0
0
LINE
8
0
6
CONTINUOUS
10
63.164810
20
-80.000000
30
0.0
11
63.164810
21
-76.000000
31
0.0
0
LINE
8
0
6
CONTINUOUS
10
63.164810
20
-76.000000
30
0.0
11
63.164810
21
-74.800000
31
0.0
0
LINE
8
0
6
CONTINUOUS
10
61.040310
20
-82.000000
30
0.0
11
63.164810
21
-82.000000
31
0.0
0
LINE
8
0
6
CONTINUOUS
10
44.299300
20
-82.000000
30
0.0
11
44.299300
21
-80.000000
31
0.0
0
LINE
8
0
6
CONTINUOUS
10
44.299300
20
-80.000000
30
0.0
11
44.299300
21
-76.000000
31
0.0
0
LINE
8
0
6
CONTINUOUS
10
44.299300
20
-76.000000
30
0.0
11
44.299300
21
-74.800000
31
0.0
0
LINE
8
0
6
CONTINUOUS
10
42.174800
20
-82.000000
30
0.0
11
44.299300
21
-82.000000
31
0.0
0
LINE
8
0
6
CONTINUOUS
10
40.050300
20
-74.800000
30
0.0
11
40.050300
21
-76.000000
31
0.0
0
LINE
8
0
6
CONTINUOUS
10
40.050300
20
-76.000000
30
0.0
11
40.050300
21
-80.000000
31
0.0
0
LINE
8
0
6
CONTINUOUS
10
40.050300
20
-80.000000
30
0.0
11
40.050300
21
-82.000000
31
0.0
0
LINE
8
0
6
CONTINUOUS
10
42.174800
20
-82.000000
30
0.0
11
42.174800
21
-80.000000
31
0.0
0
LINE
8
0
6
CONTINUOUS
10
42.174800
20
-80.000000
30
0.0
11
42.174800
21
-76.000000
31
0.0
0
LINE
8
0
6
CONTINUOUS
10
42.174800
20
-76.000000
30
0.0
11
42.174800
21
-74.800000
31
0.0
0
LINE
8
0
6
CONTINUOUS
10
40.050300
20
-82.000000
30
0.0
11
42.174800
21
-82.000000
31
0.0
0
LINE
8
0
6
CONTINUOUS
10
23.309290
20
-82.000000
30
0.0
11
23.309290
21
-80.000000
31
0.0
0
LINE
8
0
6
CONTINUOUS
10
23.309290
20
-80.000000
30
0.0
11
23.309290
21
-76.000000
31
0.0
0
LINE
8
0
6
CONTINUOUS
10
23.309290
20
-76.000000
30
0.0
11
23.309290
21
-74.800000
31
0.0
0
LINE
8
0
6
CONTINUOUS
10
21.184790
20
-82.000000
30
0.0
11
23.309290
21
-82.000000
31
0.0
0
LINE
8
0
6
CONTINUOUS
10
19.060290
20
-74.800000
30
0.0
11
19.060290
21
-76.000000
31
0.0
0
LINE
8
0
6
CONTINUOUS
10
19.060290
20
-76.000000
30
0.0
11
19.060290
21
-80.000000
31
0.0
0
LINE
8
0
6
CONTINUOUS
10
19.060290
20
-80.000000
30
0.0
11
19.060290
21
-82.000000
31
0.0
0
LINE
8
0
6
CONTINUOUS
10
21.184790
20
-82.000000
30
0.0
11
21.184790
21
-80.000000
31
0.0
0
LINE
8
0
6
CONTINUOUS
10
21.184790
20
-80.000000
30
0.0
11
21.184790
21
-76.000000
31
0.0
0
LINE
8
0
6
CONTINUOUS
10
21.184790
20
-76.000000
30
0.0
11
21.184790
21
-74.800000
31
0.0
0
LINE
8
0
6
CONTINUOUS
10
19.060290
20
-82.000000
30
0.0
11
21.184790
21
-82.000000
31
0.0
0
LINE
8
0
6
CONTINUOUS
10
2.319280
20
-82.000000
30
0.0
11
2.319280
21
-80.000000
31
0.0
0
LINE
8
0
6
CONTINUOUS
10
2.319280
20
-80.000000
30
0.0
11
2.319280
21
-76.000000
31
0.0
0
LINE
8
0
6
CONTINUOUS
10
2.319280
20
-76.000000
30
0.0
11
2.319280
21
-74.800000
31
0.0
0
LINE
8
0
6
CONTINUOUS
10
0.194780
20
-82.000000
30
0.0
11
2.319280
21
-82.000000
31
0.0
0
LINE
8
0
6
CONTINUOUS
10
-1.929720
20
-74.800000
30
0.0
11
-1.929720
21
-76.000000
31
0.0
0
LINE
8
0
6
CONTINUOUS
10
-1.929720
20
-76.000000
30
0.0
11
-1.929720
21
-80.000000
31
0.0
0
LINE
8
0
6
CONTINUOUS
10
-1.929720
20
-80.000000
30
0.0
11
-1.929720
21
-81.999990
31
0.0
0
LINE
8
0
6
CONTINUOUS
10
0.194780
20
-82.000000
30
0.0
11
0.194780
21
-80.000000
31
0.0
0
LINE
8
0
6
CONTINUOUS
10
0.194780
20
-80.000000
30
0.0
11
0.194780
21
-76.000000
31
0.0
0
LINE
8
0
6
CONTINUOUS
10
0.194780
20
-76.000000
30
0.0
11
0.194780
21
-74.800000
31
0.0
0
LINE
8
0
6
CONTINUOUS
10
-1.929720
20
-82.000000
30
0.0
11
0.194780
21
-82.000000
31
0.0
0
LINE
8
0
6
CONTINUOUS
10
-18.670730
20
-82.000000
30
0.0
11
-18.670730
21
-80.000000
31
0.0
0
LINE
8
0
6
CONTINUOUS
10
-18.670730
20
-80.000000
30
0.0
11
-18.670730
21
-76.000000
31
0.0
0
LINE
8
0
6
CONTINUOUS
10
-18.670730
20
-76.000000
30
0.0
11
-18.670730
21
-74.800000
31
0.0
0
LINE
8
0
6
CONTINUOUS
10
-20.795230
20
-82.000000
30
0.0
11
-18.670730
21
-82.000000
31
0.0
0
LINE
8
0
6
CONTINUOUS
10
-22.919730
20
-74.800000
30
0.0
11
-22.919730
21
-76.000000
31
0.0
0
LINE
8
0
6
CONTINUOUS
10
-22.919730
20
-76.000000
30
0.0
11
-22.919730
21
-80.000000
31
0.0
0
LINE
8
0
6
CONTINUOUS
10
-22.919730
20
-80.000000
30
0.0
11
-22.919730
21
-82.000000
31
0.0
0
LINE
8
0
6
CONTINUOUS
10
-20.795230
20
-82.000000
30
0.0
11
-20.795230
21
-80.000000
31
0.0
0
LINE
8
0
6
CONTINUOUS
10
-20.795230
20
-80.000000
30
0.0
11
-20.795230
21
-76.000000
31
0.0
0
LINE
8
0
6
CONTINUOUS
10
-20.795230
20
-76.000000
30
0.0
11
-20.795230
21
-74.800000
31
0.0
0
LINE
8
0
6
CONTINUOUS
10
-22.919730
20
-82.000000
30
0.0
11
-20.795230
21
-82.000000
31
0.0
0
LINE
8
0
6
CONTINUOUS
10
-39.660740
20
-82.000000
30
0.0
11
-39.660740
21
-80.000000
31
0.0
0
LINE
8
0
6
CONTINUOUS
10
-39.660740
20
-80.000000
30
0.0
11
-39.660740
21
-76.000000
31
0.0
0
LINE
8
0
6
CONTINUOUS
10
-39.660740
20
-76.000000
30
0.0
11
-39.660740
21
-74.800000
31
0.0
0
LINE
8
0
6
CONTINUOUS
10
-41.785240
20
-82.000000
30
0.0
11
-39.660740
21
-82.000000
31
0.0
0
LINE
8
0
6
CONTINUOUS
10
-43.909740
20
-74.800000
30
0.0
11
-43.909740
21
-76.000000
31
0.0
0
LINE
8
0
6
CONTINUOUS
10
-43.909740
20
-76.000000
30
0.0
11
-43.909740
21
-80.000000
31
0.0
0
LINE
8
0
6
CONTINUOUS
10
-43.909740
20
-80.000000
30
0.0
11
-43.909740
21
-82.000000
31
0.0
0
LINE
8
0
6
CONTINUOUS
10
-41.785240
20
-82.000000
30
0.0
11
-41.785240
21
-80.000000
31
0.0
0
LINE
8
0
6
CONTINUOUS
10
-41.785240
20
-80.000000
30
0.0
11
-41.785240
21
-76.000000
31
0.0
0
LINE
8
0
6
CONTINUOUS
10
-41.785240
20
-76.000000
30
0.0
11
-41.785240
21
-74.800000
31
0.0
0
LINE
8
0
6
CONTINUOUS
10
-43.909740
20
-82.000000
30
0.0
11
-41.785240
21
-82.000000
31
0.0
0
LINE
8
0
6
CONTINUOUS
10
-60.650750
20
-82.000000
30
0.0
11
-60.650750
21
-80.000000
31
0.0
0
LINE
8
0
6
CONTINUOUS
10
-60.650750
20
-80.000000
30
0.0
11
-60.650750
21
-76.000000
31
0.0
0
LINE
8
0
6
CONTINUOUS
10
-60.650750
20
-76.000000
30
0.0
11
-60.650750
21
-74.800000
31
0.0
0
LINE
8
0
6
CONTINUOUS
10
-62.775250
20
-82.000000
30
0.0
11
-60.650750
21
-82.000000
31
0.0
0
LINE
8
0
6
CONTINUOUS
10
-64.899750
20
-74.800000
30
0.0
11
-64.899750
21
-76.000000
31
0.0
0
LINE
8
0
6
CONTINUOUS
10
-64.899750
20
-76.000000
30
0.0
11
-64.899750
21
-80.000000
31
0.0
0
LINE
8
0
6
CONTINUOUS
10
-64.899750
20
-80.000000
30
0.0
11
-64.899750
21
-82.000000
31
0.0
0
LINE
8
0
6
CONTINUOUS
10
-62.775250
20
-82.000000
30
0.0
11
-62.775250
21
-80.000000
31
0.0
0
LINE
8
0
6
CONTINUOUS
10
-62.775250
20
-80.000000
30
0.0
11
-62.775250
21
-76.000000
31
0.0
0
LINE
8
0
6
CONTINUOUS
10
-62.775250
20
-76.000000
30
0.0
11
-62.775250
21
-74.800000
31
0.0
0
LINE
8
0
6
CONTINUOUS
10
-64.899750
20
-82.000000
30
0.0
11
-62.775250
21
-82.000000
31
0.0
0
LINE
8
0
6
CONTINUOUS
10
-81.640760
20
-82.000000
30
0.0
11
-81.640760
21
-80.000000
31
0.0
0
LINE
8
0
6
CONTINUOUS
10
-81.640760
20
-80.000000
30
0.0
11
-81.640760
21
-76.000000
31
0.0
0
LINE
8
0
6
CONTINUOUS
10
-81.640760
20
-76.000000
30
0.0
11
-81.640760
21
-74.800000
31
0.0
0
LINE
8
0
6
CONTINUOUS
10
-83.765260
20
-82.000000
30
0.0
11
-81.640760
21
-82.000000
31
0.0
0
LINE
8
0
6
CONTINUOUS
10
-85.889760
20
-74.800000
30
0.0
11
-85.889760
21
-76.000000
31
0.0
0
LINE
8
0
6
CONTINUOUS
10
-85.889760
20
-76.000000
30
0.0
11
-85.889760
21
-80.000000
31
0.0
0
LINE
8
0
6
CONTINUOUS
10
-85.889760
20
-80.000000
30
0.0
11
-85.889760
21
-82.000000
31
0.0
0
LINE
8
0
6
CONTINUOUS
10
-83.765260
20
-82.000000
30
0.0
11
-83.765260
21
-80.000000
31
0.0
0
LINE
8
0
6
CONTINUOUS
10
-83.765260
20
-80.000000
30
0.0
11
-83.765260
21
-76.000000
31
0.0
0
LINE
8
0
6
CONTINUOUS
10
-83.765260
20
-76.000000
30
0.0
11
-83.765260
21
-74.800000
31
0.0
0
LINE
8
0
6
CONTINUOUS
10
-85.889760
20
-82.000000
30
0.0
11
-83.765260
21
-82.000000
31
0.0
0
LINE
8
0
6
CONTINUOUS
10
-102.630770
20
-82.000000
30
0.0
11
-102.630770
21
-80.000000
31
0.0
0
LINE
8
0
6
CONTINUOUS
10
-102.630770
20
-80.000000
30
0.0
11
-102.630770
21
-76.000000
31
0.0
0
LINE
8
0
6
CONTINUOUS
10
-102.630770
20
-76.000000
30
0.0
11
-102.630770
21
-74.800000
31
0.0
0
LINE
8
0
6
CONTINUOUS
10
-104.755270
20
-82.000000
30
0.0
11
-102.630770
21
-82.000000
31
0.0
0
LINE
8
0
6
CONTINUOUS
10
-106.879770
20
-74.800000
30
0.0
11
-106.879770
21
-76.000000
31
0.0
0
LINE
8
0
6
CONTINUOUS
10
-106.879770
20
-76.000000
30
0.0
11
-106.879770
21
-80.000000
31
0.0
0
LINE
8
0
6
CONTINUOUS
10
-106.879770
20
-80.000000
30
0.0
11
-106.879770
21
-82.000000
31
0.0
0
LINE
8
0
6
CONTINUOUS
10
-104.755270
20
-82.000000
30
0.0
11
-104.755270
21
-80.000000
31
0.0
0
LINE
8
0
6
CONTINUOUS
10
-104.755270
20
-80.000000
30
0.0
11
-104.755270
21
-76.000000
31
0.0
0
LINE
8
0
6
CONTINUOUS
10
-104.755270
20
-76.000000
30
0.0
11
-104.755270
21
-74.800000
31
0.0
0
LINE
8
0
6
CONTINUOUS
10
-106.879770
20
-82.000000
30
0.0
11
-104.755270
21
-82.000000
31
0.0
0
LINE
8
0
6
CONTINUOUS
10
-123.620800
20
-82.000000
30
0.0
11
-123.620800
21
-80.000000
31
0.0
0
LINE
8
0
6
CONTINUOUS
10
-123.620800
20
-80.000000
30
0.0
11
-123.620800
21
-76.000000
31
0.0
0
LINE
8
0
6
CONTINUOUS
10
-123.620800
20
-76.000000
30
0.0
11
-123.620800
21
-74.800000
31
0.0
0
LINE
8
0
6
CONTINUOUS
10
-125.745280
20
-82.000000
30
0.0
11
-123.620800
21
-82.000000
31
0.0
0
LINE
8
0
6
CONTINUOUS
10
-127.869760
20
-74.800000
30
0.0
11
-127.869760
21
-76.000000
31
0.0
0
LINE
8
0
6
CONTINUOUS
10
-127.869760
20
-76.000000
30
0.0
11
-127.869760
21
-80.000000
31
0.0
0
LINE
8
0
6
CONTINUOUS
10
-127.869760
20
-80.000000
30
0.0
11
-127.869760
21
-82.000000
31
0.0
0
LINE
8
0
6
CONTINUOUS
10
-125.745280
20
-82.000000
30
0.0
11
-125.745280
21
-80.000000
31
0.0
0
LINE
8
0
6
CONTINUOUS
10
-125.745280
20
-80.000000
30
0.0
11
-125.745280
21
-76.000000
31
0.0
0
LINE
8
0
6
CONTINUOUS
10
-125.745280
20
-76.000000
30
0.0
11
-125.745280
21
-74.800000
31
0.0
0
LINE
8
0
6
CONTINUOUS
10
-127.869760
20
-82.000000
30
0.0
11
-125.745280
21
-82.000000
31
0.0
0
LINE
8
0
6
CONTINUOUS
10
-144.610790
20
-82.000000
30
0.0
11
-144.610790
21
-80.000000
31
0.0
0
LINE
8
0
6
CONTINUOUS
10
-144.610790
20
-80.000000
30
0.0
11
-144.610790
21
-76.000000
31
0.0
0
LINE
8
0
6
CONTINUOUS
10
-144.610790
20
-76.000000
30
0.0
11
-144.610790
21
-74.800000
31
0.0
0
LINE
8
0
6
CONTINUOUS
10
-146.735270
20
-82.000000
30
0.0
11
-144.610790
21
-82.000000
31
0.0
0
LINE
8
0
6
CONTINUOUS
10
-148.859750
20
-74.800000
30
0.0
11
-148.859750
21
-76.000000
31
0.0
0
LINE
8
0
6
CONTINUOUS
10
-148.859750
20
-76.000000
30
0.0
11
-148.859750
21
-80.000000
31
0.0
0
LINE
8
0
6
CONTINUOUS
10
-148.859750
20
-80.000000
30
0.0
11
-148.859750
21
-82.000000
31
0.0
0
LINE
8
0
6
CONTINUOUS
10
-146.735270
20
-82.000000
30
0.0
11
-146.735270
21
-80.000000
31
0.0
0
LINE
8
0
6
CONTINUOUS
10
-146.735270
20
-80.000000
30
0.0
11
-146.735270
21
-76.000000
31
0.0
0
LINE
8
0
6
CONTINUOUS
10
-146.735270
20
-76.000000
30
0.0
11
-146.735270
21
-74.800000
31
0.0
0
LINE
8
0
6
CONTINUOUS
10
-148.859750
20
-82.000000
30
0.0
11
-146.735270
21
-82.000000
31
0.0
0
LINE
8
0
6
CONTINUOUS
10
-165.600780
20
-82.000000
30
0.0
11
-165.600780
21
-80.000000
31
0.0
0
LINE
8
0
6
CONTINUOUS
10
-165.600780
20
-80.000000
30
0.0
11
-165.600780
21
-76.000000
31
0.0
0
LINE
8
0
6
CONTINUOUS
10
-165.600780
20
-76.000000
30
0.0
11
-165.600780
21
-74.800000
31
0.0
0
LINE
8
0
6
CONTINUOUS
10
-167.725260
20
-82.000000
30
0.0
11
-165.600780
21
-82.000000
31
0.0
0
LINE
8
0
6
CONTINUOUS
10
-169.849740
20
-74.800000
30
0.0
11
-169.849740
21
-76.000000
31
0.0
0
LINE
8
0
6
CONTINUOUS
10
-169.849740
20
-76.000000
30
0.0
11
-169.849740
21
-80.000000
31
0.0
0
LINE
8
0
6
CONTINUOUS
10
-169.849740
20
-80.000000
30
0.0
11
-169.849740
21
-82.000000
31
0.0
0
LINE
8
0
6
CONTINUOUS
10
-167.725260
20
-82.000000
30
0.0
11
-167.725260
21
-80.000000
31
0.0
0
LINE
8
0
6
CONTINUOUS
10
-167.725260
20
-80.000000
30
0.0
11
-167.725260
21
-76.000000
31
0.0
0
LINE
8
0
6
CONTINUOUS
10
-167.725260
20
-76.000000
30
0.0
11
-167.725260
21
-74.800000
31
0.0
0
LINE
8
0
6
CONTINUOUS
10
-169.849740
20
-82.000000
30
0.0
11
-167.725260
21
-82.000000
31
0.0
0
LINE
8
0
6
CONTINUOUS
10
-186.590770
20
-82.000000
30
0.0
11
-186.590770
21
-80.000000
31
0.0
0
LINE
8
0
6
CONTINUOUS
10
-186.590770
20
-80.000000
30
0.0
11
-186.590770
21
-76.000000
31
0.0
0
LINE
8
0
6
CONTINUOUS
10
-186.590770
20
-76.000000
30
0.0
11
-186.590770
21
-74.800000
31
0.0
0
LINE
8
0
6
CONTINUOUS
10
-188.715250
20
-82.000000
30
0.0
11
-186.590770
21
-82.000000
31
0.0
0
LINE
8
0
6
CONTINUOUS
10
-190.839730
20
-74.800000
30
0.0
11
-190.839730
21
-76.000000
31
0.0
0
LINE
8
0
6
CONTINUOUS
10
-190.839730
20
-76.000000
30
0.0
11
-190.839730
21
-80.000000
31
0.0
0
LINE
8
0
6
CONTINUOUS
10
-190.839730
20
-80.000000
30
0.0
11
-190.839730
21
-82.000000
31
0.0
0
LINE
8
0
6
CONTINUOUS
10
-188.715250
20
-82.000000
30
0.0
11
-188.715250
21
-80.000000
31
0.0
0
LINE
8
0
6
CONTINUOUS
10
-188.715250
20
-80.000000
30
0.0
11
-188.715250
21
-76.000000
31
0.0
0
LINE
8
0
6
CONTINUOUS
10
-188.715250
20
-76.000000
30
0.0
11
-188.715250
21
-74.800000
31
0.0
0
LINE
8
0
6
CONTINUOUS
10
-190.839730
20
-82.000000
30
0.0
11
-188.715250
21
-82.000000
31
0.0
0
LINE
8
0
6
CONTINUOUS
10
-207.580760
20
-82.000000
30
0.0
11
-207.580760
21
-80.000000
31
0.0
0
LINE
8
0
6
CONTINUOUS
10
-207.580760
20
-80.000000
30
0.0
11
-207.580760
21
-76.000000
31
0.0
0
LINE
8
0
6
CONTINUOUS
10
-207.580760
20
-76.000000
30
0.0
11
-207.580760
21
-74.800000
31
0.0
0
LINE
8
0
6
CONTINUOUS
10
-209.705240
20
-82.000000
30
0.0
11
-207.580760
21
-82.000000
31
0.0
0
LINE
8
0
6
CONTINUOUS
10
-211.829720
20
-74.800000
30
0.0
11
-211.829720
21
-76.000000
31
0.0
0
LINE
8
0
6
CONTINUOUS
10
-211.829720
20
-76.000000
30
0.0
11
-211.829720
21
-80.000000
31
0.0
0
LINE
8
0
6
CONTINUOUS
10
-211.829720
20
-80.000000
30
0.0
11
-211.829720
21
-82.000000
31
0.0
0
LINE
8
0
6
CONTINUOUS
10
-209.705240
20
-82.000000
30
0.0
11
-209.705240
21
-80.000000
31
0.0
0
LINE
8
0
6
CONTINUOUS
10
-209.705240
20
-80.000000
30
0.0
11
-209.705240
21
-76.000000
31
0.0
0
LINE
8
0
6
CONTINUOUS
10
-209.705240
20
-76.000000
30
0.0
11
-209.705240
21
-74.800000
31
0.0
0
LINE
8
0
6
CONTINUOUS
10
-211.829720
20
-82.000000
30
0.0
11
-209.705240
21
-82.000000
31
0.0
0
LINE
8
0
6
CONTINUOUS
10
-76.499820
20
70.000000
30
0.0
11
76.499780
21
70.000000
31
0.0
0
LINE
8
0
6
CONTINUOUS
10
76.499780
20
82.000000
30
0.0
11
-76.499820
21
82.000000
31
0.0
0
LINE
8
0
6
CONTINUOUS
10
-78.000020
20
80.505080
30
0.0
11
-78.000020
21
71.494910
31
0.0
0
LINE
8
0
6
CONTINUOUS
10
77.999980
20
71.494910
30
0.0
11
77.999980
21
80.505080
31
0.0
0
LINE
8
0
6
CONTINUOUS
10
77.999980
20
82.000000
30
0.0
11
76.499780
21
82.000000
31
0.0
0
LINE
8
0
6
CONTINUOUS
10
77.999980
20
80.505080
30
0.0
11
77.999980
21
82.000000
31
0.0
0
LINE
8
0
6
CONTINUOUS
10
77.999980
20
70.000000
30
0.0
11
77.999980
21
71.494910
31
0.0
0
LINE
8
0
6
CONTINUOUS
10
76.499780
20
70.000000
30
0.0
11
77.999980
21
70.000000
31
0.0
0
LINE
8
0
6
CONTINUOUS
10
-78.000020
20
82.000000
30
0.0
11
-78.000020
21
80.505080
31
0.0
0
LINE
8
0
6
CONTINUOUS
10
-76.499820
20
82.000000
30
0.0
11
-78.000020
21
82.000000
31
0.0
0
LINE
8
0
6
CONTINUOUS
10
-78.000020
20
70.000000
30
0.0
11
-76.499820
21
70.000000
31
0.0
0
LINE
8
0
6
CONTINUOUS
10
-78.000020
20
71.494910
30
0.0
11
-78.000020
21
70.000000
31
0.0
0
LINE
8
0
6
CONTINUOUS
10
21.499980
20
-22.789280
30
0.0
11
21.499980
21
70.000000
31
0.0
0
LINE
8
0
6
CONTINUOUS
10
-21.500020
20
70.000000
30
0.0
11
-21.500020
21
-22.789280
31
0.0
0
LINE
8
0
6
CONTINUOUS
10
21.499980
20
-23.789280
30
0.0
11
21.499980
21
-22.789280
31
0.0
0
LINE
8
0
6
CONTINUOUS
10
-21.500020
20
-22.789280
30
0.0
11
-21.500020
21
-23.789280
31
0.0
0
LINE
8
0
6
CONTINUOUS
10
-28.531070
20
-24.789290
30
0.0
11
-28.531070
21
-33.679280
31
0.0
0
LINE
8
0
6
CONTINUOUS
10
28.531030
20
-33.679280
30
0.0
11
28.531030
21
-24.789290
31
0.0
0
LINE
8
0
6
CONTINUOUS
10
12.931670
20
-34.679280
30
0.0
11
11.308520
21
-34.679270
31
0.0
0
LINE
8
0
6
CONTINUOUS
10
11.308520
20
-34.679270
30
0.0
11
-0.000020
21
-34.679280
31
0.0
0
LINE
8
0
6
CONTINUOUS
10
-24.615620
20
-39.617790
30
0.0
11
-13.321890
21
-39.617790
31
0.0
0
LINE
8
0
6
CONTINUOUS
10
24.615590
20
-39.617790
30
0.0
11
32.161830
21
-39.617790
31
0.0
0
LINE
8
0
6
CONTINUOUS
10
13.321850
20
-39.617790
30
0.0
11
24.615590
21
-39.617790
31
0.0
0
LINE
8
0
6
CONTINUOUS
10
-32.161870
20
-39.617790
30
0.0
11
-24.615620
21
-39.617790
31
0.0
0
LINE
8
0
6
CONTINUOUS
10
-34.811750
20
-35.679280
30
0.0
11
-34.811750
21
-39.519755
31
0.0
0
LINE
8
0
6
CONTINUOUS
10
-0.000020
20
-39.617790
30
0.0
11
13.321850
21
-39.617790
31
0.0
0
LINE
8
0
6
CONTINUOUS
10
-13.321890
20
-39.617790
30
0.0
11
-0.000020
21
-39.617790
31
0.0
0
LINE
8
0
6
CONTINUOUS
10
34.811720
20
-39.519766
30
0.0
11
34.811720
21
-35.679280
31
0.0
0
LINE
8
0
6
CONTINUOUS
10
28.531030
20
-24.789290
30
0.0
11
28.531030
21
-23.789280
31
0.0
0
LINE
8
0
6
CONTINUOUS
10
28.531030
20
-23.789280
30
0.0
11
26.359240
21
-23.789280
31
0.0
0
LINE
8
0
6
CONTINUOUS
10
26.359240
20
-23.789280
30
0.0
11
20.174480
21
-23.789280
31
0.0
0
LINE
8
0
6
CONTINUOUS
10
20.174480
20
-23.789280
30
0.0
11
10.918340
21
-23.789280
31
0.0
0
LINE
8
0
6
CONTINUOUS
10
10.918340
20
-23.789280
30
0.0
11
-0.000020
21
-23.789280
31
0.0
0
LINE
8
0
6
CONTINUOUS
10
-0.000020
20
-23.789280
30
0.0
11
-10.918370
21
-23.789280
31
0.0
0
LINE
8
0
6
CONTINUOUS
10
-10.918370
20
-23.789280
30
0.0
11
-20.174510
21
-23.789280
31
0.0
0
LINE
8
0
6
CONTINUOUS
10
-20.174510
20
-23.789280
30
0.0
11
-26.359280
21
-23.789280
31
0.0
0
LINE
8
0
6
CONTINUOUS
10
-28.531070
20
-23.789280
30
0.0
11
-28.531070
21
-24.789290
31
0.0
0
LINE
8
0
6
CONTINUOUS
10
-26.359280
20
-23.789280
30
0.0
11
-28.531070
21
-23.789280
31
0.0
0
LINE
8
0
6
CONTINUOUS
10
28.531030
20
-34.679280
30
0.0
11
28.531030
21
-33.679280
31
0.0
0
LINE
8
0
6
CONTINUOUS
10
-28.531070
20
-33.679280
30
0.0
11
-28.531070
21
-34.679280
31
0.0
0
LINE
8
0
6
CONTINUOUS
10
34.811720
20
-35.679280
30
0.0
11
34.811720
21
-34.679280
31
0.0
0
LINE
8
0
6
CONTINUOUS
10
34.811720
20
-34.679280
30
0.0
11
32.161830
21
-34.679280
31
0.0
0
LINE
8
0
6
CONTINUOUS
10
32.161830
20
-34.679280
30
0.0
11
24.615590
21
-34.679280
31
0.0
0
LINE
8
0
6
CONTINUOUS
10
24.615590
20
-34.679280
30
0.0
11
13.321850
21
-34.679280
31
0.0
0
LINE
8
0
6
CONTINUOUS
10
13.321850
20
-34.679280
30
0.0
11
-0.000010
21
-34.679280
31
0.0
0
LINE
8
0
6
CONTINUOUS
10
-0.000010
20
-34.679280
30
0.0
11
-12.931710
21
-34.679270
31
0.0
0
LINE
8
0
6
CONTINUOUS
10
-0.000010
20
-34.679280
30
0.0
11
-13.321890
21
-34.679290
31
0.0
0
LINE
8
0
6
CONTINUOUS
10
-12.931710
20
-34.679270
30
0.0
11
-23.894670
21
-34.679280
31
0.0
0
LINE
8
0
6
CONTINUOUS
10
-13.321890
20
-34.679290
30
0.0
11
-24.615630
21
-34.679280
31
0.0
0
LINE
8
0
6
CONTINUOUS
10
-23.894670
20
-34.679280
30
0.0
11
-31.219880
21
-34.679270
31
0.0
0
LINE
8
0
6
CONTINUOUS
10
-24.615630
20
-34.679280
30
0.0
11
-32.161870
21
-34.679290
31
0.0
0
LINE
8
0
6
CONTINUOUS
10
-31.219880
20
-34.679270
30
0.0
11
-33.792160
21
-34.679280
31
0.0
0
LINE
8
0
6
CONTINUOUS
10
-34.811750
20
-34.679280
30
0.0
11
-34.811750
21
-35.679280
31
0.0
0
LINE
8
0
6
CONTINUOUS
10
-32.161870
20
-34.679290
30
0.0
11
-34.811750
21
-34.679280
31
0.0
0
LINE
8
0
6
CONTINUOUS
10
207.970370
20
-76.000000
30
0.0
11
210.094870
21
-76.000000
31
0.0
0
LINE
8
0
6
CONTINUOUS
10
-85.889760
20
-76.000000
30
0.0
11
-83.765260
21
-76.000000
31
0.0
0
LINE
8
0
6
CONTINUOUS
10
-127.869760
20
-76.000000
30
0.0
11
-125.745280
21
-76.000000
31
0.0
0
LINE
8
0
6
CONTINUOUS
10
-148.859750
20
-76.000000
30
0.0
11
-146.735270
21
-76.000000
31
0.0
0
LINE
8
0
6
CONTINUOUS
10
-83.765260
20
-76.000000
30
0.0
11
-81.640760
21
-76.000000
31
0.0
0
LINE
8
0
6
CONTINUOUS
10
-104.755270
20
-76.000000
30
0.0
11
-102.630770
21
-76.000000
31
0.0
0
LINE
8
0
6
CONTINUOUS
10
-169.849740
20
-76.000000
30
0.0
11
-167.725260
21
-76.000000
31
0.0
0
LINE
8
0
6
CONTINUOUS
10
21.184790
20
-76.000000
30
0.0
11
23.309290
21
-76.000000
31
0.0
0
LINE
8
0
6
CONTINUOUS
10
0.194780
20
-76.000000
30
0.0
11
2.319280
21
-76.000000
31
0.0
0
LINE
8
0
6
CONTINUOUS
10
0.194780
20
-80.000000
30
0.0
11
2.319280
21
-80.000000
31
0.0
0
LINE
8
0
6
CONTINUOUS
10
-1.929720
20
-76.000000
30
0.0
11
0.000010
21
-76.000000
31
0.0
0
LINE
8
0
6
CONTINUOUS
10
0.000010
20
-76.000000
30
0.0
11
0.194780
21
-76.000000
31
0.0
0
LINE
8
0
6
CONTINUOUS
10
-1.929720
20
-80.000000
30
0.0
11
0.000010
21
-80.000000
31
0.0
0
LINE
8
0
6
CONTINUOUS
10
103.020330
20
-76.000000
30
0.0
11
105.144820
21
-76.000000
31
0.0
0
LINE
8
0
6
CONTINUOUS
10
-62.775250
20
-76.000000
30
0.0
11
-60.650750
21
-76.000000
31
0.0
0
LINE
8
0
6
CONTINUOUS
10
-22.919730
20
-76.000000
30
0.0
11
-20.795230
21
-76.000000
31
0.0
0
LINE
8
0
6
CONTINUOUS
10
19.060290
20
-76.000000
30
0.0
11
21.184790
21
-76.000000
31
0.0
0
LINE
8
0
6
CONTINUOUS
10
42.174800
20
-76.000000
30
0.0
11
44.299300
21
-76.000000
31
0.0
0
LINE
8
0
6
CONTINUOUS
10
-64.899750
20
-76.000000
30
0.0
11
-62.775250
21
-76.000000
31
0.0
0
LINE
8
0
6
CONTINUOUS
10
40.050300
20
-76.000000
30
0.0
11
42.174800
21
-76.000000
31
0.0
0
LINE
8
0
6
CONTINUOUS
10
-190.839730
20
-76.000000
30
0.0
11
-188.715250
21
-76.000000
31
0.0
0
LINE
8
0
6
CONTINUOUS
10
124.010340
20
-76.000000
30
0.0
11
126.134830
21
-76.000000
31
0.0
0
LINE
8
0
6
CONTINUOUS
10
145.000340
20
-76.000000
30
0.0
11
147.124840
21
-76.000000
31
0.0
0
LINE
8
0
6
CONTINUOUS
10
82.030320
20
-76.000000
30
0.0
11
84.154810
21
-76.000000
31
0.0
0
LINE
8
0
6
CONTINUOUS
10
186.980360
20
-76.000000
30
0.0
11
189.104860
21
-76.000000
31
0.0
0
LINE
8
0
6
CONTINUOUS
10
24.019320
20
-76.000000
30
0.0
11
26.143820
21
-76.000000
31
0.0
0
LINE
8
0
6
CONTINUOUS
10
61.040310
20
-76.000000
30
0.0
11
63.164810
21
-76.000000
31
0.0
0
LINE
8
0
6
CONTINUOUS
10
-106.879770
20
-76.000000
30
0.0
11
-104.755270
21
-76.000000
31
0.0
0
LINE
8
0
6
CONTINUOUS
10
-211.829720
20
-76.000000
30
0.0
11
-209.705240
21
-76.000000
31
0.0
0
LINE
8
0
6
CONTINUOUS
10
165.990350
20
-76.000000
30
0.0
11
168.114850
21
-76.000000
31
0.0
0
LINE
8
0
6
CONTINUOUS
10
-28.100830
20
-76.000000
30
0.0
11
-25.976330
21
-76.000000
31
0.0
0
LINE
8
0
6
CONTINUOUS
10
-43.909740
20
-76.000000
30
0.0
11
-41.785240
21
-76.000000
31
0.0
0
LINE
8
0
6
CONTINUOUS
10
-6.847880
20
-80.000000
30
0.0
11
-1.929720
21
-80.000000
31
0.0
0
LINE
8
0
6
CONTINUOUS
10
-12.653220
20
-80.000000
30
0.0
11
-6.847880
21
-80.000000
31
0.0
0
LINE
8
0
6
CONTINUOUS
10
6.847840
20
-80.000000
30
0.0
11
12.653200
21
-80.000000
31
0.0
0
LINE
8
0
6
CONTINUOUS
10
2.319280
20
-80.000000
30
0.0
11
6.847840
21
-80.000000
31
0.0
0
LINE
8
0
6
CONTINUOUS
10
16.532190
20
-76.000000
30
0.0
11
17.894320
21
-76.000000
31
0.0
0
LINE
8
0
6
CONTINUOUS
10
-6.847880
20
-76.000000
30
0.0
11
-1.929720
21
-76.000000
31
0.0
0
LINE
8
0
6
CONTINUOUS
10
-16.430547
20
-76.000000
30
0.0
11
-16.532230
21
-76.000000
31
0.0
0
LINE
8
0
6
CONTINUOUS
10
12.653200
20
-76.000000
30
0.0
11
16.430507
21
-76.000000
31
0.0
0
LINE
8
0
6
CONTINUOUS
10
6.847840
20
-76.000000
30
0.0
11
12.653200
21
-76.000000
31
0.0
0
LINE
8
0
6
CONTINUOUS
10
2.319280
20
-76.000000
30
0.0
11
6.847840
21
-76.000000
31
0.0
0
ENDSEC
0
EOF
