999
Erzeugt mit innoplus bad 
0
SECTION
2
HEADER
9
$ACADVER
1
AC1009
9
$DWGCODEPAGE
3
ISO8859-1
0
ENDSEC
0
SECTION
2
TABLES
0
TABLE
2
LAYER
70
1
0
LAYER
2
0
70
0
62
7
6
CONTINUOUS
0
ENDTAB
0
ENDSEC
0
SECTION
2
ENTITIES
0
LINE
8
0
6
CONTINUOUS
10
-288.986195
20
-59.319615
30
0.0
11
-288.933855
21
-56.320075
31
0.0
0
LINE
8
0
6
CONTINUOUS
10
-292.155295
20
-56.263865
30
0.0
11
-292.207635
21
-59.263395
31
0.0
0
LINE
8
0
6
CONTINUOUS
10
-26.090495
20
-63.907405
30
0.0
11
-26.038165
21
-60.907865
31
0.0
0
LINE
8
0
6
CONTINUOUS
10
-292.155215
20
-56.263865
30
0.0
11
-292.207555
21
-59.263395
31
0.0
0
LINE
8
0
6
CONTINUOUS
10
-288.933935
20
-56.320075
30
0.0
11
-288.986275
21
-59.319615
31
0.0
0
LINE
8
0
6
CONTINUOUS
10
-32.220065
20
-63.800435
30
0.0
11
-32.167735
21
-60.800895
31
0.0
0
LINE
8
0
6
CONTINUOUS
10
-28.998745
20
-63.856655
30
0.0
11
-28.946405
21
-60.857105
31
0.0
0
LINE
8
0
6
CONTINUOUS
10
-32.220145
20
-63.800435
30
0.0
11
-32.167805
21
-60.800895
31
0.0
0
LINE
8
0
6
CONTINUOUS
10
-28.998675
20
-63.856655
30
0.0
11
-28.946335
21
-60.857105
31
0.0
0
LINE
8
0
6
CONTINUOUS
10
-26.532435
20
-60.399155
30
0.0
11
-35.958855
21
-60.234655
31
0.0
0
LINE
8
0
6
CONTINUOUS
10
-35.958855
20
-60.234655
30
0.0
11
-29.296595
21
-60.350925
31
0.0
0
LINE
8
0
6
CONTINUOUS
10
-295.063545
20
-56.213105
30
0.0
11
-295.115885
21
-59.212645
31
0.0
0
LINE
8
0
6
CONTINUOUS
10
-59.727395
20
-63.820485
30
0.0
11
-60.320923
21
-63.810127
31
0.0
0
LINE
8
0
6
CONTINUOUS
10
-65.226513
20
-63.724519
30
0.0
11
-81.316823
21
-63.443724
31
0.0
0
LINE
8
0
6
CONTINUOUS
10
-86.222373
20
-63.358117
30
0.0
11
-93.355515
21
-63.233635
31
0.0
0
LINE
8
0
6
CONTINUOUS
10
-93.355515
20
-63.233635
30
0.0
11
-102.312613
21
-63.077325
31
0.0
0
LINE
8
0
6
CONTINUOUS
10
-107.218163
20
-62.991718
30
0.0
11
-123.308403
21
-62.710927
31
0.0
0
LINE
8
0
6
CONTINUOUS
10
-128.213953
20
-62.625320
30
0.0
11
-139.286303
21
-62.432097
31
0.0
0
LINE
8
0
6
CONTINUOUS
10
-144.191883
20
-62.346489
30
0.0
11
-144.304193
21
-62.344530
31
0.0
0
LINE
8
0
6
CONTINUOUS
10
-149.209780
20
-62.258922
30
0.0
11
-149.719279
21
-62.250031
31
0.0
0
LINE
8
0
6
CONTINUOUS
10
-185.502509
20
-61.625582
30
0.0
11
-186.295843
21
-61.611738
31
0.0
0
LINE
8
0
6
CONTINUOUS
10
-196.097023
20
-61.440699
30
0.0
11
-207.291673
21
-61.245343
31
0.0
0
LINE
8
0
6
CONTINUOUS
10
-212.197223
20
-61.159737
30
0.0
11
-227.868225
21
-60.886265
31
0.0
0
LINE
8
0
6
CONTINUOUS
10
-59.727465
20
-63.820485
30
0.0
11
-93.355585
21
-63.233635
31
0.0
0
LINE
8
0
6
CONTINUOUS
10
-93.355585
20
-63.233635
30
0.0
11
-160.611905
21
-62.059945
31
0.0
0
LINE
8
0
6
CONTINUOUS
10
-160.611905
20
-62.059945
30
0.0
11
-227.868295
21
-60.886265
31
0.0
0
LINE
8
0
6
CONTINUOUS
10
-227.868225
20
-60.886265
30
0.0
11
-228.287463
21
-60.878949
31
0.0
0
LINE
8
0
6
CONTINUOUS
10
-233.193013
20
-60.793341
30
0.0
11
-249.283253
21
-60.512548
31
0.0
0
LINE
8
0
6
CONTINUOUS
10
-254.188833
20
-60.426940
30
0.0
11
-261.496345
21
-60.299415
31
0.0
0
LINE
8
0
6
CONTINUOUS
10
-227.868295
20
-60.886265
30
0.0
11
-261.496415
21
-60.299415
31
0.0
0
LINE
8
0
6
CONTINUOUS
10
-32.228725
20
-64.300355
30
0.0
11
-36.028585
21
-64.234055
31
0.0
0
LINE
8
0
6
CONTINUOUS
10
-32.228725
20
-64.300355
30
0.0
11
-32.220065
21
-63.800435
31
0.0
0
LINE
8
0
6
CONTINUOUS
10
-29.007485
20
-64.356575
30
0.0
11
-32.228725
21
-64.300355
31
0.0
0
LINE
8
0
6
CONTINUOUS
10
-26.855035
20
-64.394135
30
0.0
11
-29.007485
21
-64.356575
31
0.0
0
LINE
8
0
6
CONTINUOUS
10
-26.099155
20
-64.407325
30
0.0
11
-26.855035
21
-64.394135
31
0.0
0
LINE
8
0
6
CONTINUOUS
10
-26.855115
20
-64.394135
30
0.0
11
-26.099235
21
-64.407325
31
0.0
0
LINE
8
0
6
CONTINUOUS
10
-27.317385
20
-64.386075
30
0.0
11
-26.855115
21
-64.394135
31
0.0
0
LINE
8
0
6
CONTINUOUS
10
-29.366485
20
-64.350315
30
0.0
11
-27.317385
21
-64.386075
31
0.0
0
LINE
8
0
6
CONTINUOUS
10
-29.007485
20
-64.356575
30
0.0
11
-26.855115
21
-64.394135
31
0.0
0
LINE
8
0
6
CONTINUOUS
10
-32.434185
20
-64.296775
30
0.0
11
-29.366485
21
-64.350315
31
0.0
0
LINE
8
0
6
CONTINUOUS
10
-29.007485
20
-64.356575
30
0.0
11
-28.998745
21
-63.856655
31
0.0
0
LINE
8
0
6
CONTINUOUS
10
-32.228805
20
-64.300355
30
0.0
11
-29.007485
21
-64.356575
31
0.0
0
LINE
8
0
6
CONTINUOUS
10
-36.028665
20
-64.234055
30
0.0
11
-32.434185
21
-64.296775
31
0.0
0
LINE
8
0
6
CONTINUOUS
10
-32.228805
20
-64.300355
30
0.0
11
-32.220145
21
-63.800435
31
0.0
0
LINE
8
0
6
CONTINUOUS
10
-36.028665
20
-64.234055
30
0.0
11
-32.228805
21
-64.300355
31
0.0
0
LINE
8
0
6
CONTINUOUS
10
-285.195115
20
-59.885845
30
0.0
11
-288.994935
21
-59.819535
31
0.0
0
LINE
8
0
6
CONTINUOUS
10
-288.986195
20
-59.319615
30
0.0
11
-288.994935
21
-59.819535
31
0.0
0
LINE
8
0
6
CONTINUOUS
10
-288.994935
20
-59.819535
30
0.0
11
-292.216295
21
-59.763325
31
0.0
0
LINE
8
0
6
CONTINUOUS
10
-292.216295
20
-59.763325
30
0.0
11
-291.857365
21
-59.769585
31
0.0
0
LINE
8
0
6
CONTINUOUS
10
-291.857365
20
-59.769585
30
0.0
11
-293.906435
21
-59.733825
31
0.0
0
LINE
8
0
6
CONTINUOUS
10
-292.207555
20
-59.263395
30
0.0
11
-292.216295
21
-59.763325
31
0.0
0
LINE
8
0
6
CONTINUOUS
10
-292.216295
20
-59.763325
30
0.0
11
-294.368735
21
-59.725765
31
0.0
0
LINE
8
0
6
CONTINUOUS
10
-293.906435
20
-59.733825
30
0.0
11
-294.621575
21
-59.721345
31
0.0
0
LINE
8
0
6
CONTINUOUS
10
-294.368735
20
-59.725765
30
0.0
11
-295.124545
21
-59.712575
31
0.0
0
LINE
8
0
6
CONTINUOUS
10
-295.124615
20
-59.712575
30
0.0
11
-294.368815
21
-59.725765
31
0.0
0
LINE
8
0
6
CONTINUOUS
10
-294.368815
20
-59.725765
30
0.0
11
-292.216365
21
-59.763325
31
0.0
0
LINE
8
0
6
CONTINUOUS
10
-292.216365
20
-59.763325
30
0.0
11
-291.857445
21
-59.769585
31
0.0
0
LINE
8
0
6
CONTINUOUS
10
-291.857445
20
-59.769585
30
0.0
11
-288.789705
21
-59.823125
31
0.0
0
LINE
8
0
6
CONTINUOUS
10
-292.207635
20
-59.263395
30
0.0
11
-292.216365
21
-59.763325
31
0.0
0
LINE
8
0
6
CONTINUOUS
10
-292.216365
20
-59.763325
30
0.0
11
-288.995005
21
-59.819535
31
0.0
0
LINE
8
0
6
CONTINUOUS
10
-288.789705
20
-59.823125
30
0.0
11
-285.195185
21
-59.885845
31
0.0
0
LINE
8
0
6
CONTINUOUS
10
-288.986275
20
-59.319615
30
0.0
11
-288.995005
21
-59.819535
31
0.0
0
LINE
8
0
6
CONTINUOUS
10
-288.995005
20
-59.819535
30
0.0
11
-285.195185
21
-59.885845
31
0.0
0
LINE
8
0
6
CONTINUOUS
10
-59.727465
20
-63.820485
30
0.0
11
-36.028665
21
-64.234055
31
0.0
0
LINE
8
0
6
CONTINUOUS
10
-26.090495
20
-63.907405
30
0.0
11
-26.099235
21
-64.407325
31
0.0
0
LINE
8
0
6
CONTINUOUS
10
-285.195185
20
-59.885845
30
0.0
11
-261.496415
21
-60.299415
31
0.0
0
LINE
8
0
6
CONTINUOUS
10
-295.124615
20
-59.712575
30
0.0
11
-295.115885
21
-59.212645
31
0.0
0
LINE
8
0
6
CONTINUOUS
10
-59.727395
20
-63.820485
30
0.0
11
-36.028585
21
-64.234055
31
0.0
0
LINE
8
0
6
CONTINUOUS
10
-261.496345
20
-60.299415
30
0.0
11
-270.279073
21
-60.146147
31
0.0
0
LINE
8
0
6
CONTINUOUS
10
-275.184663
20
-60.060539
30
0.0
11
-285.195115
21
-59.885845
31
0.0
0
LINE
8
0
6
CONTINUOUS
10
-295.124545
20
-59.712575
30
0.0
11
-294.621575
21
-59.721345
31
0.0
0
LINE
8
0
6
CONTINUOUS
10
-59.657585
20
-59.821095
30
0.0
11
-60.251119
21
-59.810737
31
0.0
0
LINE
8
0
6
CONTINUOUS
10
-65.156709
20
-59.725130
30
0.0
11
-81.247019
21
-59.444341
31
0.0
0
LINE
8
0
6
CONTINUOUS
10
-86.152569
20
-59.358734
30
0.0
11
-93.285705
21
-59.234255
31
0.0
0
LINE
8
0
6
CONTINUOUS
10
-93.285705
20
-59.234255
30
0.0
11
-102.242809
21
-59.077943
31
0.0
0
LINE
8
0
6
CONTINUOUS
10
-107.148359
20
-58.992336
30
0.0
11
-123.238599
21
-58.711543
31
0.0
0
LINE
8
0
6
CONTINUOUS
10
-128.144149
20
-58.625935
30
0.0
11
-139.216499
21
-58.432710
31
0.0
0
LINE
8
0
6
CONTINUOUS
10
-144.122079
20
-58.347102
30
0.0
11
-144.234389
21
-58.345142
31
0.0
0
LINE
8
0
6
CONTINUOUS
10
-149.139972
20
-58.259534
30
0.0
11
-149.649487
21
-58.250642
31
0.0
0
LINE
8
0
6
CONTINUOUS
10
-185.432717
20
-57.626192
30
0.0
11
-186.226039
21
-57.612348
31
0.0
0
LINE
8
0
6
CONTINUOUS
10
-196.027219
20
-57.441309
30
0.0
11
-207.221869
21
-57.245953
31
0.0
0
LINE
8
0
6
CONTINUOUS
10
-212.127419
20
-57.160347
30
0.0
11
-227.798415
21
-56.886875
31
0.0
0
LINE
8
0
6
CONTINUOUS
10
-59.657655
20
-59.821095
30
0.0
11
-93.285775
21
-59.234255
31
0.0
0
LINE
8
0
6
CONTINUOUS
10
-93.285775
20
-59.234255
30
0.0
11
-160.542095
21
-58.060555
31
0.0
0
LINE
8
0
6
CONTINUOUS
10
-160.542095
20
-58.060555
30
0.0
11
-227.798495
21
-56.886875
31
0.0
0
LINE
8
0
6
CONTINUOUS
10
-227.798415
20
-56.886875
30
0.0
11
-228.217659
21
-56.879559
31
0.0
0
LINE
8
0
6
CONTINUOUS
10
-233.123209
20
-56.793951
30
0.0
11
-249.213449
21
-56.513158
31
0.0
0
LINE
8
0
6
CONTINUOUS
10
-254.119029
20
-56.427550
30
0.0
11
-261.426535
21
-56.300025
31
0.0
0
LINE
8
0
6
CONTINUOUS
10
-227.798495
20
-56.886875
30
0.0
11
-261.426615
21
-56.300025
31
0.0
0
LINE
8
0
6
CONTINUOUS
10
-35.958775
20
-60.234655
30
0.0
11
-32.364305
21
-60.297385
31
0.0
0
LINE
8
0
6
CONTINUOUS
10
-32.158915
20
-60.300965
30
0.0
11
-35.958775
21
-60.234655
31
0.0
0
LINE
8
0
6
CONTINUOUS
10
-32.167735
20
-60.800895
30
0.0
11
-32.158915
21
-60.300965
31
0.0
0
LINE
8
0
6
CONTINUOUS
10
-32.364305
20
-60.297385
30
0.0
11
-29.296595
21
-60.350925
31
0.0
0
LINE
8
0
6
CONTINUOUS
10
-28.937595
20
-60.357185
30
0.0
11
-32.158915
21
-60.300965
31
0.0
0
LINE
8
0
6
CONTINUOUS
10
-28.946335
20
-60.857105
30
0.0
11
-28.937595
21
-60.357185
31
0.0
0
LINE
8
0
6
CONTINUOUS
10
-29.296595
20
-60.350925
30
0.0
11
-27.247495
21
-60.386685
31
0.0
0
LINE
8
0
6
CONTINUOUS
10
-26.785235
20
-60.394745
30
0.0
11
-28.937595
21
-60.357185
31
0.0
0
LINE
8
0
6
CONTINUOUS
10
-26.785235
20
-60.394745
30
0.0
11
-27.247495
21
-60.386685
31
0.0
0
LINE
8
0
6
CONTINUOUS
10
-26.029345
20
-60.407935
30
0.0
11
-26.785235
21
-60.394745
31
0.0
0
LINE
8
0
6
CONTINUOUS
10
-26.532435
20
-60.399155
30
0.0
11
-27.247575
21
-60.386685
31
0.0
0
LINE
8
0
6
CONTINUOUS
10
-26.785305
20
-60.394745
30
0.0
11
-26.029425
21
-60.407935
31
0.0
0
LINE
8
0
6
CONTINUOUS
10
-27.247575
20
-60.386685
30
0.0
11
-29.296595
21
-60.350925
31
0.0
0
LINE
8
0
6
CONTINUOUS
10
-28.937745
20
-60.357185
30
0.0
11
-26.785305
21
-60.394745
31
0.0
0
LINE
8
0
6
CONTINUOUS
10
-28.946405
20
-60.857105
30
0.0
11
-28.937745
21
-60.357185
31
0.0
0
LINE
8
0
6
CONTINUOUS
10
-32.158995
20
-60.300965
30
0.0
11
-28.937745
21
-60.357185
31
0.0
0
LINE
8
0
6
CONTINUOUS
10
-32.167805
20
-60.800895
30
0.0
11
-32.158995
21
-60.300965
31
0.0
0
LINE
8
0
6
CONTINUOUS
10
-35.958855
20
-60.234655
30
0.0
11
-32.158995
21
-60.300965
31
0.0
0
LINE
8
0
6
CONTINUOUS
10
-288.719815
20
-55.823735
30
0.0
11
-285.125305
21
-55.886465
31
0.0
0
LINE
8
0
6
CONTINUOUS
10
-285.125305
20
-55.886465
30
0.0
11
-288.925125
21
-55.820145
31
0.0
0
LINE
8
0
6
CONTINUOUS
10
-288.925125
20
-55.820145
30
0.0
11
-288.933855
21
-56.320075
31
0.0
0
LINE
8
0
6
CONTINUOUS
10
-291.787555
20
-55.770195
30
0.0
11
-288.719815
21
-55.823735
31
0.0
0
LINE
8
0
6
CONTINUOUS
10
-288.925125
20
-55.820145
30
0.0
11
-292.146485
21
-55.763935
31
0.0
0
LINE
8
0
6
CONTINUOUS
10
-291.787555
20
-55.770195
30
0.0
11
-292.146485
21
-55.763935
31
0.0
0
LINE
8
0
6
CONTINUOUS
10
-292.146485
20
-55.763935
30
0.0
11
-294.298925
21
-55.726365
31
0.0
0
LINE
8
0
6
CONTINUOUS
10
-294.298925
20
-55.726365
30
0.0
11
-295.054735
21
-55.713185
31
0.0
0
LINE
8
0
6
CONTINUOUS
10
-295.054805
20
-55.713185
30
0.0
11
-294.299005
21
-55.726365
31
0.0
0
LINE
8
0
6
CONTINUOUS
10
-293.836695
20
-55.734435
30
0.0
11
-294.299005
21
-55.726365
31
0.0
0
LINE
8
0
6
CONTINUOUS
10
-291.787635
20
-55.770195
30
0.0
11
-293.836695
21
-55.734435
31
0.0
0
LINE
8
0
6
CONTINUOUS
10
-294.299005
20
-55.726365
30
0.0
11
-292.146555
21
-55.763935
31
0.0
0
LINE
8
0
6
CONTINUOUS
10
-292.146555
20
-55.763935
30
0.0
11
-292.155295
21
-56.263865
31
0.0
0
LINE
8
0
6
CONTINUOUS
10
-291.787635
20
-55.770195
30
0.0
11
-292.146555
21
-55.763935
31
0.0
0
LINE
8
0
6
CONTINUOUS
10
-292.146555
20
-55.763935
30
0.0
11
-288.925195
21
-55.820145
31
0.0
0
LINE
8
0
6
CONTINUOUS
10
-288.925195
20
-55.820145
30
0.0
11
-288.933935
21
-56.320075
31
0.0
0
LINE
8
0
6
CONTINUOUS
10
-288.925195
20
-55.820145
30
0.0
11
-285.125375
21
-55.886465
31
0.0
0
LINE
8
0
6
CONTINUOUS
10
-59.657655
20
-59.821095
30
0.0
11
-35.958855
21
-60.234655
31
0.0
0
LINE
8
0
6
CONTINUOUS
10
-26.029425
20
-60.407935
30
0.0
11
-26.038165
21
-60.907865
31
0.0
0
LINE
8
0
6
CONTINUOUS
10
-285.125375
20
-55.886465
30
0.0
11
-261.426615
21
-56.300025
31
0.0
0
LINE
8
0
6
CONTINUOUS
10
-295.063545
20
-56.213105
30
0.0
11
-295.054805
21
-55.713185
31
0.0
0
LINE
8
0
6
CONTINUOUS
10
-59.657585
20
-59.821095
30
0.0
11
-35.958775
21
-60.234655
31
0.0
0
LINE
8
0
6
CONTINUOUS
10
-261.426535
20
-56.300025
30
0.0
11
-270.209269
21
-56.146760
31
0.0
0
LINE
8
0
6
CONTINUOUS
10
-275.114859
20
-56.061154
30
0.0
11
-285.125305
21
-55.886465
31
0.0
0
LINE
8
0
6
CONTINUOUS
10
-195.230245
20
-9.447885
30
0.0
11
-195.385385
21
-18.336525
31
0.0
0
LINE
8
0
6
CONTINUOUS
10
-187.030175
20
-18.482335
30
0.0
11
-186.875025
21
-9.593695
31
0.0
0
LINE
8
0
6
CONTINUOUS
10
-138.331975
20
-19.332165
30
0.0
11
-138.176835
21
-10.443525
31
0.0
0
LINE
8
0
6
CONTINUOUS
10
-140.348275
20
-10.405635
30
0.0
11
-140.503415
21
-19.294265
31
0.0
0
LINE
8
0
6
CONTINUOUS
10
-201.700015
20
-20.226645
30
0.0
11
-201.746573
21
-22.893789
31
0.0
0
LINE
8
0
6
CONTINUOUS
10
-142.300931
20
-22.366647
30
0.0
11
-142.281675
21
-21.263545
31
0.0
0
LINE
8
0
6
CONTINUOUS
10
-132.120919
20
-23.377420
30
0.0
11
-132.087125
21
-21.441455
31
0.0
0
LINE
8
0
6
CONTINUOUS
10
-138.176835
20
-10.443525
30
0.0
11
-138.159395
21
-9.443675
31
0.0
0
LINE
8
0
6
CONTINUOUS
10
-138.159395
20
-9.443675
30
0.0
11
-140.330875
21
-9.405775
31
0.0
0
LINE
8
0
6
CONTINUOUS
10
-140.330875
20
-9.405775
30
0.0
11
-146.514695
21
-9.297865
31
0.0
0
LINE
8
0
6
CONTINUOUS
10
-146.514695
20
-9.297865
30
0.0
11
-155.769415
21
-9.136365
31
0.0
0
LINE
8
0
6
CONTINUOUS
10
-155.769415
20
-9.136365
30
0.0
11
-166.686125
21
-8.945855
31
0.0
0
LINE
8
0
6
CONTINUOUS
10
-166.686125
20
-8.945855
30
0.0
11
-177.602875
21
-8.755345
31
0.0
0
LINE
8
0
6
CONTINUOUS
10
-177.602875
20
-8.755345
30
0.0
11
-186.857595
21
-8.593845
31
0.0
0
LINE
8
0
6
CONTINUOUS
10
-186.857595
20
-8.593845
30
0.0
11
-186.136695
21
-8.606425
31
0.0
0
LINE
8
0
6
CONTINUOUS
10
-186.875025
20
-9.593695
30
0.0
11
-186.857595
21
-8.593845
31
0.0
0
LINE
8
0
6
CONTINUOUS
10
-186.857595
20
-8.593845
30
0.0
11
-193.041375
21
-8.485935
31
0.0
0
LINE
8
0
6
CONTINUOUS
10
-195.212815
20
-8.448035
30
0.0
11
-195.230245
21
-9.447885
31
0.0
0
LINE
8
0
6
CONTINUOUS
10
-193.041375
20
-8.485935
30
0.0
11
-195.212815
21
-8.448035
31
0.0
0
LINE
8
0
6
CONTINUOUS
10
-138.349405
20
-20.332015
30
0.0
11
-138.331975
21
-19.332165
31
0.0
0
LINE
8
0
6
CONTINUOUS
10
-140.520845
20
-20.294125
30
0.0
11
-140.503415
21
-19.294265
31
0.0
0
LINE
8
0
6
CONTINUOUS
10
-187.047605
20
-19.482185
30
0.0
11
-187.030175
21
-18.482335
31
0.0
0
LINE
8
0
6
CONTINUOUS
10
-195.385385
20
-18.336525
30
0.0
11
-195.402825
21
-19.336375
31
0.0
0
LINE
8
0
6
CONTINUOUS
10
-132.087125
20
-21.441455
30
0.0
11
-132.069695
21
-20.441605
31
0.0
0
LINE
8
0
6
CONTINUOUS
10
-132.069695
20
-20.441605
30
0.0
11
-134.719195
21
-20.395375
31
0.0
0
LINE
8
0
6
CONTINUOUS
10
-134.719195
20
-20.395375
30
0.0
11
-142.264245
21
-20.263695
31
0.0
0
LINE
8
0
6
CONTINUOUS
10
-142.281675
20
-21.263545
30
0.0
11
-142.264245
21
-20.263695
31
0.0
0
LINE
8
0
6
CONTINUOUS
10
-142.264245
20
-20.263695
30
0.0
11
-153.556275
21
-20.066645
31
0.0
0
LINE
8
0
6
CONTINUOUS
10
-153.556275
20
-20.066645
30
0.0
11
-166.876135
21
-19.834195
31
0.0
0
LINE
8
0
6
CONTINUOUS
10
-166.876135
20
-19.834195
30
0.0
11
-180.195985
21
-19.601755
31
0.0
0
LINE
8
0
6
CONTINUOUS
10
-190.767165
20
-19.417275
30
0.0
11
-191.487985
21
-19.404695
31
0.0
0
LINE
8
0
6
CONTINUOUS
10
-180.195985
20
-19.601755
30
0.0
11
-191.487985
21
-19.404695
31
0.0
0
LINE
8
0
6
CONTINUOUS
10
-191.487985
20
-19.404695
30
0.0
11
-199.033075
21
-19.273025
31
0.0
0
LINE
8
0
6
CONTINUOUS
10
-201.682575
20
-19.226785
30
0.0
11
-201.700015
21
-20.226645
31
0.0
0
LINE
8
0
6
CONTINUOUS
10
-199.033075
20
-19.273025
30
0.0
11
-201.682575
21
-19.226785
31
0.0
0
LINE
8
0
6
CONTINUOUS
10
-199.214545
20
12.063365
30
0.0
11
-199.540165
21
-6.595785
31
0.0
0
LINE
8
0
6
CONTINUOUS
10
-197.965765
20
-6.623265
30
0.0
11
-197.639535
21
12.071135
31
0.0
0
LINE
8
0
6
CONTINUOUS
10
-195.662875
20
-8.163685
30
0.0
11
-196.910655
21
-8.141905
31
0.0
0
LINE
8
0
6
CONTINUOUS
10
-199.188375
20
13.563205
30
0.0
11
-199.214545
21
12.063365
31
0.0
0
LINE
8
0
6
CONTINUOUS
10
-198.779025
20
13.565225
30
0.0
11
-199.188375
21
13.563205
31
0.0
0
LINE
8
0
6
CONTINUOUS
10
-199.540165
20
-6.595785
30
0.0
11
-199.566335
21
-8.095565
31
0.0
0
LINE
8
0
6
CONTINUOUS
10
-199.566335
20
-8.095565
30
0.0
11
-199.157135
21
-8.102705
31
0.0
0
LINE
8
0
6
CONTINUOUS
10
-197.613365
20
13.570985
30
0.0
11
-198.779025
21
13.565225
31
0.0
0
LINE
8
0
6
CONTINUOUS
10
-199.157135
20
-8.102705
30
0.0
11
-197.991935
21
-8.123045
31
0.0
0
LINE
8
0
6
CONTINUOUS
10
-197.613365
20
13.570985
30
0.0
11
-197.639535
21
12.071135
31
0.0
0
LINE
8
0
6
CONTINUOUS
10
-195.868785
20
13.579585
30
0.0
11
-197.613365
21
13.570985
31
0.0
0
LINE
8
0
6
CONTINUOUS
10
-197.965765
20
-6.623265
30
0.0
11
-197.991935
21
-8.123045
31
0.0
0
LINE
8
0
6
CONTINUOUS
10
-197.991935
20
-8.123045
30
0.0
11
-196.248045
21
-8.153475
31
0.0
0
LINE
8
0
6
CONTINUOUS
10
-193.810945
20
13.589735
30
0.0
11
-195.868785
21
13.579585
31
0.0
0
LINE
8
0
6
CONTINUOUS
10
-196.248045
20
-8.153475
30
0.0
11
-194.191005
21
-8.189375
31
0.0
0
LINE
8
0
6
CONTINUOUS
10
-193.810945
20
13.589735
30
0.0
11
283.500216
21
15.942562
31
0.0
0
LINE
8
0
6
CONTINUOUS
10
-194.191005
20
-8.189375
30
0.0
11
283.500346
21
-16.516723
31
0.0
0
LINE
8
0
6
CONTINUOUS
10
295.500575
20
-77.999975
30
0.0
11
295.500545
21
-76.499375
31
0.0
0
LINE
8
0
6
CONTINUOUS
10
294.339125
20
-77.999975
30
0.0
11
295.500575
21
-77.999975
31
0.0
0
LINE
8
0
6
CONTINUOUS
10
295.499925
20
78.000025
30
0.0
11
294.338515
21
78.000025
31
0.0
0
LINE
8
0
6
CONTINUOUS
10
295.499945
20
76.499435
30
0.0
11
295.499925
21
78.000025
31
0.0
0
LINE
8
0
6
CONTINUOUS
10
283.499955
20
77.999975
30
0.0
11
283.499975
21
76.499375
31
0.0
0
LINE
8
0
6
CONTINUOUS
10
284.661365
20
77.999985
30
0.0
11
283.499955
21
77.999975
31
0.0
0
LINE
8
0
6
CONTINUOUS
10
283.500605
20
-78.000025
30
0.0
11
284.662015
21
-78.000025
31
0.0
0
LINE
8
0
6
CONTINUOUS
10
283.500585
20
-76.499435
30
0.0
11
283.500605
21
-78.000025
31
0.0
0
LINE
8
0
6
CONTINUOUS
10
295.500545
20
-76.499375
30
0.0
11
295.499945
21
76.499435
31
0.0
0
LINE
8
0
6
CONTINUOUS
10
294.338515
20
78.000025
30
0.0
11
284.661365
21
77.999985
31
0.0
0
LINE
8
0
6
CONTINUOUS
10
294.339125
20
-77.999975
30
0.0
11
284.662015
21
-78.000025
31
0.0
0
LINE
8
0
6
CONTINUOUS
10
283.499975
20
76.499375
30
0.0
11
283.500585
21
-76.499435
31
0.0
0
LINE
8
0
6
CONTINUOUS
10
-261.095575
20
-29.713525
30
0.0
11
-284.268255
21
-33.805625
31
0.0
0
LINE
8
0
6
CONTINUOUS
10
-261.070965
20
-29.555385
30
0.0
11
-284.336195
21
-33.843685
31
0.0
0
LINE
8
0
6
CONTINUOUS
10
-261.094275
20
-29.563525
30
0.0
11
-284.315555
21
-33.839415
31
0.0
0
LINE
8
0
6
CONTINUOUS
10
-25.533095
20
-58.716335
30
0.0
11
-25.239975
21
-41.918895
31
0.0
0
LINE
8
0
6
CONTINUOUS
10
-35.654175
20
-38.260005
30
0.0
11
-59.046815
21
-33.072085
31
0.0
0
LINE
8
0
6
CONTINUOUS
10
-295.198775
20
-37.207855
30
0.0
11
-295.491895
21
-54.005285
31
0.0
0
LINE
8
0
6
CONTINUOUS
10
-31.390825
20
-41.811555
30
0.0
11
-31.683955
21
-58.608995
31
0.0
0
LINE
8
0
6
CONTINUOUS
10
-289.341035
20
-54.112625
30
0.0
11
-289.047915
21
-37.315195
31
0.0
0
LINE
8
0
6
CONTINUOUS
10
-26.196545
20
-40.672945
30
0.0
11
-35.654175
21
-38.260005
31
0.0
0
LINE
8
0
6
CONTINUOUS
10
-31.692645
20
-59.108905
30
0.0
11
-35.505625
21
-59.042375
31
0.0
0
LINE
8
0
6
CONTINUOUS
10
-31.683955
20
-58.608995
30
0.0
11
-31.692645
21
-59.108905
31
0.0
0
LINE
8
0
6
CONTINUOUS
10
-28.460115
20
-59.165325
30
0.0
11
-31.692645
21
-59.108905
31
0.0
0
LINE
8
0
6
CONTINUOUS
10
-26.300195
20
-59.203015
30
0.0
11
-28.460115
21
-59.165325
31
0.0
0
LINE
8
0
6
CONTINUOUS
10
-25.541715
20
-59.216255
30
0.0
11
-25.533095
21
-58.716335
31
0.0
0
LINE
8
0
6
CONTINUOUS
10
-25.541715
20
-59.216255
30
0.0
11
-26.300195
21
-59.203015
31
0.0
0
LINE
8
0
6
CONTINUOUS
10
-59.286645
20
-58.627375
30
0.0
11
-35.505625
21
-59.042375
31
0.0
0
LINE
8
0
6
CONTINUOUS
10
-289.349735
20
-54.612545
30
0.0
11
-285.536715
21
-54.679085
31
0.0
0
LINE
8
0
6
CONTINUOUS
10
-289.349735
20
-54.612545
30
0.0
11
-289.341035
21
-54.112625
31
0.0
0
LINE
8
0
6
CONTINUOUS
10
-292.582275
20
-54.556135
30
0.0
11
-289.349735
21
-54.612545
31
0.0
0
LINE
8
0
6
CONTINUOUS
10
-294.742155
20
-54.518445
30
0.0
11
-292.582275
21
-54.556135
31
0.0
0
LINE
8
0
6
CONTINUOUS
10
-295.491895
20
-54.005285
30
0.0
11
-295.500595
21
-54.505205
31
0.0
0
LINE
8
0
6
CONTINUOUS
10
-295.500595
20
-54.505205
30
0.0
11
-294.742155
21
-54.518445
31
0.0
0
LINE
8
0
6
CONTINUOUS
10
-60.230258
20
-58.610918
30
0.0
11
-59.286645
21
-58.627385
31
0.0
0
LINE
8
0
6
CONTINUOUS
10
-93.031495
20
-58.038485
30
0.0
11
-59.286645
21
-58.627375
31
0.0
0
LINE
8
0
6
CONTINUOUS
10
-285.536715
20
-54.679085
30
0.0
11
-261.755745
21
-55.094085
31
0.0
0
LINE
8
0
6
CONTINUOUS
10
-160.521155
20
-56.860725
30
0.0
11
-93.031495
21
-58.038485
31
0.0
0
LINE
8
0
6
CONTINUOUS
10
-228.010935
20
-55.682965
30
0.0
11
-160.521155
21
-56.860725
31
0.0
0
LINE
8
0
6
CONTINUOUS
10
-228.196788
20
-55.679732
30
0.0
11
-228.010935
21
-55.682975
31
0.0
0
LINE
8
0
6
CONTINUOUS
10
-261.755745
20
-55.094085
30
0.0
11
-228.010935
21
-55.682965
31
0.0
0
LINE
8
0
6
CONTINUOUS
10
-294.200015
20
-35.991985
30
0.0
11
-295.181265
21
-36.207995
31
0.0
0
LINE
8
0
6
CONTINUOUS
10
-294.199095
20
-35.996225
30
0.0
11
-295.181265
21
-36.207995
31
0.0
0
LINE
8
0
6
CONTINUOUS
10
-25.222385
20
-40.919035
30
0.0
11
-26.196545
21
-40.672945
31
0.0
0
LINE
8
0
6
CONTINUOUS
10
-58.967355
20
-40.330175
30
0.0
11
-92.712205
21
-39.741295
31
0.0
0
LINE
8
0
6
CONTINUOUS
10
-92.712205
20
-39.741295
30
0.0
11
-160.201865
21
-38.563525
31
0.0
0
LINE
8
0
6
CONTINUOUS
10
-160.201865
20
-38.563525
30
0.0
11
-227.691645
21
-37.385765
31
0.0
0
LINE
8
0
6
CONTINUOUS
10
-227.691645
20
-37.385765
30
0.0
11
-261.436455
21
-36.796895
31
0.0
0
LINE
8
0
6
CONTINUOUS
10
-25.239975
20
-41.918895
30
0.0
11
-25.222505
21
-40.919055
31
0.0
0
LINE
8
0
6
CONTINUOUS
10
-25.222505
20
-40.919055
30
0.0
11
-25.980905
21
-40.905805
31
0.0
0
LINE
8
0
6
CONTINUOUS
10
-25.980905
20
-40.905805
30
0.0
11
-28.140825
21
-40.868115
31
0.0
0
LINE
8
0
6
CONTINUOUS
10
-28.158295
20
-41.867975
30
0.0
11
-28.140825
21
-40.868115
31
0.0
0
LINE
8
0
6
CONTINUOUS
10
-28.140825
20
-40.868115
30
0.0
11
-31.373355
21
-40.811705
31
0.0
0
LINE
8
0
6
CONTINUOUS
10
-31.390825
20
-41.811555
30
0.0
11
-31.373355
21
-40.811705
31
0.0
0
LINE
8
0
6
CONTINUOUS
10
-31.373355
20
-40.811705
30
0.0
11
-35.186335
21
-40.745155
31
0.0
0
LINE
8
0
6
CONTINUOUS
10
-294.177695
20
-36.165315
30
0.0
11
-295.181305
21
-36.207995
31
0.0
0
LINE
8
0
6
CONTINUOUS
10
-295.181305
20
-36.207995
30
0.0
11
-295.198775
21
-37.207855
31
0.0
0
LINE
8
0
6
CONTINUOUS
10
-294.422865
20
-36.221235
30
0.0
11
-295.181305
21
-36.207995
31
0.0
0
LINE
8
0
6
CONTINUOUS
10
-291.556765
20
-36.211175
30
0.0
11
-294.422865
21
-36.221235
31
0.0
0
LINE
8
0
6
CONTINUOUS
10
-292.262985
20
-36.258915
30
0.0
11
-294.422865
21
-36.221235
31
0.0
0
LINE
8
0
6
CONTINUOUS
10
-289.030445
20
-36.315335
30
0.0
11
-292.262985
21
-36.258915
31
0.0
0
LINE
8
0
6
CONTINUOUS
10
-285.224375
20
-36.322815
30
0.0
11
-289.030445
21
-36.315335
31
0.0
0
LINE
8
0
6
CONTINUOUS
10
-289.030445
20
-36.315335
30
0.0
11
-289.047915
21
-37.315195
31
0.0
0
LINE
8
0
6
CONTINUOUS
10
-285.217425
20
-36.381885
30
0.0
11
-289.030445
21
-36.315335
31
0.0
0
LINE
8
0
6
CONTINUOUS
10
-35.186335
20
-40.745155
30
0.0
11
-58.967355
21
-40.330175
31
0.0
0
LINE
8
0
6
CONTINUOUS
10
-25.222505
20
-40.919055
30
0.0
11
-26.199905
21
-40.686495
31
0.0
0
LINE
8
0
6
CONTINUOUS
10
-285.217425
20
-36.381885
30
0.0
11
-261.436455
21
-36.796895
31
0.0
0
LINE
8
0
6
CONTINUOUS
10
-284.268255
20
-33.805625
30
0.0
11
-294.200015
21
-35.991985
31
0.0
0
LINE
8
0
6
CONTINUOUS
10
-26.198455
20
-40.680575
30
0.0
11
-25.222385
21
-40.919045
31
0.0
0
LINE
8
0
6
CONTINUOUS
10
-295.181265
20
-36.207995
30
0.0
11
-294.198635
21
-35.998655
31
0.0
0
LINE
8
0
6
CONTINUOUS
10
-26.195475
20
-40.668865
30
0.0
11
-35.693235
21
-38.226975
31
0.0
0
LINE
8
0
6
CONTINUOUS
10
-59.046815
20
-33.072085
30
0.0
11
-93.116255
21
-27.250195
31
0.0
0
LINE
8
0
6
CONTINUOUS
10
-93.116255
20
-27.250195
30
0.0
11
-132.120919
21
-23.377420
31
0.0
0
LINE
8
0
6
CONTINUOUS
10
-201.746573
20
-22.893789
30
0.0
11
-226.880365
21
-24.258885
31
0.0
0
LINE
8
0
6
CONTINUOUS
10
-226.880365
20
-24.258885
30
0.0
11
-261.070965
21
-29.555385
31
0.0
0
LINE
8
0
6
CONTINUOUS
10
-151.116055
20
-64.225955
30
0.0
11
-149.754175
21
-64.249715
31
0.0
0
LINE
8
0
6
CONTINUOUS
10
-149.754175
20
-64.249715
30
0.0
11
-149.719279
21
-62.250032
31
0.0
0
LINE
8
0
6
CONTINUOUS
10
-149.719279
20
-62.250032
30
0.0
11
-149.649487
21
-58.250644
31
0.0
0
LINE
8
0
6
CONTINUOUS
10
-149.649487
20
-58.250643
30
0.0
11
-149.628549
21
-57.050822
31
0.0
0
LINE
8
0
6
CONTINUOUS
10
-154.994495
20
-64.158275
30
0.0
11
-151.116055
21
-64.225955
31
0.0
0
LINE
8
0
6
CONTINUOUS
10
-151.116055
20
-64.225955
30
0.0
11
-151.081161
21
-62.226265
31
0.0
0
LINE
8
0
6
CONTINUOUS
10
-151.081161
20
-62.226265
30
0.0
11
-151.011374
21
-58.226877
31
0.0
0
LINE
8
0
6
CONTINUOUS
10
-151.011374
20
-58.226876
30
0.0
11
-150.990438
21
-57.027055
31
0.0
0
LINE
8
0
6
CONTINUOUS
10
-160.798945
20
-64.056975
30
0.0
11
-154.994495
21
-64.158275
31
0.0
0
LINE
8
0
6
CONTINUOUS
10
-165.334955
20
-63.977820
30
0.0
11
-160.798945
21
-64.056975
31
0.0
0
LINE
8
0
6
CONTINUOUS
10
-160.798945
20
-64.056975
30
0.0
11
-160.764049
21
-62.057289
31
0.0
0
LINE
8
0
6
CONTINUOUS
10
-160.764049
20
-62.057289
30
0.0
11
-160.694257
21
-58.057900
31
0.0
0
LINE
8
0
6
CONTINUOUS
10
-160.694257
20
-58.057899
30
0.0
11
-160.673319
21
-56.858080
31
0.0
0
LINE
8
0
6
CONTINUOUS
10
-174.492635
20
-63.818015
30
0.0
11
-170.240545
21
-63.892216
31
0.0
0
LINE
8
0
6
CONTINUOUS
10
-180.297115
20
-63.716715
30
0.0
11
-174.492635
21
-63.818015
31
0.0
0
LINE
8
0
6
CONTINUOUS
10
-185.537405
20
-63.625265
30
0.0
11
-184.175485
21
-63.649035
31
0.0
0
LINE
8
0
6
CONTINUOUS
10
-185.411779
20
-56.426370
30
0.0
11
-185.537405
21
-63.625265
31
0.0
0
LINE
8
0
6
CONTINUOUS
10
-184.175485
20
-63.649035
30
0.0
11
-180.297115
21
-63.716715
31
0.0
0
LINE
8
0
6
CONTINUOUS
10
-180.297115
20
-63.716715
30
0.0
11
-180.262221
21
-61.717030
31
0.0
0
LINE
8
0
6
CONTINUOUS
10
-180.262221
20
-61.717030
30
0.0
11
-180.192434
21
-57.717640
31
0.0
0
LINE
8
0
6
CONTINUOUS
10
-180.192434
20
-57.717640
30
0.0
11
-180.171498
21
-56.517818
31
0.0
0
LINE
8
0
6
CONTINUOUS
10
-160.798945
20
-64.056975
30
0.0
11
-165.334885
21
-63.977821
31
0.0
0
LINE
8
0
6
CONTINUOUS
10
-154.994495
20
-64.158275
30
0.0
11
-160.798945
21
-64.056975
31
0.0
0
LINE
8
0
6
CONTINUOUS
10
-275.093998
20
-54.861332
30
0.0
11
-275.114939
21
-56.061154
31
0.0
0
LINE
8
0
6
CONTINUOUS
10
-275.114939
20
-56.061154
30
0.0
11
-275.184743
21
-60.060538
31
0.0
0
LINE
8
0
6
CONTINUOUS
10
-275.184743
20
-60.060538
30
0.0
11
-275.219645
21
-62.060235
31
0.0
0
LINE
8
0
6
CONTINUOUS
10
-275.219645
20
-62.060235
30
0.0
11
-273.993255
21
-62.081635
31
0.0
0
LINE
8
0
6
CONTINUOUS
10
-270.314055
20
-62.145845
30
0.0
11
-270.279153
21
-60.146146
31
0.0
0
LINE
8
0
6
CONTINUOUS
10
-270.279153
20
-60.146146
30
0.0
11
-270.209349
21
-56.146760
31
0.0
0
LINE
8
0
6
CONTINUOUS
10
-270.209349
20
-56.146760
30
0.0
11
-270.188408
21
-54.946938
31
0.0
0
LINE
8
0
6
CONTINUOUS
10
-271.540445
20
-62.124445
30
0.0
11
-270.314055
21
-62.145845
31
0.0
0
LINE
8
0
6
CONTINUOUS
10
-273.867608
20
-54.882733
30
0.0
11
-273.888549
21
-56.082556
31
0.0
0
LINE
8
0
6
CONTINUOUS
10
-273.888549
20
-56.082556
30
0.0
11
-273.958353
21
-60.081940
31
0.0
0
LINE
8
0
6
CONTINUOUS
10
-273.958353
20
-60.081940
30
0.0
11
-273.993255
21
-62.081635
31
0.0
0
LINE
8
0
6
CONTINUOUS
10
-271.540445
20
-62.124445
30
0.0
11
-271.505543
21
-60.124745
31
0.0
0
LINE
8
0
6
CONTINUOUS
10
-271.505543
20
-60.124745
30
0.0
11
-271.435739
21
-56.125359
31
0.0
0
LINE
8
0
6
CONTINUOUS
10
-271.435739
20
-56.125359
30
0.0
11
-271.414798
21
-54.925537
31
0.0
0
LINE
8
0
6
CONTINUOUS
10
-273.993255
20
-62.081635
30
0.0
11
-271.540445
21
-62.124445
31
0.0
0
LINE
8
0
6
CONTINUOUS
10
-254.098168
20
-55.227727
30
0.0
11
-254.119109
21
-56.427550
31
0.0
0
LINE
8
0
6
CONTINUOUS
10
-254.119109
20
-56.427550
30
0.0
11
-254.188913
21
-60.426939
31
0.0
0
LINE
8
0
6
CONTINUOUS
10
-254.188913
20
-60.426939
30
0.0
11
-254.223815
21
-62.426635
31
0.0
0
LINE
8
0
6
CONTINUOUS
10
-254.223815
20
-62.426635
30
0.0
11
-252.997385
21
-62.448035
31
0.0
0
LINE
8
0
6
CONTINUOUS
10
-249.318225
20
-62.512235
30
0.0
11
-249.283323
21
-60.512548
31
0.0
0
LINE
8
0
6
CONTINUOUS
10
-249.283323
20
-60.512548
30
0.0
11
-249.213519
21
-56.513158
31
0.0
0
LINE
8
0
6
CONTINUOUS
10
-249.213519
20
-56.513158
30
0.0
11
-249.192578
21
-55.313335
31
0.0
0
LINE
8
0
6
CONTINUOUS
10
-250.544615
20
-62.490835
30
0.0
11
-249.318225
21
-62.512235
31
0.0
0
LINE
8
0
6
CONTINUOUS
10
-252.871738
20
-55.249130
30
0.0
11
-252.892679
21
-56.448952
31
0.0
0
LINE
8
0
6
CONTINUOUS
10
-252.892679
20
-56.448952
30
0.0
11
-252.962483
21
-60.448342
31
0.0
0
LINE
8
0
6
CONTINUOUS
10
-252.962483
20
-60.448342
30
0.0
11
-252.997385
21
-62.448035
31
0.0
0
LINE
8
0
6
CONTINUOUS
10
-250.544615
20
-62.490835
30
0.0
11
-250.509713
21
-60.491146
31
0.0
0
LINE
8
0
6
CONTINUOUS
10
-250.509713
20
-60.491146
30
0.0
11
-250.439909
21
-56.491756
31
0.0
0
LINE
8
0
6
CONTINUOUS
10
-250.439909
20
-56.491756
30
0.0
11
-250.418968
21
-55.291933
31
0.0
0
LINE
8
0
6
CONTINUOUS
10
-252.997385
20
-62.448035
30
0.0
11
-250.544615
21
-62.490835
31
0.0
0
LINE
8
0
6
CONTINUOUS
10
-233.102338
20
-55.594125
30
0.0
11
-233.123279
21
-56.793951
31
0.0
0
LINE
8
0
6
CONTINUOUS
10
-233.123279
20
-56.793951
30
0.0
11
-233.193083
21
-60.793341
31
0.0
0
LINE
8
0
6
CONTINUOUS
10
-233.193083
20
-60.793341
30
0.0
11
-233.227985
21
-62.793025
31
0.0
0
LINE
8
0
6
CONTINUOUS
10
-233.227985
20
-62.793025
30
0.0
11
-232.001605
21
-62.814435
31
0.0
0
LINE
8
0
6
CONTINUOUS
10
-228.322435
20
-62.878635
30
0.0
11
-228.287533
21
-60.878949
31
0.0
0
LINE
8
0
6
CONTINUOUS
10
-228.287533
20
-60.878949
30
0.0
11
-228.217729
21
-56.879559
31
0.0
0
LINE
8
0
6
CONTINUOUS
10
-228.217729
20
-56.879559
30
0.0
11
-228.196788
21
-55.679732
31
0.0
0
LINE
8
0
6
CONTINUOUS
10
-229.548825
20
-62.857235
30
0.0
11
-228.322435
21
-62.878635
31
0.0
0
LINE
8
0
6
CONTINUOUS
10
-231.875949
20
-55.615527
30
0.0
11
-231.896892
21
-56.815353
31
0.0
0
LINE
8
0
6
CONTINUOUS
10
-231.896892
20
-56.815353
30
0.0
11
-231.966701
21
-60.814743
31
0.0
0
LINE
8
0
6
CONTINUOUS
10
-231.966701
20
-60.814743
30
0.0
11
-232.001605
21
-62.814435
31
0.0
0
LINE
8
0
6
CONTINUOUS
10
-229.548825
20
-62.857235
30
0.0
11
-229.513923
21
-60.857547
31
0.0
0
LINE
8
0
6
CONTINUOUS
10
-229.513923
20
-60.857547
30
0.0
11
-229.444119
21
-56.858157
31
0.0
0
LINE
8
0
6
CONTINUOUS
10
-229.444119
20
-56.858157
30
0.0
11
-229.423178
21
-55.658330
31
0.0
0
LINE
8
0
6
CONTINUOUS
10
-232.001605
20
-62.814435
30
0.0
11
-229.548825
21
-62.857235
31
0.0
0
LINE
8
0
6
CONTINUOUS
10
-212.106548
20
-55.960521
30
0.0
11
-212.127489
21
-57.160347
31
0.0
0
LINE
8
0
6
CONTINUOUS
10
-212.127489
20
-57.160347
30
0.0
11
-212.197293
21
-61.159737
31
0.0
0
LINE
8
0
6
CONTINUOUS
10
-212.197293
20
-61.159737
30
0.0
11
-212.232195
21
-63.159425
31
0.0
0
LINE
8
0
6
CONTINUOUS
10
-212.232195
20
-63.159425
30
0.0
11
-211.005815
21
-63.180835
31
0.0
0
LINE
8
0
6
CONTINUOUS
10
-207.326655
20
-63.245035
30
0.0
11
-207.291751
21
-61.245343
31
0.0
0
LINE
8
0
6
CONTINUOUS
10
-207.291751
20
-61.245343
30
0.0
11
-207.221942
21
-57.245953
31
0.0
0
LINE
8
0
6
CONTINUOUS
10
-207.221942
20
-57.245953
30
0.0
11
-207.200999
21
-56.046128
31
0.0
0
LINE
8
0
6
CONTINUOUS
10
-208.553035
20
-63.223635
30
0.0
11
-207.326655
21
-63.245035
31
0.0
0
LINE
8
0
6
CONTINUOUS
10
-210.880168
20
-55.981923
30
0.0
11
-210.901109
21
-57.181748
31
0.0
0
LINE
8
0
6
CONTINUOUS
10
-210.901109
20
-57.181748
30
0.0
11
-210.970913
21
-61.181138
31
0.0
0
LINE
8
0
6
CONTINUOUS
10
-210.970913
20
-61.181138
30
0.0
11
-211.005815
21
-63.180835
31
0.0
0
LINE
8
0
6
CONTINUOUS
10
-208.553035
20
-63.223635
30
0.0
11
-208.518133
21
-61.223941
31
0.0
0
LINE
8
0
6
CONTINUOUS
10
-208.518133
20
-61.223941
30
0.0
11
-208.448329
21
-57.224551
31
0.0
0
LINE
8
0
6
CONTINUOUS
10
-208.448329
20
-57.224551
30
0.0
11
-208.427388
21
-56.024726
31
0.0
0
LINE
8
0
6
CONTINUOUS
10
-211.005815
20
-63.180835
30
0.0
11
-208.553035
21
-63.223635
31
0.0
0
LINE
8
0
6
CONTINUOUS
10
-196.006278
20
-56.241486
30
0.0
11
-196.027219
21
-57.441309
31
0.0
0
LINE
8
0
6
CONTINUOUS
10
-196.027219
20
-57.441309
30
0.0
11
-196.097023
21
-61.440700
31
0.0
0
LINE
8
0
6
CONTINUOUS
10
-196.097023
20
-61.440700
30
0.0
11
-196.131925
21
-63.440395
31
0.0
0
LINE
8
0
6
CONTINUOUS
10
-196.131925
20
-63.440395
30
0.0
11
-194.905535
21
-63.461795
31
0.0
0
LINE
8
0
6
CONTINUOUS
10
-192.452765
20
-63.504595
30
0.0
11
-191.226375
21
-63.525995
31
0.0
0
LINE
8
0
6
CONTINUOUS
10
-194.779888
20
-56.262888
30
0.0
11
-194.800829
21
-57.462711
31
0.0
0
LINE
8
0
6
CONTINUOUS
10
-194.800829
20
-57.462711
30
0.0
11
-194.870633
21
-61.462101
31
0.0
0
LINE
8
0
6
CONTINUOUS
10
-194.870633
20
-61.462101
30
0.0
11
-194.905535
21
-63.461795
31
0.0
0
LINE
8
0
6
CONTINUOUS
10
-192.452765
20
-63.504595
30
0.0
11
-192.417863
21
-61.504904
31
0.0
0
LINE
8
0
6
CONTINUOUS
10
-192.417863
20
-61.504904
30
0.0
11
-192.348059
21
-57.505515
31
0.0
0
LINE
8
0
6
CONTINUOUS
10
-192.348059
20
-57.505514
30
0.0
11
-192.327118
21
-56.305691
31
0.0
0
LINE
8
0
6
CONTINUOUS
10
-194.905535
20
-63.461795
30
0.0
11
-192.452765
21
-63.504595
31
0.0
0
LINE
8
0
6
CONTINUOUS
10
-191.110728
20
-56.326918
30
0.0
11
-191.131669
21
-57.526742
31
0.0
0
LINE
8
0
6
CONTINUOUS
10
-191.131669
20
-57.526742
30
0.0
11
-191.201473
21
-61.526132
31
0.0
0
LINE
8
0
6
CONTINUOUS
10
-191.201473
20
-61.526132
30
0.0
11
-191.236375
21
-63.525825
31
0.0
0
LINE
8
0
6
CONTINUOUS
10
-191.236375
20
-63.525825
30
0.0
11
-190.009985
21
-63.547225
31
0.0
0
LINE
8
0
6
CONTINUOUS
10
-186.330825
20
-63.611435
30
0.0
11
-186.295923
21
-61.611738
31
0.0
0
LINE
8
0
6
CONTINUOUS
10
-186.295923
20
-61.611738
30
0.0
11
-186.226119
21
-57.612347
31
0.0
0
LINE
8
0
6
CONTINUOUS
10
-186.226119
20
-57.612347
30
0.0
11
-186.205178
21
-56.412525
31
0.0
0
LINE
8
0
6
CONTINUOUS
10
-187.557215
20
-63.590025
30
0.0
11
-186.330825
21
-63.611435
31
0.0
0
LINE
8
0
6
CONTINUOUS
10
-189.884338
20
-56.348320
30
0.0
11
-189.905279
21
-57.548143
31
0.0
0
LINE
8
0
6
CONTINUOUS
10
-189.905279
20
-57.548143
30
0.0
11
-189.975083
21
-61.547533
31
0.0
0
LINE
8
0
6
CONTINUOUS
10
-189.975083
20
-61.547533
30
0.0
11
-190.009985
21
-63.547225
31
0.0
0
LINE
8
0
6
CONTINUOUS
10
-187.557215
20
-63.590025
30
0.0
11
-187.522313
21
-61.590336
31
0.0
0
LINE
8
0
6
CONTINUOUS
10
-187.522313
20
-61.590336
30
0.0
11
-187.452509
21
-57.590946
31
0.0
0
LINE
8
0
6
CONTINUOUS
10
-187.452509
20
-57.590946
30
0.0
11
-187.431568
21
-56.391123
31
0.0
0
LINE
8
0
6
CONTINUOUS
10
-190.009985
20
-63.547225
30
0.0
11
-187.557215
21
-63.590025
31
0.0
0
LINE
8
0
6
CONTINUOUS
10
-187.557215
20
-63.590025
30
0.0
11
-190.009985
21
-63.547225
31
0.0
0
LINE
8
0
6
CONTINUOUS
10
-186.330825
20
-63.611435
30
0.0
11
-187.557215
21
-63.590025
31
0.0
0
LINE
8
0
6
CONTINUOUS
10
-190.009985
20
-63.547225
30
0.0
11
-191.236375
21
-63.525825
31
0.0
0
LINE
8
0
6
CONTINUOUS
10
-170.114898
20
-56.693315
30
0.0
11
-170.135839
21
-57.893136
31
0.0
0
LINE
8
0
6
CONTINUOUS
10
-170.135839
20
-57.893136
30
0.0
11
-170.205643
21
-61.892526
31
0.0
0
LINE
8
0
6
CONTINUOUS
10
-170.205643
20
-61.892526
30
0.0
11
-170.240545
21
-63.892213
31
0.0
0
LINE
8
0
6
CONTINUOUS
10
-170.240545
20
-63.892225
30
0.0
11
-169.014155
21
-63.913625
31
0.0
0
LINE
8
0
6
CONTINUOUS
10
-165.334955
20
-63.977835
30
0.0
11
-165.300053
21
-61.978133
31
0.0
0
LINE
8
0
6
CONTINUOUS
10
-165.300053
20
-61.978133
30
0.0
11
-165.230249
21
-57.978743
31
0.0
0
LINE
8
0
6
CONTINUOUS
10
-165.230249
20
-57.978743
30
0.0
11
-165.209308
21
-56.778922
31
0.0
0
LINE
8
0
6
CONTINUOUS
10
-166.561345
20
-63.956425
30
0.0
11
-165.334955
21
-63.977835
31
0.0
0
LINE
8
0
6
CONTINUOUS
10
-168.888508
20
-56.714717
30
0.0
11
-168.909449
21
-57.914538
31
0.0
0
LINE
8
0
6
CONTINUOUS
10
-168.909449
20
-57.914538
30
0.0
11
-168.979253
21
-61.913928
31
0.0
0
LINE
8
0
6
CONTINUOUS
10
-168.979253
20
-61.913928
30
0.0
11
-169.014155
21
-63.913615
31
0.0
0
LINE
8
0
6
CONTINUOUS
10
-166.561345
20
-63.956425
30
0.0
11
-166.526443
21
-61.956731
31
0.0
0
LINE
8
0
6
CONTINUOUS
10
-166.526443
20
-61.956731
30
0.0
11
-166.456639
21
-57.957341
31
0.0
0
LINE
8
0
6
CONTINUOUS
10
-166.456639
20
-57.957341
30
0.0
11
-166.435698
21
-56.757521
31
0.0
0
LINE
8
0
6
CONTINUOUS
10
-169.014155
20
-63.913625
30
0.0
11
-166.561345
21
-63.956425
31
0.0
0
LINE
8
0
6
CONTINUOUS
10
-166.561345
20
-63.956425
30
0.0
11
-169.014155
21
-63.913625
31
0.0
0
LINE
8
0
6
CONTINUOUS
10
-165.334955
20
-63.977835
30
0.0
11
-166.561345
21
-63.956425
31
0.0
0
LINE
8
0
6
CONTINUOUS
10
-169.014155
20
-63.913625
30
0.0
11
-170.240545
21
-63.892225
31
0.0
0
LINE
8
0
6
CONTINUOUS
10
-144.101138
20
-57.147280
30
0.0
11
-144.122079
21
-58.347102
31
0.0
0
LINE
8
0
6
CONTINUOUS
10
-144.122079
20
-58.347102
30
0.0
11
-144.191883
21
-62.346490
31
0.0
0
LINE
8
0
6
CONTINUOUS
10
-144.191883
20
-62.346490
30
0.0
11
-144.226785
21
-64.346185
31
0.0
0
LINE
8
0
6
CONTINUOUS
10
-144.226785
20
-64.346185
30
0.0
11
-143.000365
21
-64.367585
31
0.0
0
LINE
8
0
6
CONTINUOUS
10
-139.321205
20
-64.431795
30
0.0
11
-139.286303
21
-62.432097
31
0.0
0
LINE
8
0
6
CONTINUOUS
10
-139.286303
20
-62.432097
30
0.0
11
-139.216499
21
-58.432711
31
0.0
0
LINE
8
0
6
CONTINUOUS
10
-139.216499
20
-58.432710
30
0.0
11
-139.195558
21
-57.232887
31
0.0
0
LINE
8
0
6
CONTINUOUS
10
-140.547595
20
-64.410395
30
0.0
11
-139.321205
21
-64.431795
31
0.0
0
LINE
8
0
6
CONTINUOUS
10
-142.874718
20
-57.168682
30
0.0
11
-142.895659
21
-58.368505
31
0.0
0
LINE
8
0
6
CONTINUOUS
10
-142.895659
20
-58.368505
30
0.0
11
-142.965463
21
-62.367892
31
0.0
0
LINE
8
0
6
CONTINUOUS
10
-142.965463
20
-62.367892
30
0.0
11
-143.000365
21
-64.367585
31
0.0
0
LINE
8
0
6
CONTINUOUS
10
-140.547595
20
-64.410395
30
0.0
11
-140.512690
21
-62.410696
31
0.0
0
LINE
8
0
6
CONTINUOUS
10
-140.512690
20
-62.410696
30
0.0
11
-140.442882
21
-58.411309
31
0.0
0
LINE
8
0
6
CONTINUOUS
10
-140.442882
20
-58.411309
30
0.0
11
-140.421939
21
-57.211486
31
0.0
0
LINE
8
0
6
CONTINUOUS
10
-143.000365
20
-64.367585
30
0.0
11
-140.547595
21
-64.410395
31
0.0
0
LINE
8
0
6
CONTINUOUS
10
-149.119108
20
-57.059712
30
0.0
11
-149.140049
21
-58.259534
31
0.0
0
LINE
8
0
6
CONTINUOUS
10
-149.140049
20
-58.259534
30
0.0
11
-149.209853
21
-62.258922
31
0.0
0
LINE
8
0
6
CONTINUOUS
10
-149.209853
20
-62.258922
30
0.0
11
-149.244755
21
-64.258625
31
0.0
0
LINE
8
0
6
CONTINUOUS
10
-149.244755
20
-64.258625
30
0.0
11
-148.018335
21
-64.280025
31
0.0
0
LINE
8
0
6
CONTINUOUS
10
-144.339175
20
-64.344225
30
0.0
11
-144.304270
21
-62.344530
31
0.0
0
LINE
8
0
6
CONTINUOUS
10
-144.304270
20
-62.344530
30
0.0
11
-144.234462
21
-58.345142
31
0.0
0
LINE
8
0
6
CONTINUOUS
10
-144.234462
20
-58.345142
30
0.0
11
-144.213519
21
-57.145319
31
0.0
0
LINE
8
0
6
CONTINUOUS
10
-145.565555
20
-64.322825
30
0.0
11
-144.339175
21
-64.344225
31
0.0
0
LINE
8
0
6
CONTINUOUS
10
-147.892688
20
-57.081114
30
0.0
11
-147.913629
21
-58.280936
31
0.0
0
LINE
8
0
6
CONTINUOUS
10
-147.913629
20
-58.280936
30
0.0
11
-147.983433
21
-62.280324
31
0.0
0
LINE
8
0
6
CONTINUOUS
10
-147.983433
20
-62.280324
30
0.0
11
-148.018335
21
-64.280025
31
0.0
0
LINE
8
0
6
CONTINUOUS
10
-145.565555
20
-64.322825
30
0.0
11
-145.530653
21
-62.323128
31
0.0
0
LINE
8
0
6
CONTINUOUS
10
-145.530653
20
-62.323128
30
0.0
11
-145.460849
21
-58.323740
31
0.0
0
LINE
8
0
6
CONTINUOUS
10
-145.460849
20
-58.323740
30
0.0
11
-145.439908
21
-57.123917
31
0.0
0
LINE
8
0
6
CONTINUOUS
10
-148.018335
20
-64.280025
30
0.0
11
-145.565555
21
-64.322825
31
0.0
0
LINE
8
0
6
CONTINUOUS
10
-128.123278
20
-57.426109
30
0.0
11
-128.144219
21
-58.625935
31
0.0
0
LINE
8
0
6
CONTINUOUS
10
-128.144219
20
-58.625935
30
0.0
11
-128.214023
21
-62.625320
31
0.0
0
LINE
8
0
6
CONTINUOUS
10
-128.214023
20
-62.625320
30
0.0
11
-128.248925
21
-64.625015
31
0.0
0
LINE
8
0
6
CONTINUOUS
10
-128.248925
20
-64.625015
30
0.0
11
-127.022545
21
-64.646415
31
0.0
0
LINE
8
0
6
CONTINUOUS
10
-123.343385
20
-64.710625
30
0.0
11
-123.308483
21
-62.710927
31
0.0
0
LINE
8
0
6
CONTINUOUS
10
-123.308483
20
-62.710927
30
0.0
11
-123.238679
21
-58.711542
31
0.0
0
LINE
8
0
6
CONTINUOUS
10
-123.238679
20
-58.711542
30
0.0
11
-123.217738
21
-57.511716
31
0.0
0
LINE
8
0
6
CONTINUOUS
10
-124.569765
20
-64.689225
30
0.0
11
-123.343385
21
-64.710625
31
0.0
0
LINE
8
0
6
CONTINUOUS
10
-126.896898
20
-57.447511
30
0.0
11
-126.917839
21
-58.647337
31
0.0
0
LINE
8
0
6
CONTINUOUS
10
-126.917839
20
-58.647337
30
0.0
11
-126.987643
21
-62.646722
31
0.0
0
LINE
8
0
6
CONTINUOUS
10
-126.987643
20
-62.646722
30
0.0
11
-127.022545
21
-64.646415
31
0.0
0
LINE
8
0
6
CONTINUOUS
10
-124.569765
20
-64.689225
30
0.0
11
-124.534863
21
-62.689525
31
0.0
0
LINE
8
0
6
CONTINUOUS
10
-124.534863
20
-62.689525
30
0.0
11
-124.465059
21
-58.690141
31
0.0
0
LINE
8
0
6
CONTINUOUS
10
-124.465059
20
-58.690141
30
0.0
11
-124.444118
21
-57.490314
31
0.0
0
LINE
8
0
6
CONTINUOUS
10
-127.022545
20
-64.646415
30
0.0
11
-124.569765
21
-64.689225
31
0.0
0
LINE
8
0
6
CONTINUOUS
10
-107.127498
20
-57.792506
30
0.0
11
-107.148439
21
-58.992336
31
0.0
0
LINE
8
0
6
CONTINUOUS
10
-107.148439
20
-58.992336
30
0.0
11
-107.218243
21
-62.991718
31
0.0
0
LINE
8
0
6
CONTINUOUS
10
-107.218243
20
-62.991718
30
0.0
11
-107.253145
21
-64.991415
31
0.0
0
LINE
8
0
6
CONTINUOUS
10
-107.253145
20
-64.991415
30
0.0
11
-106.026755
21
-65.012815
31
0.0
0
LINE
8
0
6
CONTINUOUS
10
-102.347595
20
-65.077025
30
0.0
11
-102.312693
21
-63.077325
31
0.0
0
LINE
8
0
6
CONTINUOUS
10
-102.312693
20
-63.077325
30
0.0
11
-102.242889
21
-59.077943
31
0.0
0
LINE
8
0
6
CONTINUOUS
10
-102.242889
20
-59.077943
30
0.0
11
-102.221948
21
-57.878113
31
0.0
0
LINE
8
0
6
CONTINUOUS
10
-103.573985
20
-65.055625
30
0.0
11
-102.347595
21
-65.077025
31
0.0
0
LINE
8
0
6
CONTINUOUS
10
-105.901108
20
-57.813908
30
0.0
11
-105.922049
21
-59.013738
31
0.0
0
LINE
8
0
6
CONTINUOUS
10
-105.922049
20
-59.013738
30
0.0
11
-105.991853
21
-63.013119
31
0.0
0
LINE
8
0
6
CONTINUOUS
10
-105.991853
20
-63.013119
30
0.0
11
-106.026755
21
-65.012815
31
0.0
0
LINE
8
0
6
CONTINUOUS
10
-103.573985
20
-65.055625
30
0.0
11
-103.539080
21
-63.055923
31
0.0
0
LINE
8
0
6
CONTINUOUS
10
-103.539080
20
-63.055923
30
0.0
11
-103.469272
21
-59.056541
31
0.0
0
LINE
8
0
6
CONTINUOUS
10
-103.469272
20
-59.056541
30
0.0
11
-103.448329
21
-57.856711
31
0.0
0
LINE
8
0
6
CONTINUOUS
10
-106.026755
20
-65.012815
30
0.0
11
-103.573985
21
-65.055625
31
0.0
0
LINE
8
0
6
CONTINUOUS
10
-86.131708
20
-58.158905
30
0.0
11
-86.152649
21
-59.358734
31
0.0
0
LINE
8
0
6
CONTINUOUS
10
-86.152649
20
-59.358734
30
0.0
11
-86.222453
21
-63.358116
31
0.0
0
LINE
8
0
6
CONTINUOUS
10
-86.222453
20
-63.358116
30
0.0
11
-86.257355
21
-65.357815
31
0.0
0
LINE
8
0
6
CONTINUOUS
10
-86.257355
20
-65.357815
30
0.0
11
-85.030965
21
-65.379215
31
0.0
0
LINE
8
0
6
CONTINUOUS
10
-81.351805
20
-65.443415
30
0.0
11
-81.316903
21
-63.443724
31
0.0
0
LINE
8
0
6
CONTINUOUS
10
-81.316903
20
-63.443724
30
0.0
11
-81.247099
21
-59.444340
31
0.0
0
LINE
8
0
6
CONTINUOUS
10
-81.247099
20
-59.444340
30
0.0
11
-81.226158
21
-58.244513
31
0.0
0
LINE
8
0
6
CONTINUOUS
10
-82.578195
20
-65.422015
30
0.0
11
-81.351805
21
-65.443415
31
0.0
0
LINE
8
0
6
CONTINUOUS
10
-84.905318
20
-58.180307
30
0.0
11
-84.926259
21
-59.380136
31
0.0
0
LINE
8
0
6
CONTINUOUS
10
-84.926259
20
-59.380136
30
0.0
11
-84.996063
21
-63.379518
31
0.0
0
LINE
8
0
6
CONTINUOUS
10
-84.996063
20
-63.379518
30
0.0
11
-85.030965
21
-65.379215
31
0.0
0
LINE
8
0
6
CONTINUOUS
10
-82.578195
20
-65.422015
30
0.0
11
-82.543293
21
-63.422322
31
0.0
0
LINE
8
0
6
CONTINUOUS
10
-82.543293
20
-63.422322
30
0.0
11
-82.473489
21
-59.422939
31
0.0
0
LINE
8
0
6
CONTINUOUS
10
-82.473489
20
-59.422939
30
0.0
11
-82.452548
21
-58.223111
31
0.0
0
LINE
8
0
6
CONTINUOUS
10
-85.030965
20
-65.379215
30
0.0
11
-82.578195
21
-65.422015
31
0.0
0
LINE
8
0
6
CONTINUOUS
10
-65.135838
20
-58.525309
30
0.0
11
-65.156779
21
-59.725130
31
0.0
0
LINE
8
0
6
CONTINUOUS
10
-65.156779
20
-59.725130
30
0.0
11
-65.226583
21
-63.724519
31
0.0
0
LINE
8
0
6
CONTINUOUS
10
-65.226583
20
-63.724519
30
0.0
11
-65.261485
21
-65.724205
31
0.0
0
LINE
8
0
6
CONTINUOUS
10
-65.261485
20
-65.724205
30
0.0
11
-64.035105
21
-65.745615
31
0.0
0
LINE
8
0
6
CONTINUOUS
10
-60.355905
20
-65.809815
30
0.0
11
-60.321003
21
-63.810127
31
0.0
0
LINE
8
0
6
CONTINUOUS
10
-60.321003
20
-63.810127
30
0.0
11
-60.251199
21
-59.810737
31
0.0
0
LINE
8
0
6
CONTINUOUS
10
-60.251199
20
-59.810737
30
0.0
11
-60.230258
21
-58.610918
31
0.0
0
LINE
8
0
6
CONTINUOUS
10
-61.582285
20
-65.788415
30
0.0
11
-60.355905
21
-65.809815
31
0.0
0
LINE
8
0
6
CONTINUOUS
10
-63.909458
20
-58.546711
30
0.0
11
-63.930399
21
-59.746532
31
0.0
0
LINE
8
0
6
CONTINUOUS
10
-63.930399
20
-59.746532
30
0.0
11
-64.000203
21
-63.745921
31
0.0
0
LINE
8
0
6
CONTINUOUS
10
-64.000203
20
-63.745921
30
0.0
11
-64.035105
21
-65.745615
31
0.0
0
LINE
8
0
6
CONTINUOUS
10
-61.582285
20
-65.788415
30
0.0
11
-61.547383
21
-63.788725
31
0.0
0
LINE
8
0
6
CONTINUOUS
10
-61.547383
20
-63.788725
30
0.0
11
-61.477579
21
-59.789336
31
0.0
0
LINE
8
0
6
CONTINUOUS
10
-61.477579
20
-59.789336
30
0.0
11
-61.456638
21
-58.589516
31
0.0
0
LINE
8
0
6
CONTINUOUS
10
-64.035105
20
-65.745615
30
0.0
11
-61.582285
21
-65.788415
31
0.0
0
LINE
8
0
6
CONTINUOUS
10
-191.201473
20
-61.526132
30
0.0
11
-189.975083
21
-61.547533
31
0.0
0
LINE
8
0
6
CONTINUOUS
10
-60.251199
20
-59.810737
30
0.0
11
-61.477579
21
-59.789336
31
0.0
0
LINE
8
0
6
CONTINUOUS
10
-63.930399
20
-59.746532
30
0.0
11
-61.477579
21
-59.789336
31
0.0
0
LINE
8
0
6
CONTINUOUS
10
-228.217729
20
-56.879559
30
0.0
11
-229.444119
21
-56.858157
31
0.0
0
LINE
8
0
6
CONTINUOUS
10
-144.191883
20
-62.346490
30
0.0
11
-144.079440
21
-62.348452
31
0.0
0
LINE
8
0
6
CONTINUOUS
10
-189.905279
20
-57.548143
30
0.0
11
-187.452509
21
-57.590946
31
0.0
0
LINE
8
0
6
CONTINUOUS
10
-231.896892
20
-56.815353
30
0.0
11
-229.444119
21
-56.858157
31
0.0
0
LINE
8
0
6
CONTINUOUS
10
-170.205643
20
-61.892526
30
0.0
11
-168.979253
21
-61.913928
31
0.0
0
LINE
8
0
6
CONTINUOUS
10
-102.242889
20
-59.077943
30
0.0
11
-103.469272
21
-59.056541
31
0.0
0
LINE
8
0
6
CONTINUOUS
10
-207.291751
20
-61.245343
30
0.0
11
-208.518133
21
-61.223941
31
0.0
0
LINE
8
0
6
CONTINUOUS
10
-273.958353
20
-60.081940
30
0.0
11
-271.505543
21
-60.124745
31
0.0
0
LINE
8
0
6
CONTINUOUS
10
-186.295923
20
-61.611738
30
0.0
11
-187.522313
21
-61.590336
31
0.0
0
LINE
8
0
6
CONTINUOUS
10
-210.901109
20
-57.181748
30
0.0
11
-208.448329
21
-57.224551
31
0.0
0
LINE
8
0
6
CONTINUOUS
10
-275.184743
20
-60.060538
30
0.0
11
-273.958353
21
-60.081940
31
0.0
0
LINE
8
0
6
CONTINUOUS
10
-212.127489
20
-57.160347
30
0.0
11
-210.901109
21
-57.181748
31
0.0
0
LINE
8
0
6
CONTINUOUS
10
-212.197293
20
-61.159737
30
0.0
11
-210.970913
21
-61.181138
31
0.0
0
LINE
8
0
6
CONTINUOUS
10
-142.895659
20
-58.368505
30
0.0
11
-140.442882
21
-58.411309
31
0.0
0
LINE
8
0
6
CONTINUOUS
10
-149.209853
20
-62.258922
30
0.0
11
-147.983433
21
-62.280324
31
0.0
0
LINE
8
0
6
CONTINUOUS
10
-149.140049
20
-58.259534
30
0.0
11
-147.913629
21
-58.280936
31
0.0
0
LINE
8
0
6
CONTINUOUS
10
-105.922049
20
-59.013738
30
0.0
11
-103.469272
21
-59.056541
31
0.0
0
LINE
8
0
6
CONTINUOUS
10
-123.308483
20
-62.710927
30
0.0
11
-124.534863
21
-62.689525
31
0.0
0
LINE
8
0
6
CONTINUOUS
10
-128.214023
20
-62.625320
30
0.0
11
-126.987643
21
-62.646722
31
0.0
0
LINE
8
0
6
CONTINUOUS
10
-254.119109
20
-56.427550
30
0.0
11
-252.892679
21
-56.448952
31
0.0
0
LINE
8
0
6
CONTINUOUS
10
-254.188913
20
-60.426939
30
0.0
11
-252.962483
21
-60.448342
31
0.0
0
LINE
8
0
6
CONTINUOUS
10
-168.909449
20
-57.914538
30
0.0
11
-166.456639
21
-57.957341
31
0.0
0
LINE
8
0
6
CONTINUOUS
10
-252.892679
20
-56.448952
30
0.0
11
-250.439909
21
-56.491756
31
0.0
0
LINE
8
0
6
CONTINUOUS
10
-147.913629
20
-58.280936
30
0.0
11
-145.460849
21
-58.323740
31
0.0
0
LINE
8
0
6
CONTINUOUS
10
-194.800829
20
-57.462711
30
0.0
11
-192.348059
21
-57.505514
31
0.0
0
LINE
8
0
6
CONTINUOUS
10
-249.283323
20
-60.512548
30
0.0
11
-250.509713
21
-60.491146
31
0.0
0
LINE
8
0
6
CONTINUOUS
10
-144.304270
20
-62.344530
30
0.0
11
-145.530653
21
-62.323128
31
0.0
0
LINE
8
0
6
CONTINUOUS
10
-139.398747
20
-62.430135
30
0.0
11
-140.512690
21
-62.410696
31
0.0
0
LINE
8
0
6
CONTINUOUS
10
-107.218243
20
-62.991718
30
0.0
11
-105.991853
21
-63.013119
31
0.0
0
LINE
8
0
6
CONTINUOUS
10
-81.316903
20
-63.443724
30
0.0
11
-82.543293
21
-63.422322
31
0.0
0
LINE
8
0
6
CONTINUOUS
10
-196.097023
20
-61.440700
30
0.0
11
-195.984581
21
-61.442662
31
0.0
0
LINE
8
0
6
CONTINUOUS
10
-84.926259
20
-59.380136
30
0.0
11
-82.473489
21
-59.422939
31
0.0
0
LINE
8
0
6
CONTINUOUS
10
-165.230249
20
-57.978743
30
0.0
11
-166.456639
21
-57.957341
31
0.0
0
LINE
8
0
6
CONTINUOUS
10
-270.209349
20
-56.146760
30
0.0
11
-271.435739
21
-56.125359
31
0.0
0
LINE
8
0
6
CONTINUOUS
10
-270.279153
20
-60.146146
30
0.0
11
-271.505543
21
-60.124745
31
0.0
0
LINE
8
0
6
CONTINUOUS
10
-191.303915
20
-61.524343
30
0.0
11
-192.417863
21
-61.504904
31
0.0
0
LINE
8
0
6
CONTINUOUS
10
-86.152649
20
-59.358734
30
0.0
11
-84.926259
21
-59.380136
31
0.0
0
LINE
8
0
6
CONTINUOUS
10
-86.222453
20
-63.358116
30
0.0
11
-84.996063
21
-63.379518
31
0.0
0
LINE
8
0
6
CONTINUOUS
10
-126.917839
20
-58.647337
30
0.0
11
-124.465059
21
-58.690141
31
0.0
0
LINE
8
0
6
CONTINUOUS
10
-151.081161
20
-62.226265
30
0.0
11
-154.959601
21
-62.158583
31
0.0
0
LINE
8
0
6
CONTINUOUS
10
-149.719279
20
-62.250032
30
0.0
11
-151.081161
21
-62.226265
31
0.0
0
LINE
8
0
6
CONTINUOUS
10
-165.230249
20
-57.978742
30
0.0
11
-160.694257
21
-58.057899
31
0.0
0
LINE
8
0
6
CONTINUOUS
10
-160.694257
20
-58.057899
30
0.0
11
-160.542055
21
-58.060555
31
0.0
0
LINE
8
0
6
CONTINUOUS
10
-174.387954
20
-57.818933
30
0.0
11
-170.135839
21
-57.893136
31
0.0
0
ENDSEC
0
EOF
