999
Erzeugt mit innoplus bad 
0
SECTION
2
HEADER
9
$ACADVER
1
AC1009
9
$DWGCODEPAGE
3
ISO8859-1
0
ENDSEC
0
SECTION
2
TABLES
0
TABLE
2
LAYER
70
1
0
LAYER
2
0
70
0
62
7
6
CONTINUOUS
0
ENDTAB
0
ENDSEC
0
SECTION
2
ENTITIES
0
LINE
8
0
6
CONTINUOUS
10
24.944750
20
-57.805605
30
0.0
11
27.000000
21
-57.805605
31
0.0
0
LINE
8
0
6
CONTINUOUS
10
27.000000
20
-43.810665
30
0.0
11
24.944750
21
-43.810665
31
0.0
0
LINE
8
0
6
CONTINUOUS
10
27.000000
20
-57.805605
30
0.0
11
27.000000
21
-43.810665
31
0.0
0
LINE
8
0
6
CONTINUOUS
10
19.091880
20
-57.805605
30
0.0
11
24.944750
21
-57.805605
31
0.0
0
LINE
8
0
6
CONTINUOUS
10
24.944750
20
-43.810665
30
0.0
11
19.091880
21
-43.810665
31
0.0
0
LINE
8
0
6
CONTINUOUS
10
10.332450
20
-57.805605
30
0.0
11
19.091880
21
-57.805605
31
0.0
0
LINE
8
0
6
CONTINUOUS
10
19.091880
20
-43.810665
30
0.0
11
10.332450
21
-43.810665
31
0.0
0
LINE
8
0
6
CONTINUOUS
10
-0.000000
20
-57.805605
30
0.0
11
10.332450
21
-57.805605
31
0.0
0
LINE
8
0
6
CONTINUOUS
10
10.332450
20
-43.810665
30
0.0
11
-0.000000
21
-43.810665
31
0.0
0
LINE
8
0
6
CONTINUOUS
10
-10.332450
20
-57.805605
30
0.0
11
-0.000000
21
-57.805605
31
0.0
0
LINE
8
0
6
CONTINUOUS
10
-0.000000
20
-43.810665
30
0.0
11
-10.332450
21
-43.810665
31
0.0
0
LINE
8
0
6
CONTINUOUS
10
-19.091880
20
-57.805605
30
0.0
11
-10.332450
21
-57.805605
31
0.0
0
LINE
8
0
6
CONTINUOUS
10
-10.332450
20
-43.810665
30
0.0
11
-19.091880
21
-43.810665
31
0.0
0
LINE
8
0
6
CONTINUOUS
10
-24.944750
20
-57.805605
30
0.0
11
-19.091880
21
-57.805605
31
0.0
0
LINE
8
0
6
CONTINUOUS
10
-19.091880
20
-43.810665
30
0.0
11
-24.944750
21
-43.810665
31
0.0
0
LINE
8
0
6
CONTINUOUS
10
-27.000000
20
-57.805605
30
0.0
11
-24.944750
21
-57.805605
31
0.0
0
LINE
8
0
6
CONTINUOUS
10
-27.000000
20
-43.810665
30
0.0
11
-27.000000
21
-57.805605
31
0.0
0
LINE
8
0
6
CONTINUOUS
10
-24.944750
20
-43.810665
30
0.0
11
-27.000000
21
-43.810665
31
0.0
0
LINE
8
0
6
CONTINUOUS
10
-7.926330
20
70.004845
30
0.0
11
-14.645950
21
70.004845
31
0.0
0
LINE
8
0
6
CONTINUOUS
10
-16.025760
20
-43.810665
30
0.0
11
-8.673080
21
-43.810665
31
0.0
0
LINE
8
0
6
CONTINUOUS
10
19.135870
20
70.004845
30
0.0
11
14.645960
21
70.004845
31
0.0
0
LINE
8
0
6
CONTINUOUS
10
16.025770
20
-43.810665
30
0.0
11
20.938680
21
-43.810665
31
0.0
0
LINE
8
0
6
CONTINUOUS
10
-14.645950
20
70.004845
30
0.0
11
-19.135870
21
70.004845
31
0.0
0
LINE
8
0
6
CONTINUOUS
10
-20.938680
20
-43.810665
30
0.0
11
-16.025760
21
-43.810665
31
0.0
0
LINE
8
0
6
CONTINUOUS
10
14.645960
20
70.004845
30
0.0
11
7.926340
21
70.004845
31
0.0
0
LINE
8
0
6
CONTINUOUS
10
8.673080
20
-43.810665
30
0.0
11
16.025770
21
-43.810665
31
0.0
0
LINE
8
0
6
CONTINUOUS
10
-20.712520
20
70.004845
30
0.0
11
-22.663860
21
-43.810665
31
0.0
0
LINE
8
0
6
CONTINUOUS
10
-19.135870
20
70.004845
30
0.0
11
-20.712520
21
70.004845
31
0.0
0
LINE
8
0
6
CONTINUOUS
10
-22.663860
20
-43.810665
30
0.0
11
-20.938680
21
-43.810665
31
0.0
0
LINE
8
0
6
CONTINUOUS
10
7.926340
20
70.004845
30
0.0
11
-0.000000
21
70.004845
31
0.0
0
LINE
8
0
6
CONTINUOUS
10
-0.000000
20
-43.810665
30
0.0
11
8.673080
21
-43.810665
31
0.0
0
LINE
8
0
6
CONTINUOUS
10
-0.000000
20
70.004845
30
0.0
11
-7.926330
21
70.004845
31
0.0
0
LINE
8
0
6
CONTINUOUS
10
-8.673080
20
-43.810665
30
0.0
11
-0.000000
21
-43.810665
31
0.0
0
LINE
8
0
6
CONTINUOUS
10
20.712520
20
70.004845
30
0.0
11
19.135870
21
70.004845
31
0.0
0
LINE
8
0
6
CONTINUOUS
10
22.663860
20
-43.810665
30
0.0
11
20.712520
21
70.004845
31
0.0
0
LINE
8
0
6
CONTINUOUS
10
20.938680
20
-43.810665
30
0.0
11
22.663860
21
-43.810665
31
0.0
0
LINE
8
0
6
CONTINUOUS
10
-29.561660
20
-89.006465
30
0.0
11
-28.256240
21
-89.006465
31
0.0
0
LINE
8
0
6
CONTINUOUS
10
-28.256240
20
-80.003445
30
0.0
11
-29.561660
21
-80.003445
31
0.0
0
LINE
8
0
6
CONTINUOUS
10
-28.256240
20
-89.006465
30
0.0
11
-28.256240
21
-80.003445
31
0.0
0
LINE
8
0
6
CONTINUOUS
10
-33.128120
20
-89.006465
30
0.0
11
-29.561660
21
-89.006465
31
0.0
0
LINE
8
0
6
CONTINUOUS
10
-29.561660
20
-80.003445
30
0.0
11
-33.128120
21
-80.003445
31
0.0
0
LINE
8
0
6
CONTINUOUS
10
-29.561660
20
-89.006465
30
0.0
11
-29.561660
21
-80.003445
31
0.0
0
LINE
8
0
6
CONTINUOUS
10
-38.000000
20
-89.006465
30
0.0
11
-33.128120
21
-89.006465
31
0.0
0
LINE
8
0
6
CONTINUOUS
10
-33.128120
20
-80.003445
30
0.0
11
-38.000000
21
-80.003445
31
0.0
0
LINE
8
0
6
CONTINUOUS
10
-33.128120
20
-89.006465
30
0.0
11
-33.128120
21
-80.003445
31
0.0
0
LINE
8
0
6
CONTINUOUS
10
-42.871880
20
-89.006465
30
0.0
11
-38.000000
21
-89.006465
31
0.0
0
LINE
8
0
6
CONTINUOUS
10
-38.000000
20
-80.003445
30
0.0
11
-42.871880
21
-80.003445
31
0.0
0
LINE
8
0
6
CONTINUOUS
10
-38.000000
20
-89.006465
30
0.0
11
-38.000000
21
-80.003445
31
0.0
0
LINE
8
0
6
CONTINUOUS
10
-46.438330
20
-89.006465
30
0.0
11
-42.871880
21
-89.006465
31
0.0
0
LINE
8
0
6
CONTINUOUS
10
-42.871880
20
-80.003445
30
0.0
11
-46.438330
21
-80.003445
31
0.0
0
LINE
8
0
6
CONTINUOUS
10
-42.871880
20
-89.006465
30
0.0
11
-42.871880
21
-80.003445
31
0.0
0
LINE
8
0
6
CONTINUOUS
10
-47.743750
20
-89.006465
30
0.0
11
-46.438330
21
-89.006465
31
0.0
0
LINE
8
0
6
CONTINUOUS
10
-47.743750
20
-80.003445
30
0.0
11
-47.743750
21
-89.006465
31
0.0
0
LINE
8
0
6
CONTINUOUS
10
-46.438330
20
-80.003445
30
0.0
11
-47.743750
21
-80.003445
31
0.0
0
LINE
8
0
6
CONTINUOUS
10
-46.438330
20
-89.006465
30
0.0
11
-46.438330
21
-80.003445
31
0.0
0
LINE
8
0
6
CONTINUOUS
10
-41.195010
20
-80.003445
30
0.0
11
-38.000000
21
-80.003445
31
0.0
0
LINE
8
0
6
CONTINUOUS
10
-38.000000
20
-71.800695
30
0.0
11
-38.000000
21
-80.003445
31
0.0
0
LINE
8
0
6
CONTINUOUS
10
-38.000000
20
-80.003445
30
0.0
11
-34.804990
21
-80.003445
31
0.0
0
LINE
8
0
6
CONTINUOUS
10
-34.804990
20
-71.800695
30
0.0
11
-34.804990
21
-80.003445
31
0.0
0
LINE
8
0
6
CONTINUOUS
10
-34.804990
20
-80.003445
30
0.0
11
-32.466080
21
-80.003445
31
0.0
0
LINE
8
0
6
CONTINUOUS
10
-44.390010
20
-71.800695
30
0.0
11
-44.390010
21
-80.003445
31
0.0
0
LINE
8
0
6
CONTINUOUS
10
-44.390010
20
-80.003445
30
0.0
11
-43.533920
21
-80.003445
31
0.0
0
LINE
8
0
6
CONTINUOUS
10
-32.466080
20
-71.800695
30
0.0
11
-32.466080
21
-80.003445
31
0.0
0
LINE
8
0
6
CONTINUOUS
10
-31.609980
20
-80.003445
30
0.0
11
-31.609980
21
-71.800695
31
0.0
0
LINE
8
0
6
CONTINUOUS
10
-32.466080
20
-80.003445
30
0.0
11
-31.609980
21
-80.003445
31
0.0
0
LINE
8
0
6
CONTINUOUS
10
-43.533920
20
-71.800695
30
0.0
11
-43.533920
21
-80.003445
31
0.0
0
LINE
8
0
6
CONTINUOUS
10
-41.195010
20
-80.003445
30
0.0
11
-41.195010
21
-71.800695
31
0.0
0
LINE
8
0
6
CONTINUOUS
10
-43.533920
20
-80.003445
30
0.0
11
-41.195010
21
-80.003445
31
0.0
0
LINE
8
0
6
CONTINUOUS
10
-29.561660
20
-80.003445
30
0.0
11
-31.609980
21
-80.003445
31
0.0
0
LINE
8
0
6
CONTINUOUS
10
-28.256240
20
-80.003445
30
0.0
11
-29.561660
21
-80.003445
31
0.0
0
LINE
8
0
6
CONTINUOUS
10
-46.438340
20
-80.003445
30
0.0
11
-47.743750
21
-80.003445
31
0.0
0
LINE
8
0
6
CONTINUOUS
10
-44.390010
20
-80.003445
30
0.0
11
-46.438340
21
-80.003445
31
0.0
0
LINE
8
0
6
CONTINUOUS
10
28.256240
20
-80.003445
30
0.0
11
28.256240
21
-89.006465
31
0.0
0
LINE
8
0
6
CONTINUOUS
10
29.561660
20
-80.003445
30
0.0
11
28.256240
21
-80.003445
31
0.0
0
LINE
8
0
6
CONTINUOUS
10
28.256240
20
-89.006465
30
0.0
11
29.561660
21
-89.006465
31
0.0
0
LINE
8
0
6
CONTINUOUS
10
29.561660
20
-80.003445
30
0.0
11
29.561660
21
-89.006465
31
0.0
0
LINE
8
0
6
CONTINUOUS
10
33.128120
20
-80.003445
30
0.0
11
29.561660
21
-80.003445
31
0.0
0
LINE
8
0
6
CONTINUOUS
10
29.561660
20
-89.006465
30
0.0
11
33.128120
21
-89.006465
31
0.0
0
LINE
8
0
6
CONTINUOUS
10
33.128120
20
-80.003445
30
0.0
11
33.128120
21
-89.006465
31
0.0
0
LINE
8
0
6
CONTINUOUS
10
37.999990
20
-80.003445
30
0.0
11
33.128120
21
-80.003445
31
0.0
0
LINE
8
0
6
CONTINUOUS
10
33.128120
20
-89.006465
30
0.0
11
37.999990
21
-89.006465
31
0.0
0
LINE
8
0
6
CONTINUOUS
10
37.999990
20
-80.003445
30
0.0
11
37.999990
21
-89.006465
31
0.0
0
LINE
8
0
6
CONTINUOUS
10
42.871870
20
-80.003445
30
0.0
11
37.999990
21
-80.003445
31
0.0
0
LINE
8
0
6
CONTINUOUS
10
37.999990
20
-89.006465
30
0.0
11
42.871870
21
-89.006465
31
0.0
0
LINE
8
0
6
CONTINUOUS
10
42.871870
20
-80.003445
30
0.0
11
42.871870
21
-89.006465
31
0.0
0
LINE
8
0
6
CONTINUOUS
10
46.438330
20
-80.003445
30
0.0
11
42.871870
21
-80.003445
31
0.0
0
LINE
8
0
6
CONTINUOUS
10
42.871870
20
-89.006465
30
0.0
11
46.438330
21
-89.006465
31
0.0
0
LINE
8
0
6
CONTINUOUS
10
46.438330
20
-80.003445
30
0.0
11
46.438330
21
-89.006465
31
0.0
0
LINE
8
0
6
CONTINUOUS
10
47.743750
20
-80.003445
30
0.0
11
46.438330
21
-80.003445
31
0.0
0
LINE
8
0
6
CONTINUOUS
10
47.743750
20
-89.006465
30
0.0
11
47.743750
21
-80.003445
31
0.0
0
LINE
8
0
6
CONTINUOUS
10
46.438330
20
-89.006465
30
0.0
11
47.743750
21
-89.006465
31
0.0
0
LINE
8
0
6
CONTINUOUS
10
37.999990
20
-80.003445
30
0.0
11
41.195000
21
-80.003445
31
0.0
0
LINE
8
0
6
CONTINUOUS
10
34.804990
20
-80.003445
30
0.0
11
37.999990
21
-80.003445
31
0.0
0
LINE
8
0
6
CONTINUOUS
10
37.999990
20
-80.003445
30
0.0
11
37.999990
21
-71.800695
31
0.0
0
LINE
8
0
6
CONTINUOUS
10
32.466080
20
-80.003445
30
0.0
11
34.804990
21
-80.003445
31
0.0
0
LINE
8
0
6
CONTINUOUS
10
34.804990
20
-80.003445
30
0.0
11
34.804990
21
-71.800695
31
0.0
0
LINE
8
0
6
CONTINUOUS
10
43.533910
20
-80.003445
30
0.0
11
44.390010
21
-80.003445
31
0.0
0
LINE
8
0
6
CONTINUOUS
10
44.390010
20
-80.003445
30
0.0
11
44.390010
21
-71.800695
31
0.0
0
LINE
8
0
6
CONTINUOUS
10
31.609980
20
-80.003445
30
0.0
11
32.466080
21
-80.003445
31
0.0
0
LINE
8
0
6
CONTINUOUS
10
31.609980
20
-71.800695
30
0.0
11
31.609980
21
-80.003445
31
0.0
0
LINE
8
0
6
CONTINUOUS
10
32.466080
20
-80.003445
30
0.0
11
32.466080
21
-71.800695
31
0.0
0
LINE
8
0
6
CONTINUOUS
10
41.195000
20
-80.003445
30
0.0
11
43.533910
21
-80.003445
31
0.0
0
LINE
8
0
6
CONTINUOUS
10
41.195000
20
-71.800695
30
0.0
11
41.195000
21
-80.003445
31
0.0
0
LINE
8
0
6
CONTINUOUS
10
43.533910
20
-80.003445
30
0.0
11
43.533910
21
-71.800695
31
0.0
0
LINE
8
0
6
CONTINUOUS
10
31.609980
20
-80.003445
30
0.0
11
29.561650
21
-80.003445
31
0.0
0
LINE
8
0
6
CONTINUOUS
10
29.561650
20
-80.003445
30
0.0
11
28.256240
21
-80.003445
31
0.0
0
LINE
8
0
6
CONTINUOUS
10
47.743750
20
-80.003445
30
0.0
11
46.438340
21
-80.003445
31
0.0
0
LINE
8
0
6
CONTINUOUS
10
46.438340
20
-80.003445
30
0.0
11
44.390010
21
-80.003445
31
0.0
0
LINE
8
0
6
CONTINUOUS
10
-57.000000
20
-59.212275
30
0.0
11
-57.000000
21
-63.053005
31
0.0
0
LINE
8
0
6
CONTINUOUS
10
57.000000
20
-63.053005
30
0.0
11
57.000000
21
-59.212275
31
0.0
0
LINE
8
0
6
CONTINUOUS
10
-57.000000
20
-73.546055
30
0.0
11
-57.000000
21
-77.386775
31
0.0
0
LINE
8
0
6
CONTINUOUS
10
57.000000
20
-77.386775
30
0.0
11
57.000000
21
-73.546055
31
0.0
0
LINE
8
0
6
CONTINUOUS
10
-57.000000
20
-63.053005
30
0.0
11
-57.000000
21
-68.299525
31
0.0
0
LINE
8
0
6
CONTINUOUS
10
57.000000
20
-63.053005
30
0.0
11
22.144868
21
-63.053005
31
0.0
0
LINE
8
0
6
CONTINUOUS
10
-22.144869
20
-63.053005
30
0.0
11
-57.000000
21
-63.053005
31
0.0
0
LINE
8
0
6
CONTINUOUS
10
57.000000
20
-68.299525
30
0.0
11
57.000000
21
-63.053005
31
0.0
0
LINE
8
0
6
CONTINUOUS
10
-57.000000
20
-78.792575
30
0.0
11
-44.390010
21
-78.792575
31
0.0
0
LINE
8
0
6
CONTINUOUS
10
44.390010
20
-78.792575
30
0.0
11
57.000000
21
-78.792575
31
0.0
0
LINE
8
0
6
CONTINUOUS
10
-57.000000
20
-77.386775
30
0.0
11
-57.000000
21
-78.792575
31
0.0
0
LINE
8
0
6
CONTINUOUS
10
57.000000
20
-77.386775
30
0.0
11
44.390010
21
-77.386775
31
0.0
0
LINE
8
0
6
CONTINUOUS
10
31.609980
20
-77.386775
30
0.0
11
22.910451
21
-77.386775
31
0.0
0
LINE
8
0
6
CONTINUOUS
10
-22.910452
20
-77.386775
30
0.0
11
-31.609980
21
-77.386775
31
0.0
0
LINE
8
0
6
CONTINUOUS
10
-44.390010
20
-77.386775
30
0.0
11
-57.000000
21
-77.386775
31
0.0
0
LINE
8
0
6
CONTINUOUS
10
57.000000
20
-78.792575
30
0.0
11
57.000000
21
-77.386775
31
0.0
0
LINE
8
0
6
CONTINUOUS
10
-57.000000
20
-59.212275
30
0.0
11
-22.910450
21
-59.212275
31
0.0
0
LINE
8
0
6
CONTINUOUS
10
22.910449
20
-59.212275
30
0.0
11
57.000000
21
-59.212275
31
0.0
0
LINE
8
0
6
CONTINUOUS
10
-57.000000
20
-57.806475
30
0.0
11
-57.000000
21
-59.212275
31
0.0
0
LINE
8
0
6
CONTINUOUS
10
57.000000
20
-57.806475
30
0.0
11
23.092420
21
-57.806475
31
0.0
0
LINE
8
0
6
CONTINUOUS
10
-23.092420
20
-57.806475
30
0.0
11
-57.000000
21
-57.806475
31
0.0
0
LINE
8
0
6
CONTINUOUS
10
57.000000
20
-59.212275
30
0.0
11
57.000000
21
-57.806475
31
0.0
0
LINE
8
0
6
CONTINUOUS
10
-57.000000
20
-73.546055
30
0.0
11
-44.390010
21
-73.546055
31
0.0
0
LINE
8
0
6
CONTINUOUS
10
-31.609980
20
-73.546055
30
0.0
11
-22.144869
21
-73.546055
31
0.0
0
LINE
8
0
6
CONTINUOUS
10
22.144869
20
-73.546055
30
0.0
11
31.609980
21
-73.546055
31
0.0
0
LINE
8
0
6
CONTINUOUS
10
44.390010
20
-73.546055
30
0.0
11
57.000000
21
-73.546055
31
0.0
0
LINE
8
0
6
CONTINUOUS
10
-57.000000
20
-68.299525
30
0.0
11
-57.000000
21
-73.546055
31
0.0
0
LINE
8
0
6
CONTINUOUS
10
57.000000
20
-68.299525
30
0.0
11
45.000000
21
-68.299525
31
0.0
0
LINE
8
0
6
CONTINUOUS
10
-45.000000
20
-68.299525
30
0.0
11
-57.000000
21
-68.299525
31
0.0
0
LINE
8
0
6
CONTINUOUS
10
57.000000
20
-73.546055
30
0.0
11
57.000000
21
-68.299525
31
0.0
0
LINE
8
0
6
CONTINUOUS
10
5.244770
20
-59.212275
30
0.0
11
0.000000
21
-57.806475
31
0.0
0
LINE
8
0
6
CONTINUOUS
10
0.000000
20
-60.487205
30
0.0
11
3.904850
21
-61.533865
31
0.0
0
LINE
8
0
6
CONTINUOUS
10
9.084210
20
-63.053005
30
0.0
11
5.244770
21
-59.212275
31
0.0
0
LINE
8
0
6
CONTINUOUS
10
3.904850
20
-61.533865
30
0.0
11
6.763400
21
-64.393375
31
0.0
0
LINE
8
0
6
CONTINUOUS
10
10.489530
20
-68.299525
30
0.0
11
9.084210
21
-63.053005
31
0.0
0
LINE
8
0
6
CONTINUOUS
10
6.763400
20
-64.393375
30
0.0
11
7.809700
21
-68.299525
31
0.0
0
LINE
8
0
6
CONTINUOUS
10
9.084200
20
-73.546055
30
0.0
11
10.489530
21
-68.299525
31
0.0
0
LINE
8
0
6
CONTINUOUS
10
7.809700
20
-68.299525
30
0.0
11
6.763400
21
-72.205685
31
0.0
0
LINE
8
0
6
CONTINUOUS
10
5.244760
20
-77.386775
30
0.0
11
9.084200
21
-73.546055
31
0.0
0
LINE
8
0
6
CONTINUOUS
10
6.763400
20
-72.205685
30
0.0
11
3.904840
21
-75.065195
31
0.0
0
LINE
8
0
6
CONTINUOUS
10
0.000000
20
-78.792575
30
0.0
11
5.244760
21
-77.386775
31
0.0
0
LINE
8
0
6
CONTINUOUS
10
3.904840
20
-75.065195
30
0.0
11
0.000000
21
-76.111845
31
0.0
0
LINE
8
0
6
CONTINUOUS
10
-5.244770
20
-77.386775
30
0.0
11
-0.029473
21
-78.784675
31
0.0
0
LINE
8
0
6
CONTINUOUS
10
0.000000
20
-76.111845
30
0.0
11
-3.904850
21
-75.065195
31
0.0
0
LINE
8
0
6
CONTINUOUS
10
-9.084200
20
-73.546055
30
0.0
11
-5.244770
21
-77.386775
31
0.0
0
LINE
8
0
6
CONTINUOUS
10
-3.904850
20
-75.065195
30
0.0
11
-6.763400
21
-72.205685
31
0.0
0
LINE
8
0
6
CONTINUOUS
10
-10.489540
20
-68.299525
30
0.0
11
-9.084200
21
-73.546055
31
0.0
0
LINE
8
0
6
CONTINUOUS
10
-6.763400
20
-72.205685
30
0.0
11
-7.809700
21
-68.299525
31
0.0
0
LINE
8
0
6
CONTINUOUS
10
-9.084200
20
-63.053005
30
0.0
11
-10.489540
21
-68.299525
31
0.0
0
LINE
8
0
6
CONTINUOUS
10
-7.809700
20
-68.299525
30
0.0
11
-6.763400
21
-64.393365
31
0.0
0
LINE
8
0
6
CONTINUOUS
10
-5.244770
20
-59.212275
30
0.0
11
-9.084200
21
-63.053005
31
0.0
0
LINE
8
0
6
CONTINUOUS
10
-6.763400
20
-64.393365
30
0.0
11
-3.904850
21
-61.533855
31
0.0
0
LINE
8
0
6
CONTINUOUS
10
0.000000
20
-57.806475
30
0.0
11
-5.244770
21
-59.212275
31
0.0
0
LINE
8
0
6
CONTINUOUS
10
-3.904850
20
-61.533855
30
0.0
11
0.000000
21
-60.487205
31
0.0
0
LINE
8
0
6
CONTINUOUS
10
45.000000
20
-71.800695
30
0.0
11
45.000000
21
-66.799025
31
0.0
0
LINE
8
0
6
CONTINUOUS
10
-45.000000
20
-71.800695
30
0.0
11
-9.551714
21
-71.800695
31
0.0
0
LINE
8
0
6
CONTINUOUS
10
9.551710
20
-71.800695
30
0.0
11
45.000000
21
-71.800695
31
0.0
0
LINE
8
0
6
CONTINUOUS
10
-45.000000
20
-66.799025
30
0.0
11
-45.000000
21
-71.800695
31
0.0
0
LINE
8
0
6
CONTINUOUS
10
45.000000
20
-66.799025
30
0.0
11
10.087610
21
-66.799025
31
0.0
0
LINE
8
0
6
CONTINUOUS
10
-10.087614
20
-66.799025
30
0.0
11
-45.000000
21
-66.799025
31
0.0
0
LINE
8
0
6
CONTINUOUS
10
-38.000000
20
-89.006465
30
0.0
11
-42.871880
21
-89.006465
31
0.0
0
LINE
8
0
6
CONTINUOUS
10
-33.128120
20
-89.006465
30
0.0
11
-38.000000
21
-89.006465
31
0.0
0
LINE
8
0
6
CONTINUOUS
10
37.999990
20
-89.006465
30
0.0
11
33.128120
21
-89.006465
31
0.0
0
LINE
8
0
6
CONTINUOUS
10
42.871870
20
-89.006465
30
0.0
11
37.999990
21
-89.006465
31
0.0
0
LINE
8
0
6
CONTINUOUS
10
-8.837080
20
-78.784675
30
0.0
11
-0.029473
21
-78.784675
31
0.0
0
LINE
8
0
6
CONTINUOUS
10
0.000000
20
-78.784675
30
0.0
11
8.837090
21
-78.784675
31
0.0
0
LINE
8
0
6
CONTINUOUS
10
-23.092420
20
-78.784675
30
0.0
11
-21.334610
21
-78.784675
31
0.0
0
LINE
8
0
6
CONTINUOUS
10
-21.334610
20
-78.784675
30
0.0
11
-16.328800
21
-78.784675
31
0.0
0
LINE
8
0
6
CONTINUOUS
10
-16.328800
20
-78.784675
30
0.0
11
-8.837080
21
-78.784675
31
0.0
0
LINE
8
0
6
CONTINUOUS
10
8.837090
20
-78.784675
30
0.0
11
16.328800
21
-78.784675
31
0.0
0
LINE
8
0
6
CONTINUOUS
10
16.328800
20
-78.784675
30
0.0
11
21.334610
21
-78.784675
31
0.0
0
LINE
8
0
6
CONTINUOUS
10
21.334610
20
-78.784675
30
0.0
11
23.092420
21
-78.784675
31
0.0
0
LINE
8
0
6
CONTINUOUS
10
23.092420
20
-78.784675
30
0.0
11
23.092420
21
-77.631382
31
0.0
0
LINE
8
0
6
CONTINUOUS
10
23.092420
20
-58.967664
30
0.0
11
23.092420
21
-57.806475
31
0.0
0
LINE
8
0
6
CONTINUOUS
10
-5.837630
20
72.004885
30
0.0
11
-10.786530
21
72.004885
31
0.0
0
LINE
8
0
6
CONTINUOUS
10
-10.786530
20
70.004845
30
0.0
11
-5.837630
21
70.004845
31
0.0
0
LINE
8
0
6
CONTINUOUS
10
14.093290
20
72.004885
30
0.0
11
10.786540
21
72.004885
31
0.0
0
LINE
8
0
6
CONTINUOUS
10
10.786540
20
70.004845
30
0.0
11
14.093290
21
70.004845
31
0.0
0
LINE
8
0
6
CONTINUOUS
10
-10.786530
20
72.004885
30
0.0
11
-14.093290
21
72.004885
31
0.0
0
LINE
8
0
6
CONTINUOUS
10
-14.093290
20
70.004845
30
0.0
11
-10.786530
21
70.004845
31
0.0
0
LINE
8
0
6
CONTINUOUS
10
10.786540
20
72.004885
30
0.0
11
5.837630
21
72.004885
31
0.0
0
LINE
8
0
6
CONTINUOUS
10
5.837630
20
70.004845
30
0.0
11
10.786540
21
70.004845
31
0.0
0
LINE
8
0
6
CONTINUOUS
10
-15.254470
20
72.004885
30
0.0
11
-15.254470
21
70.004845
31
0.0
0
LINE
8
0
6
CONTINUOUS
10
-14.093290
20
72.004885
30
0.0
11
-15.254470
21
72.004885
31
0.0
0
LINE
8
0
6
CONTINUOUS
10
-15.254470
20
70.004845
30
0.0
11
-14.093290
21
70.004845
31
0.0
0
LINE
8
0
6
CONTINUOUS
10
5.837630
20
72.004885
30
0.0
11
-0.000000
21
72.004885
31
0.0
0
LINE
8
0
6
CONTINUOUS
10
-0.000000
20
70.004845
30
0.0
11
5.837630
21
70.004845
31
0.0
0
LINE
8
0
6
CONTINUOUS
10
15.254470
20
72.004885
30
0.0
11
14.093290
21
72.004885
31
0.0
0
LINE
8
0
6
CONTINUOUS
10
15.254470
20
70.004845
30
0.0
11
15.254470
21
72.004885
31
0.0
0
LINE
8
0
6
CONTINUOUS
10
14.093290
20
70.004845
30
0.0
11
15.254470
21
70.004845
31
0.0
0
LINE
8
0
6
CONTINUOUS
10
-0.000000
20
72.004885
30
0.0
11
-5.837630
21
72.004885
31
0.0
0
LINE
8
0
6
CONTINUOUS
10
-5.837630
20
70.004845
30
0.0
11
-0.000000
21
70.004845
31
0.0
0
LINE
8
0
6
CONTINUOUS
10
12.660150
20
81.506455
30
0.0
11
11.696460
21
81.506455
31
0.0
0
LINE
8
0
6
CONTINUOUS
10
12.660150
20
72.004885
30
0.0
11
12.660150
21
81.506455
31
0.0
0
LINE
8
0
6
CONTINUOUS
10
11.696450
20
72.004885
30
0.0
11
12.660150
21
72.004885
31
0.0
0
LINE
8
0
6
CONTINUOUS
10
-0.000000
20
81.506455
30
0.0
11
-4.844820
21
81.506455
31
0.0
0
LINE
8
0
6
CONTINUOUS
10
-4.844820
20
72.004885
30
0.0
11
-0.000000
21
72.004885
31
0.0
0
LINE
8
0
6
CONTINUOUS
10
4.844830
20
81.506455
30
0.0
11
-0.000000
21
81.506455
31
0.0
0
LINE
8
0
6
CONTINUOUS
10
-0.000000
20
72.004885
30
0.0
11
4.844830
21
72.004885
31
0.0
0
LINE
8
0
6
CONTINUOUS
10
-12.660150
20
81.506455
30
0.0
11
-12.660150
21
72.004885
31
0.0
0
LINE
8
0
6
CONTINUOUS
10
-11.696450
20
81.506455
30
0.0
11
-12.660150
21
81.506455
31
0.0
0
LINE
8
0
6
CONTINUOUS
10
-12.660150
20
72.004885
30
0.0
11
-11.696450
21
72.004885
31
0.0
0
LINE
8
0
6
CONTINUOUS
10
8.952080
20
81.506455
30
0.0
11
4.844830
21
81.506455
31
0.0
0
LINE
8
0
6
CONTINUOUS
10
4.844830
20
72.004885
30
0.0
11
8.952080
21
72.004885
31
0.0
0
LINE
8
0
6
CONTINUOUS
10
-8.952070
20
81.506455
30
0.0
11
-11.696450
21
81.506455
31
0.0
0
LINE
8
0
6
CONTINUOUS
10
-11.696450
20
72.004885
30
0.0
11
-8.952070
21
72.004885
31
0.0
0
LINE
8
0
6
CONTINUOUS
10
-4.844820
20
81.506455
30
0.0
11
-8.952070
21
81.506455
31
0.0
0
LINE
8
0
6
CONTINUOUS
10
-8.952070
20
72.004885
30
0.0
11
-4.844820
21
72.004885
31
0.0
0
LINE
8
0
6
CONTINUOUS
10
11.696460
20
81.506455
30
0.0
11
8.952080
21
81.506455
31
0.0
0
LINE
8
0
6
CONTINUOUS
10
8.952080
20
72.004885
30
0.0
11
11.696450
21
72.004885
31
0.0
0
LINE
8
0
6
CONTINUOUS
10
4.907400
20
82.936422
30
0.0
11
4.907400
21
89.006475
31
0.0
0
LINE
8
0
6
CONTINUOUS
10
-4.907400
20
89.006475
30
0.0
11
-4.907400
21
82.936417
31
0.0
0
LINE
8
0
6
CONTINUOUS
10
4.907400
20
89.006475
30
0.0
11
-4.907400
21
89.006475
31
0.0
0
LINE
8
0
6
CONTINUOUS
10
-12.660150
20
81.506455
30
0.0
11
-11.696450
21
81.506455
31
0.0
0
LINE
8
0
6
CONTINUOUS
10
-10.965760
20
82.386735
30
0.0
11
-12.660150
21
81.506455
31
0.0
0
LINE
8
0
6
CONTINUOUS
10
-11.696450
20
81.506455
30
0.0
11
-8.952070
21
81.506455
31
0.0
0
LINE
8
0
6
CONTINUOUS
10
-8.952070
20
81.506455
30
0.0
11
-4.844820
21
81.506455
31
0.0
0
LINE
8
0
6
CONTINUOUS
10
-4.844820
20
81.506455
30
0.0
11
-0.000000
21
81.506455
31
0.0
0
LINE
8
0
6
CONTINUOUS
10
10.965770
20
82.386735
30
0.0
11
9.815025
21
83.032198
31
0.0
0
LINE
8
0
6
CONTINUOUS
10
-0.000000
20
81.506455
30
0.0
11
4.844830
21
81.506455
31
0.0
0
LINE
8
0
6
CONTINUOUS
10
4.844830
20
81.506455
30
0.0
11
8.952080
21
81.506455
31
0.0
0
LINE
8
0
6
CONTINUOUS
10
8.952080
20
81.506455
30
0.0
11
11.696460
21
81.506455
31
0.0
0
LINE
8
0
6
CONTINUOUS
10
11.696460
20
81.506455
30
0.0
11
12.660150
21
81.506455
31
0.0
0
LINE
8
0
6
CONTINUOUS
10
12.660150
20
81.506455
30
0.0
11
10.965770
21
82.386735
31
0.0
0
LINE
8
0
6
CONTINUOUS
10
-9.814950
20
83.032234
30
0.0
11
-10.965760
21
82.386735
31
0.0
0
LINE
8
0
6
CONTINUOUS
10
9.814950
20
83.032225
30
0.0
11
9.814950
21
89.006475
31
0.0
0
LINE
8
0
6
CONTINUOUS
10
4.907400
20
89.006475
30
0.0
11
4.907400
21
82.936422
31
0.0
0
LINE
8
0
6
CONTINUOUS
10
9.814950
20
89.006475
30
0.0
11
4.907400
21
89.006475
31
0.0
0
LINE
8
0
6
CONTINUOUS
10
-4.907400
20
82.936417
30
0.0
11
-4.907400
21
89.006475
31
0.0
0
LINE
8
0
6
CONTINUOUS
10
-9.814950
20
89.006475
30
0.0
11
-9.814950
21
83.032220
31
0.0
0
LINE
8
0
6
CONTINUOUS
10
-4.907400
20
89.006475
30
0.0
11
-9.814950
21
89.006475
31
0.0
0
LINE
8
0
6
CONTINUOUS
10
4.072811
20
83.201595
30
0.0
11
4.907400
21
82.936422
31
0.0
0
LINE
8
0
6
CONTINUOUS
10
7.920748
20
83.432063
30
0.0
11
9.354288
21
83.201595
31
0.0
0
LINE
8
0
6
CONTINUOUS
10
-6.222408
20
83.376518
30
0.0
11
-7.920749
21
83.432060
31
0.0
0
LINE
8
0
6
CONTINUOUS
10
-5.431611
20
83.201595
30
0.0
11
-6.222408
21
83.376518
31
0.0
0
LINE
8
0
6
CONTINUOUS
10
-4.072794
20
83.201595
30
0.0
11
-3.520815
21
83.278283
31
0.0
0
LINE
8
0
6
CONTINUOUS
10
-4.907400
20
82.936417
30
0.0
11
-5.431611
21
83.201595
31
0.0
0
LINE
8
0
6
CONTINUOUS
10
-7.920749
20
83.432060
30
0.0
11
-9.354272
21
83.201595
31
0.0
0
LINE
8
0
6
CONTINUOUS
10
-4.907400
20
82.936417
30
0.0
11
-4.072794
21
83.201595
31
0.0
0
LINE
8
0
6
CONTINUOUS
10
-21.944790
20
-66.799025
30
0.0
11
-22.144869
21
-63.053005
31
0.0
0
LINE
8
0
6
CONTINUOUS
10
-0.000000
20
83.450054
30
0.0
11
3.520813
21
83.278285
31
0.0
0
LINE
8
0
6
CONTINUOUS
10
-22.144869
20
-73.546055
30
0.0
11
-22.051648
21
-71.800695
31
0.0
0
LINE
8
0
6
CONTINUOUS
10
6.222408
20
83.376521
30
0.0
11
7.920748
21
83.432063
31
0.0
0
LINE
8
0
6
CONTINUOUS
10
3.520813
20
83.278285
30
0.0
11
4.072811
21
83.201595
31
0.0
0
LINE
8
0
6
CONTINUOUS
10
-3.520815
20
83.278283
30
0.0
11
-0.000000
21
83.450054
31
0.0
0
LINE
8
0
6
CONTINUOUS
10
5.431598
20
83.201595
30
0.0
11
6.222408
21
83.376521
31
0.0
0
LINE
8
0
6
CONTINUOUS
10
9.354288
20
83.201595
30
0.0
11
9.814950
21
83.032225
31
0.0
0
ENDSEC
0
EOF
