999
Erzeugt mit innoplus bad 
0
SECTION
2
HEADER
9
$ACADVER
1
AC1009
9
$DWGCODEPAGE
3
ISO8859-1
0
ENDSEC
0
SECTION
2
TABLES
0
TABLE
2
LAYER
70
1
0
LAYER
2
0
70
0
62
7
6
CONTINUOUS
0
ENDTAB
0
ENDSEC
0
SECTION
2
ENTITIES
0
LINE
8
0
6
CONTINUOUS
10
38.260070
20
-78.789290
30
0.0
11
39.622200
21
-78.789290
31
0.0
0
LINE
8
0
6
CONTINUOUS
10
39.622200
20
-78.789290
30
0.0
11
39.622200
21
-71.589300
31
0.0
0
LINE
8
0
6
CONTINUOUS
10
34.381070
20
-78.789290
30
0.0
11
38.260070
21
-78.789290
31
0.0
0
LINE
8
0
6
CONTINUOUS
10
28.575730
20
-78.789290
30
0.0
11
34.381070
21
-78.789290
31
0.0
0
LINE
8
0
6
CONTINUOUS
10
34.381070
20
-78.789290
30
0.0
11
34.381070
21
-71.589300
31
0.0
0
LINE
8
0
6
CONTINUOUS
10
24.322990
20
-78.789290
30
0.0
11
28.575730
21
-78.789290
31
0.0
0
LINE
8
0
6
CONTINUOUS
10
14.879990
20
-78.789290
30
0.0
11
19.416680
21
-78.789290
31
0.0
0
LINE
8
0
6
CONTINUOUS
10
9.074650
20
-78.789290
30
0.0
11
14.879990
21
-78.789290
31
0.0
0
LINE
8
0
6
CONTINUOUS
10
5.195650
20
-78.789290
30
0.0
11
9.074650
21
-78.789290
31
0.0
0
LINE
8
0
6
CONTINUOUS
10
9.074650
20
-78.789290
30
0.0
11
9.074650
21
-71.589300
31
0.0
0
LINE
8
0
6
CONTINUOUS
10
3.833510
20
-78.789290
30
0.0
11
5.195650
21
-78.789290
31
0.0
0
LINE
8
0
6
CONTINUOUS
10
3.833510
20
-71.589300
30
0.0
11
3.833510
21
-78.789290
31
0.0
0
LINE
8
0
6
CONTINUOUS
10
129.318040
20
-78.789300
30
0.0
11
129.318040
21
-71.589300
31
0.0
0
LINE
8
0
6
CONTINUOUS
10
128.091460
20
-78.789300
30
0.0
11
129.318040
21
-78.789300
31
0.0
0
LINE
8
0
6
CONTINUOUS
10
128.091460
20
-78.789300
30
0.0
11
128.091460
21
-71.589300
31
0.0
0
LINE
8
0
6
CONTINUOUS
10
125.638310
20
-78.789300
30
0.0
11
128.091460
21
-78.789300
31
0.0
0
LINE
8
0
6
CONTINUOUS
10
124.411730
20
-71.589300
30
0.0
11
124.411730
21
-78.789300
31
0.0
0
LINE
8
0
6
CONTINUOUS
10
125.638310
20
-78.789300
30
0.0
11
125.638310
21
-71.589300
31
0.0
0
LINE
8
0
6
CONTINUOUS
10
124.411730
20
-78.789300
30
0.0
11
125.638310
21
-78.789300
31
0.0
0
LINE
8
0
6
CONTINUOUS
10
108.319030
20
-78.789300
30
0.0
11
108.319030
21
-71.589300
31
0.0
0
LINE
8
0
6
CONTINUOUS
10
107.092450
20
-78.789300
30
0.0
11
108.319030
21
-78.789300
31
0.0
0
LINE
8
0
6
CONTINUOUS
10
107.092450
20
-78.789300
30
0.0
11
107.092450
21
-71.589300
31
0.0
0
LINE
8
0
6
CONTINUOUS
10
104.639290
20
-78.789300
30
0.0
11
107.092450
21
-78.789300
31
0.0
0
LINE
8
0
6
CONTINUOUS
10
103.412720
20
-71.589300
30
0.0
11
103.412720
21
-78.789300
31
0.0
0
LINE
8
0
6
CONTINUOUS
10
104.639290
20
-78.789300
30
0.0
11
104.639290
21
-71.589300
31
0.0
0
LINE
8
0
6
CONTINUOUS
10
103.412720
20
-78.789300
30
0.0
11
104.639290
21
-78.789300
31
0.0
0
LINE
8
0
6
CONTINUOUS
10
87.320020
20
-78.789300
30
0.0
11
87.320020
21
-71.589300
31
0.0
0
LINE
8
0
6
CONTINUOUS
10
86.093440
20
-78.789300
30
0.0
11
87.320020
21
-78.789300
31
0.0
0
LINE
8
0
6
CONTINUOUS
10
86.093440
20
-78.789300
30
0.0
11
86.093440
21
-71.589300
31
0.0
0
LINE
8
0
6
CONTINUOUS
10
83.640280
20
-78.789300
30
0.0
11
86.093440
21
-78.789300
31
0.0
0
LINE
8
0
6
CONTINUOUS
10
82.413700
20
-71.589300
30
0.0
11
82.413700
21
-78.789300
31
0.0
0
LINE
8
0
6
CONTINUOUS
10
83.640280
20
-78.789300
30
0.0
11
83.640280
21
-71.589300
31
0.0
0
LINE
8
0
6
CONTINUOUS
10
82.413700
20
-78.789300
30
0.0
11
83.640280
21
-78.789300
31
0.0
0
LINE
8
0
6
CONTINUOUS
10
66.321010
20
-78.789300
30
0.0
11
66.321010
21
-71.589300
31
0.0
0
LINE
8
0
6
CONTINUOUS
10
65.094440
20
-78.789300
30
0.0
11
66.321010
21
-78.789300
31
0.0
0
LINE
8
0
6
CONTINUOUS
10
65.094440
20
-78.789300
30
0.0
11
65.094440
21
-71.589300
31
0.0
0
LINE
8
0
6
CONTINUOUS
10
62.641280
20
-78.789300
30
0.0
11
65.094440
21
-78.789300
31
0.0
0
LINE
8
0
6
CONTINUOUS
10
61.414700
20
-71.589300
30
0.0
11
61.414700
21
-78.789300
31
0.0
0
LINE
8
0
6
CONTINUOUS
10
62.641280
20
-78.789300
30
0.0
11
62.641280
21
-71.589300
31
0.0
0
LINE
8
0
6
CONTINUOUS
10
61.414700
20
-78.789300
30
0.0
11
62.641280
21
-78.789300
31
0.0
0
LINE
8
0
6
CONTINUOUS
10
45.322000
20
-78.789300
30
0.0
11
45.322000
21
-71.589300
31
0.0
0
LINE
8
0
6
CONTINUOUS
10
44.095420
20
-78.789300
30
0.0
11
45.322000
21
-78.789300
31
0.0
0
LINE
8
0
6
CONTINUOUS
10
44.095420
20
-78.789300
30
0.0
11
44.095420
21
-71.589300
31
0.0
0
LINE
8
0
6
CONTINUOUS
10
41.642270
20
-78.789300
30
0.0
11
44.095420
21
-78.789300
31
0.0
0
LINE
8
0
6
CONTINUOUS
10
40.415690
20
-71.589300
30
0.0
11
40.415690
21
-78.789300
31
0.0
0
LINE
8
0
6
CONTINUOUS
10
41.642270
20
-78.789300
30
0.0
11
41.642270
21
-71.589300
31
0.0
0
LINE
8
0
6
CONTINUOUS
10
40.415690
20
-78.789300
30
0.0
11
41.642270
21
-78.789300
31
0.0
0
LINE
8
0
6
CONTINUOUS
10
50.218350
20
-78.789300
30
0.0
11
50.218350
21
-71.589300
31
0.0
0
LINE
8
0
6
CONTINUOUS
10
48.991780
20
-78.789300
30
0.0
11
50.218350
21
-78.789300
31
0.0
0
LINE
8
0
6
CONTINUOUS
10
48.991780
20
-78.789300
30
0.0
11
48.991780
21
-71.589300
31
0.0
0
LINE
8
0
6
CONTINUOUS
10
46.538620
20
-78.789300
30
0.0
11
48.991780
21
-78.789300
31
0.0
0
LINE
8
0
6
CONTINUOUS
10
46.538620
20
-78.789300
30
0.0
11
46.538620
21
-71.589300
31
0.0
0
LINE
8
0
6
CONTINUOUS
10
45.312040
20
-78.789300
30
0.0
11
46.538620
21
-78.789300
31
0.0
0
LINE
8
0
6
CONTINUOUS
10
24.322990
20
-78.789300
30
0.0
11
24.322990
21
-71.589300
31
0.0
0
LINE
8
0
6
CONTINUOUS
10
23.096410
20
-78.789300
30
0.0
11
24.322990
21
-78.789300
31
0.0
0
LINE
8
0
6
CONTINUOUS
10
23.096410
20
-78.789300
30
0.0
11
23.096410
21
-71.589300
31
0.0
0
LINE
8
0
6
CONTINUOUS
10
20.643250
20
-78.789300
30
0.0
11
23.096410
21
-78.789300
31
0.0
0
LINE
8
0
6
CONTINUOUS
10
19.416680
20
-71.589300
30
0.0
11
19.416680
21
-78.789290
31
0.0
0
LINE
8
0
6
CONTINUOUS
10
20.643250
20
-78.789300
30
0.0
11
20.643250
21
-71.589300
31
0.0
0
LINE
8
0
6
CONTINUOUS
10
19.416680
20
-78.789300
30
0.0
11
20.643250
21
-78.789300
31
0.0
0
LINE
8
0
6
CONTINUOUS
10
3.323970
20
-78.789300
30
0.0
11
3.323970
21
-71.589300
31
0.0
0
LINE
8
0
6
CONTINUOUS
10
2.097400
20
-78.789300
30
0.0
11
3.323970
21
-78.789300
31
0.0
0
LINE
8
0
6
CONTINUOUS
10
2.097400
20
-78.789300
30
0.0
11
2.097400
21
-71.589300
31
0.0
0
LINE
8
0
6
CONTINUOUS
10
-0.355760
20
-78.789300
30
0.0
11
2.097400
21
-78.789300
31
0.0
0
LINE
8
0
6
CONTINUOUS
10
-1.582340
20
-71.589300
30
0.0
11
-1.582340
21
-78.789300
31
0.0
0
LINE
8
0
6
CONTINUOUS
10
-0.355760
20
-78.789300
30
0.0
11
-0.355760
21
-71.589300
31
0.0
0
LINE
8
0
6
CONTINUOUS
10
-1.582340
20
-78.789300
30
0.0
11
-0.355760
21
-78.789300
31
0.0
0
LINE
8
0
6
CONTINUOUS
10
-1.694740
20
-78.789300
30
0.0
11
-1.694740
21
-71.589300
31
0.0
0
LINE
8
0
6
CONTINUOUS
10
-2.921310
20
-78.789300
30
0.0
11
-1.694740
21
-78.789300
31
0.0
0
LINE
8
0
6
CONTINUOUS
10
-2.921310
20
-78.789300
30
0.0
11
-2.921310
21
-71.589300
31
0.0
0
LINE
8
0
6
CONTINUOUS
10
-5.374470
20
-78.789300
30
0.0
11
-2.921310
21
-78.789300
31
0.0
0
LINE
8
0
6
CONTINUOUS
10
-6.601050
20
-71.589300
30
0.0
11
-6.601050
21
-78.789300
31
0.0
0
LINE
8
0
6
CONTINUOUS
10
-5.374470
20
-78.789300
30
0.0
11
-5.374470
21
-71.589300
31
0.0
0
LINE
8
0
6
CONTINUOUS
10
-6.601050
20
-78.789300
30
0.0
11
-5.374470
21
-78.789300
31
0.0
0
LINE
8
0
6
CONTINUOUS
10
-17.675030
20
-78.789300
30
0.0
11
-17.675030
21
-71.589300
31
0.0
0
LINE
8
0
6
CONTINUOUS
10
-18.901610
20
-78.789300
30
0.0
11
-17.675030
21
-78.789300
31
0.0
0
LINE
8
0
6
CONTINUOUS
10
-18.901610
20
-78.789300
30
0.0
11
-18.901610
21
-71.589300
31
0.0
0
LINE
8
0
6
CONTINUOUS
10
-21.354770
20
-78.789300
30
0.0
11
-18.901610
21
-78.789300
31
0.0
0
LINE
8
0
6
CONTINUOUS
10
-22.581350
20
-71.589300
30
0.0
11
-22.581350
21
-78.789300
31
0.0
0
LINE
8
0
6
CONTINUOUS
10
-21.354770
20
-78.789300
30
0.0
11
-21.354770
21
-71.589300
31
0.0
0
LINE
8
0
6
CONTINUOUS
10
-22.581350
20
-78.789300
30
0.0
11
-21.354770
21
-78.789300
31
0.0
0
LINE
8
0
6
CONTINUOUS
10
-38.674040
20
-78.789300
30
0.0
11
-38.674040
21
-71.589300
31
0.0
0
LINE
8
0
6
CONTINUOUS
10
-39.900610
20
-78.789300
30
0.0
11
-38.674040
21
-78.789300
31
0.0
0
LINE
8
0
6
CONTINUOUS
10
-39.900610
20
-78.789300
30
0.0
11
-39.900610
21
-71.589300
31
0.0
0
LINE
8
0
6
CONTINUOUS
10
-42.353770
20
-78.789300
30
0.0
11
-39.900610
21
-78.789300
31
0.0
0
LINE
8
0
6
CONTINUOUS
10
-43.580350
20
-71.589300
30
0.0
11
-43.580350
21
-78.789300
31
0.0
0
LINE
8
0
6
CONTINUOUS
10
-42.353770
20
-78.789300
30
0.0
11
-42.353770
21
-71.589300
31
0.0
0
LINE
8
0
6
CONTINUOUS
10
-43.580350
20
-78.789300
30
0.0
11
-42.353770
21
-78.789300
31
0.0
0
LINE
8
0
6
CONTINUOUS
10
-59.673050
20
-78.789300
30
0.0
11
-59.673050
21
-71.589300
31
0.0
0
LINE
8
0
6
CONTINUOUS
10
-60.899630
20
-78.789300
30
0.0
11
-59.673050
21
-78.789300
31
0.0
0
LINE
8
0
6
CONTINUOUS
10
-60.899630
20
-78.789300
30
0.0
11
-60.899630
21
-71.589300
31
0.0
0
LINE
8
0
6
CONTINUOUS
10
-63.352780
20
-78.789300
30
0.0
11
-60.899630
21
-78.789300
31
0.0
0
LINE
8
0
6
CONTINUOUS
10
-64.579360
20
-71.589300
30
0.0
11
-64.579360
21
-78.789300
31
0.0
0
LINE
8
0
6
CONTINUOUS
10
-63.352780
20
-78.789300
30
0.0
11
-63.352780
21
-71.589300
31
0.0
0
LINE
8
0
6
CONTINUOUS
10
-64.579360
20
-78.789300
30
0.0
11
-63.352780
21
-78.789300
31
0.0
0
LINE
8
0
6
CONTINUOUS
10
-80.672060
20
-78.789300
30
0.0
11
-80.672060
21
-71.589300
31
0.0
0
LINE
8
0
6
CONTINUOUS
10
-81.898640
20
-78.789300
30
0.0
11
-80.672060
21
-78.789300
31
0.0
0
LINE
8
0
6
CONTINUOUS
10
-81.898640
20
-78.789300
30
0.0
11
-81.898640
21
-71.589300
31
0.0
0
LINE
8
0
6
CONTINUOUS
10
-84.351790
20
-78.789300
30
0.0
11
-81.898640
21
-78.789300
31
0.0
0
LINE
8
0
6
CONTINUOUS
10
-85.578370
20
-71.589300
30
0.0
11
-85.578370
21
-78.789300
31
0.0
0
LINE
8
0
6
CONTINUOUS
10
-84.351790
20
-78.789300
30
0.0
11
-84.351790
21
-71.589300
31
0.0
0
LINE
8
0
6
CONTINUOUS
10
-85.578370
20
-78.789300
30
0.0
11
-84.351790
21
-78.789300
31
0.0
0
LINE
8
0
6
CONTINUOUS
10
-106.130230
20
-80.040120
30
0.0
11
-108.356946
21
-71.589300
31
0.0
0
LINE
8
0
6
CONTINUOUS
10
-107.989770
20
-80.530090
30
0.0
11
-106.130230
21
-80.040120
31
0.0
0
LINE
8
0
6
CONTINUOUS
10
-107.989770
20
-80.530090
30
0.0
11
-110.345587
21
-71.589300
31
0.0
0
LINE
8
0
6
CONTINUOUS
10
-111.708820
20
-81.510030
30
0.0
11
-107.989770
21
-80.530090
31
0.0
0
LINE
8
0
6
CONTINUOUS
10
-116.311465
20
-71.589300
30
0.0
11
-113.568350
21
-82.000000
31
0.0
0
LINE
8
0
6
CONTINUOUS
10
-111.708820
20
-81.510030
30
0.0
11
-114.322842
21
-71.589300
31
0.0
0
LINE
8
0
6
CONTINUOUS
10
-113.568350
20
-82.000000
30
0.0
11
-111.708820
21
-81.510030
31
0.0
0
LINE
8
0
6
CONTINUOUS
10
-69.854010
20
-40.807160
30
0.0
11
-110.897350
21
-46.033720
31
0.0
0
LINE
8
0
6
CONTINUOUS
10
-12.294390
20
-37.164774
30
0.0
11
-29.696500
21
-38.075290
31
0.0
0
LINE
8
0
6
CONTINUOUS
10
22.516370
20
-71.589290
30
0.0
11
-30.066410
21
-71.589290
31
0.0
0
LINE
8
0
6
CONTINUOUS
10
-70.604640
20
-53.289310
30
0.0
11
-30.066400
21
-53.289310
31
0.0
0
LINE
8
0
6
CONTINUOUS
10
-70.017860
20
-41.020470
30
0.0
11
-110.897370
21
-46.033670
31
0.0
0
LINE
8
0
6
CONTINUOUS
10
-110.897370
20
-46.033670
30
0.0
11
-137.954870
21
-50.812390
31
0.0
0
LINE
8
0
6
CONTINUOUS
10
-148.885830
20
-53.060240
30
0.0
11
-149.999990
21
-53.289290
31
0.0
0
LINE
8
0
6
CONTINUOUS
10
149.021690
20
-53.060420
30
0.0
11
139.197820
21
-50.736120
31
0.0
0
LINE
8
0
6
CONTINUOUS
10
150.000000
20
-53.289290
30
0.0
11
149.018580
21
-53.074250
31
0.0
0
LINE
8
0
6
CONTINUOUS
10
116.767290
20
-53.289290
30
0.0
11
140.034590
21
-53.289290
31
0.0
0
LINE
8
0
6
CONTINUOUS
10
-138.563680
20
-53.289310
30
0.0
11
-111.142630
21
-53.289300
31
0.0
0
LINE
8
0
6
CONTINUOUS
10
150.000010
20
-54.289300
30
0.0
11
150.000000
21
-53.289290
31
0.0
0
LINE
8
0
6
CONTINUOUS
10
149.241430
20
-53.289300
30
0.0
11
150.000000
21
-53.289290
31
0.0
0
LINE
8
0
6
CONTINUOUS
10
148.318300
20
-53.289300
30
0.0
11
149.241430
21
-53.289300
31
0.0
0
LINE
8
0
6
CONTINUOUS
10
149.241430
20
-53.289300
30
0.0
11
147.081210
21
-53.289300
31
0.0
0
LINE
8
0
6
CONTINUOUS
10
147.081210
20
-53.289300
30
0.0
11
148.318300
21
-53.289300
31
0.0
0
LINE
8
0
6
CONTINUOUS
10
147.081210
20
-54.289300
30
0.0
11
147.081210
21
-53.289300
31
0.0
0
LINE
8
0
6
CONTINUOUS
10
143.848180
20
-53.289300
30
0.0
11
147.081210
21
-53.289300
31
0.0
0
LINE
8
0
6
CONTINUOUS
10
143.848190
20
-54.289300
30
0.0
11
143.848180
21
-53.289300
31
0.0
0
LINE
8
0
6
CONTINUOUS
10
143.848180
20
-53.289300
30
0.0
11
140.034590
21
-53.289290
31
0.0
0
LINE
8
0
6
CONTINUOUS
10
-149.999950
20
-53.289290
30
0.0
11
-149.999930
21
-54.289300
31
0.0
0
LINE
8
0
6
CONTINUOUS
10
-149.999950
20
-53.289290
30
0.0
11
-149.136190
21
-53.289300
31
0.0
0
LINE
8
0
6
CONTINUOUS
10
-148.857790
20
-53.231130
30
0.0
11
-149.999950
21
-53.289290
31
0.0
0
LINE
8
0
6
CONTINUOUS
10
-149.136190
20
-53.289300
30
0.0
11
-149.136190
21
-54.289300
31
0.0
0
LINE
8
0
6
CONTINUOUS
10
-145.855170
20
-53.230710
30
0.0
11
-149.136190
21
-53.289300
31
0.0
0
LINE
8
0
6
CONTINUOUS
10
-149.136190
20
-53.289300
30
0.0
11
-146.670020
21
-53.289290
31
0.0
0
LINE
8
0
6
CONTINUOUS
10
-146.670020
20
-53.289290
30
0.0
11
-142.962230
21
-53.289300
31
0.0
0
LINE
8
0
6
CONTINUOUS
10
-138.572740
20
-53.231610
30
0.0
11
-142.962230
21
-53.289300
31
0.0
0
LINE
8
0
6
CONTINUOUS
10
-142.962230
20
-53.289300
30
0.0
11
-138.563680
21
-53.289310
31
0.0
0
LINE
8
0
6
CONTINUOUS
10
116.767290
20
-53.289290
30
0.0
11
83.017300
21
-53.289290
31
0.0
0
LINE
8
0
6
CONTINUOUS
10
-148.886940
20
-53.056140
30
0.0
11
-149.999970
21
-53.289310
31
0.0
0
LINE
8
0
6
CONTINUOUS
10
150.000000
20
-53.289300
30
0.0
11
149.021690
21
-53.060420
31
0.0
0
LINE
8
0
6
CONTINUOUS
10
83.017300
20
-53.289290
30
0.0
11
22.516370
21
-53.289300
31
0.0
0
LINE
8
0
6
CONTINUOUS
10
22.516370
20
-53.289300
30
0.0
11
-30.066400
21
-53.289310
31
0.0
0
LINE
8
0
6
CONTINUOUS
10
-70.604640
20
-53.289310
30
0.0
11
-111.142630
21
-53.289300
31
0.0
0
LINE
8
0
6
CONTINUOUS
10
143.848190
20
-71.589290
30
0.0
11
140.034590
21
-71.589290
31
0.0
0
LINE
8
0
6
CONTINUOUS
10
143.848190
20
-71.089300
30
0.0
11
143.848190
21
-71.589290
31
0.0
0
LINE
8
0
6
CONTINUOUS
10
147.081200
20
-71.589290
30
0.0
11
143.848190
21
-71.589290
31
0.0
0
LINE
8
0
6
CONTINUOUS
10
147.081210
20
-71.089300
30
0.0
11
147.081200
21
-71.589290
31
0.0
0
LINE
8
0
6
CONTINUOUS
10
149.241430
20
-71.589290
30
0.0
11
147.081200
21
-71.589290
31
0.0
0
LINE
8
0
6
CONTINUOUS
10
150.000000
20
-71.589290
30
0.0
11
150.000010
21
-71.089300
31
0.0
0
LINE
8
0
6
CONTINUOUS
10
150.000000
20
-71.589290
30
0.0
11
149.241430
21
-71.589290
31
0.0
0
LINE
8
0
6
CONTINUOUS
10
-138.563720
20
-71.589290
30
0.0
11
-111.142630
21
-71.589290
31
0.0
0
LINE
8
0
6
CONTINUOUS
10
-111.142630
20
-71.589290
30
0.0
11
-70.604660
21
-71.589290
31
0.0
0
LINE
8
0
6
CONTINUOUS
10
-70.604660
20
-71.589290
30
0.0
11
-30.066410
21
-71.589290
31
0.0
0
LINE
8
0
6
CONTINUOUS
10
22.516370
20
-71.589290
30
0.0
11
83.017300
21
-71.589290
31
0.0
0
LINE
8
0
6
CONTINUOUS
10
116.767290
20
-71.589290
30
0.0
11
140.034590
21
-71.589290
31
0.0
0
LINE
8
0
6
CONTINUOUS
10
83.017300
20
-71.589290
30
0.0
11
116.767290
21
-71.589290
31
0.0
0
LINE
8
0
6
CONTINUOUS
10
-142.962250
20
-71.589290
30
0.0
11
-138.563720
21
-71.589290
31
0.0
0
LINE
8
0
6
CONTINUOUS
10
-146.669990
20
-71.589290
30
0.0
11
-142.962250
21
-71.589290
31
0.0
0
LINE
8
0
6
CONTINUOUS
10
-149.136170
20
-71.589290
30
0.0
11
-146.669990
21
-71.589290
31
0.0
0
LINE
8
0
6
CONTINUOUS
10
-149.136170
20
-71.589290
30
0.0
11
-149.136170
21
-71.089300
31
0.0
0
LINE
8
0
6
CONTINUOUS
10
-149.999990
20
-71.589290
30
0.0
11
-149.136170
21
-71.589290
31
0.0
0
LINE
8
0
6
CONTINUOUS
10
-149.999990
20
-71.089300
30
0.0
11
-149.999990
21
-71.589290
31
0.0
0
LINE
8
0
6
CONTINUOUS
10
149.022680
20
-53.056200
30
0.0
11
139.130530
21
-50.696880
31
0.0
0
LINE
8
0
6
CONTINUOUS
10
-137.926380
20
-50.780330
30
0.0
11
-148.886940
21
-53.056140
31
0.0
0
LINE
8
0
6
CONTINUOUS
10
150.000010
20
-71.089300
30
0.0
11
150.000010
21
-54.289300
31
0.0
0
LINE
8
0
6
CONTINUOUS
10
-110.892040
20
-46.197720
30
0.0
11
-137.926380
21
-50.780330
31
0.0
0
LINE
8
0
6
CONTINUOUS
10
-149.999930
20
-54.289300
30
0.0
11
-149.999990
21
-71.089300
31
0.0
0
LINE
8
0
6
CONTINUOUS
10
-149.136170
20
-71.089300
30
0.0
11
-149.136190
21
-54.289300
31
0.0
0
LINE
8
0
6
CONTINUOUS
10
147.081210
20
-71.089300
30
0.0
11
147.081210
21
-54.289300
31
0.0
0
LINE
8
0
6
CONTINUOUS
10
143.848190
20
-54.289300
30
0.0
11
143.848190
21
-71.089300
31
0.0
0
LINE
8
0
6
CONTINUOUS
10
139.197820
20
-50.736120
30
0.0
11
116.528230
21
-46.042530
31
0.0
0
LINE
8
0
6
CONTINUOUS
10
-110.897350
20
-46.033720
30
0.0
11
-137.972230
21
-50.812680
31
0.0
0
LINE
8
0
6
CONTINUOUS
10
-29.696500
20
-38.075290
30
0.0
11
-69.854010
21
-40.807160
31
0.0
0
LINE
8
0
6
CONTINUOUS
10
82.435250
20
-40.150270
30
0.0
11
57.329080
21
-38.136179
31
0.0
0
LINE
8
0
6
CONTINUOUS
10
116.528230
20
-46.042530
30
0.0
11
82.435250
21
-40.150270
31
0.0
0
LINE
8
0
6
CONTINUOUS
10
149.533190
20
-72.789310
30
0.0
11
148.777260
21
-72.789310
31
0.0
0
LINE
8
0
6
CONTINUOUS
10
149.533190
20
-73.289310
30
0.0
11
149.533190
21
-72.789310
31
0.0
0
LINE
8
0
6
CONTINUOUS
10
148.777260
20
-72.789310
30
0.0
11
146.624480
21
-72.789310
31
0.0
0
LINE
8
0
6
CONTINUOUS
10
146.624480
20
-72.789310
30
0.0
11
143.402650
21
-72.789310
31
0.0
0
LINE
8
0
6
CONTINUOUS
10
143.402650
20
-72.789310
30
0.0
11
139.602230
21
-72.789310
31
0.0
0
LINE
8
0
6
CONTINUOUS
10
143.402640
20
-73.289310
30
0.0
11
143.402650
21
-72.789310
31
0.0
0
LINE
8
0
6
CONTINUOUS
10
-149.468580
20
-72.789310
30
0.0
11
-149.468540
21
-73.289310
31
0.0
0
LINE
8
0
6
CONTINUOUS
10
-148.607050
20
-72.789310
30
0.0
11
-149.468580
21
-72.789310
31
0.0
0
LINE
8
0
6
CONTINUOUS
10
-148.607050
20
-72.789310
30
0.0
11
-148.607050
21
-73.289310
31
0.0
0
LINE
8
0
6
CONTINUOUS
10
-146.147450
20
-72.789310
30
0.0
11
-148.607050
21
-72.789310
31
0.0
0
LINE
8
0
6
CONTINUOUS
10
-142.449730
20
-72.789310
30
0.0
11
-146.147450
21
-72.789310
31
0.0
0
LINE
8
0
6
CONTINUOUS
10
-138.063380
20
-72.789310
30
0.0
11
-142.449730
21
-72.789310
31
0.0
0
LINE
8
0
6
CONTINUOUS
10
139.602230
20
-72.789310
30
0.0
11
-138.063380
21
-72.789310
31
0.0
0
LINE
8
0
6
CONTINUOUS
10
-138.063400
20
-76.789300
30
0.0
11
139.602230
21
-76.789300
31
0.0
0
LINE
8
0
6
CONTINUOUS
10
149.533190
20
-76.789300
30
0.0
11
149.533190
21
-76.289300
31
0.0
0
LINE
8
0
6
CONTINUOUS
10
148.777260
20
-76.789300
30
0.0
11
149.533190
21
-76.789300
31
0.0
0
LINE
8
0
6
CONTINUOUS
10
146.624480
20
-76.789300
30
0.0
11
148.777260
21
-76.789300
31
0.0
0
LINE
8
0
6
CONTINUOUS
10
143.402650
20
-76.789300
30
0.0
11
146.624480
21
-76.789300
31
0.0
0
LINE
8
0
6
CONTINUOUS
10
143.402650
20
-76.789300
30
0.0
11
143.402640
21
-76.289300
31
0.0
0
LINE
8
0
6
CONTINUOUS
10
139.602230
20
-76.789300
30
0.0
11
143.402650
21
-76.789300
31
0.0
0
LINE
8
0
6
CONTINUOUS
10
-149.468540
20
-76.289300
30
0.0
11
-149.468540
21
-76.789300
31
0.0
0
LINE
8
0
6
CONTINUOUS
10
-149.468540
20
-76.789300
30
0.0
11
-148.607010
21
-76.789300
31
0.0
0
LINE
8
0
6
CONTINUOUS
10
-148.607050
20
-76.289300
30
0.0
11
-148.607010
21
-76.789300
31
0.0
0
LINE
8
0
6
CONTINUOUS
10
-148.607010
20
-76.789300
30
0.0
11
-146.147450
21
-76.789300
31
0.0
0
LINE
8
0
6
CONTINUOUS
10
-146.147450
20
-76.789300
30
0.0
11
-142.449710
21
-76.789300
31
0.0
0
LINE
8
0
6
CONTINUOUS
10
-142.449710
20
-76.789300
30
0.0
11
-138.063400
21
-76.789300
31
0.0
0
LINE
8
0
6
CONTINUOUS
10
-149.468540
20
-73.289310
30
0.0
11
-149.468540
21
-76.289300
31
0.0
0
LINE
8
0
6
CONTINUOUS
10
-148.607050
20
-73.289310
30
0.0
11
-148.607050
21
-76.289300
31
0.0
0
LINE
8
0
6
CONTINUOUS
10
149.533190
20
-76.289300
30
0.0
11
149.533190
21
-73.289310
31
0.0
0
LINE
8
0
6
CONTINUOUS
10
143.402640
20
-73.289310
30
0.0
11
143.402640
21
-76.289300
31
0.0
0
LINE
8
0
6
CONTINUOUS
10
146.624480
20
-76.289300
30
0.0
11
146.624480
21
-73.289310
31
0.0
0
LINE
8
0
6
CONTINUOUS
10
-53.982450
20
70.000000
30
0.0
11
99.017150
21
70.000000
31
0.0
0
LINE
8
0
6
CONTINUOUS
10
100.517350
20
71.494910
30
0.0
11
100.517350
21
80.505080
31
0.0
0
LINE
8
0
6
CONTINUOUS
10
99.017150
20
82.000000
30
0.0
11
-53.982450
21
82.000000
31
0.0
0
LINE
8
0
6
CONTINUOUS
10
-55.482650
20
80.505080
30
0.0
11
-55.482650
21
71.494910
31
0.0
0
LINE
8
0
6
CONTINUOUS
10
100.517350
20
70.000000
30
0.0
11
100.517350
21
71.494910
31
0.0
0
LINE
8
0
6
CONTINUOUS
10
99.017150
20
70.000000
30
0.0
11
100.517350
21
70.000000
31
0.0
0
LINE
8
0
6
CONTINUOUS
10
100.517350
20
82.000000
30
0.0
11
99.017150
21
82.000000
31
0.0
0
LINE
8
0
6
CONTINUOUS
10
100.517350
20
80.505080
30
0.0
11
100.517350
21
82.000000
31
0.0
0
LINE
8
0
6
CONTINUOUS
10
-55.482650
20
82.000000
30
0.0
11
-55.482650
21
80.505080
31
0.0
0
LINE
8
0
6
CONTINUOUS
10
-53.982450
20
82.000000
30
0.0
11
-55.482650
21
82.000000
31
0.0
0
LINE
8
0
6
CONTINUOUS
10
-55.482650
20
70.000000
30
0.0
11
-53.982450
21
70.000000
31
0.0
0
LINE
8
0
6
CONTINUOUS
10
-55.482650
20
71.494910
30
0.0
11
-55.482650
21
70.000000
31
0.0
0
LINE
8
0
6
CONTINUOUS
10
44.017350
20
-22.789280
30
0.0
11
44.017350
21
70.000000
31
0.0
0
LINE
8
0
6
CONTINUOUS
10
1.017350
20
70.000000
30
0.0
11
1.017350
21
-22.789280
31
0.0
0
LINE
8
0
6
CONTINUOUS
10
44.017350
20
-23.789280
30
0.0
11
44.017350
21
-22.789280
31
0.0
0
LINE
8
0
6
CONTINUOUS
10
1.017350
20
-22.789280
30
0.0
11
1.017350
21
-23.789280
31
0.0
0
LINE
8
0
6
CONTINUOUS
10
51.048400
20
-33.679280
30
0.0
11
51.048400
21
-24.789290
31
0.0
0
LINE
8
0
6
CONTINUOUS
10
-6.013700
20
-24.789290
30
0.0
11
-6.013700
21
-33.679280
31
0.0
0
LINE
8
0
6
CONTINUOUS
10
-4.783890
20
-34.679270
30
0.0
11
-8.702520
21
-34.679280
31
0.0
0
LINE
8
0
6
CONTINUOUS
10
1.621890
20
-34.679280
30
0.0
11
-4.783890
21
-34.679270
31
0.0
0
LINE
8
0
6
CONTINUOUS
10
57.329080
20
-38.136179
30
0.0
11
57.329080
21
-35.679280
31
0.0
0
LINE
8
0
6
CONTINUOUS
10
-12.294390
20
-35.679280
30
0.0
11
-12.294390
21
-37.164774
31
0.0
0
LINE
8
0
6
CONTINUOUS
10
51.048400
20
-24.789290
30
0.0
11
51.048400
21
-23.789280
31
0.0
0
LINE
8
0
6
CONTINUOUS
10
51.048400
20
-23.789280
30
0.0
11
48.876610
21
-23.789280
31
0.0
0
LINE
8
0
6
CONTINUOUS
10
48.876610
20
-23.789280
30
0.0
11
42.691850
21
-23.789280
31
0.0
0
LINE
8
0
6
CONTINUOUS
10
42.691850
20
-23.789280
30
0.0
11
33.435710
21
-23.789280
31
0.0
0
LINE
8
0
6
CONTINUOUS
10
33.435710
20
-23.789280
30
0.0
11
22.517350
21
-23.789280
31
0.0
0
LINE
8
0
6
CONTINUOUS
10
22.517350
20
-23.789280
30
0.0
11
11.598990
21
-23.789280
31
0.0
0
LINE
8
0
6
CONTINUOUS
10
11.598990
20
-23.789280
30
0.0
11
2.342850
21
-23.789280
31
0.0
0
LINE
8
0
6
CONTINUOUS
10
2.342850
20
-23.789280
30
0.0
11
-3.841910
21
-23.789280
31
0.0
0
LINE
8
0
6
CONTINUOUS
10
-6.013700
20
-23.789280
30
0.0
11
-6.013700
21
-24.789290
31
0.0
0
LINE
8
0
6
CONTINUOUS
10
-3.841910
20
-23.789280
30
0.0
11
-6.013700
21
-23.789280
31
0.0
0
LINE
8
0
6
CONTINUOUS
10
51.048400
20
-34.679280
30
0.0
11
51.048400
21
-33.679280
31
0.0
0
LINE
8
0
6
CONTINUOUS
10
-6.013700
20
-33.679280
30
0.0
11
-6.013700
21
-34.679280
31
0.0
0
LINE
8
0
6
CONTINUOUS
10
57.329080
20
-35.679280
30
0.0
11
57.329080
21
-34.679280
31
0.0
0
LINE
8
0
6
CONTINUOUS
10
57.329080
20
-34.679280
30
0.0
11
54.679200
21
-34.679280
31
0.0
0
LINE
8
0
6
CONTINUOUS
10
54.679200
20
-34.679280
30
0.0
11
47.132960
21
-34.679280
31
0.0
0
LINE
8
0
6
CONTINUOUS
10
47.132960
20
-34.679280
30
0.0
11
35.839220
21
-34.679280
31
0.0
0
LINE
8
0
6
CONTINUOUS
10
35.839220
20
-34.679280
30
0.0
11
22.517350
21
-34.679280
31
0.0
0
LINE
8
0
6
CONTINUOUS
10
22.517350
20
-34.679280
30
0.0
11
9.195470
21
-34.679280
31
0.0
0
LINE
8
0
6
CONTINUOUS
10
9.195470
20
-34.679280
30
0.0
11
-2.098260
21
-34.679280
31
0.0
0
LINE
8
0
6
CONTINUOUS
10
-2.098260
20
-34.679280
30
0.0
11
-9.644500
21
-34.679280
31
0.0
0
LINE
8
0
6
CONTINUOUS
10
-12.294390
20
-34.679280
30
0.0
11
-12.294390
21
-35.679280
31
0.0
0
LINE
8
0
6
CONTINUOUS
10
-9.644500
20
-34.679280
30
0.0
11
-12.294390
21
-34.679280
31
0.0
0
LINE
8
0
6
CONTINUOUS
10
35.839220
20
-37.114997
30
0.0
11
47.132960
21
-37.651464
31
0.0
0
LINE
8
0
6
CONTINUOUS
10
9.195470
20
-36.932778
30
0.0
11
22.517350
21
-36.309263
31
0.0
0
LINE
8
0
6
CONTINUOUS
10
-2.098260
20
-37.314316
30
0.0
11
9.195470
21
-36.932778
31
0.0
0
LINE
8
0
6
CONTINUOUS
10
22.521005
20
-36.309052
30
0.0
11
35.839220
21
-37.114997
31
0.0
0
ENDSEC
0
EOF
