999
Erzeugt mit innoplus bad 
0
SECTION
2
HEADER
9
$ACADVER
1
AC1009
9
$DWGCODEPAGE
3
ISO8859-1
0
ENDSEC
0
SECTION
2
TABLES
0
TABLE
2
LAYER
70
1
0
LAYER
2
0
70
0
62
7
6
CONTINUOUS
0
ENDTAB
0
ENDSEC
0
SECTION
2
ENTITIES
0
LINE
8
0
6
CONTINUOUS
10
-105.000310
20
-40.833350
30
0.0
11
-102.402230
21
-40.833350
31
0.0
0
LINE
8
0
6
CONTINUOUS
10
-102.402230
20
-40.833350
30
0.0
11
-102.402230
21
-38.999820
31
0.0
0
LINE
8
0
6
CONTINUOUS
10
-102.402230
20
-38.999820
30
0.0
11
-102.402230
21
-34.999740
31
0.0
0
LINE
8
0
6
CONTINUOUS
10
-102.402230
20
-34.999740
30
0.0
11
-102.402230
21
-34.899760
31
0.0
0
LINE
8
0
6
CONTINUOUS
10
-107.598380
20
-40.833350
30
0.0
11
-105.000310
21
-40.833350
31
0.0
0
LINE
8
0
6
CONTINUOUS
10
-107.598380
20
-34.899760
30
0.0
11
-107.598380
21
-40.833350
31
0.0
0
LINE
8
0
6
CONTINUOUS
10
-105.000310
20
-40.833350
30
0.0
11
-105.000310
21
-38.999820
31
0.0
0
LINE
8
0
6
CONTINUOUS
10
-105.000310
20
-38.999820
30
0.0
11
-105.000310
21
-34.999740
31
0.0
0
LINE
8
0
6
CONTINUOUS
10
-105.000310
20
-34.999740
30
0.0
11
-105.000310
21
-34.899760
31
0.0
0
LINE
8
0
6
CONTINUOUS
10
-84.007850
20
-40.833350
30
0.0
11
-81.409780
21
-40.833350
31
0.0
0
LINE
8
0
6
CONTINUOUS
10
-81.409780
20
-40.833350
30
0.0
11
-81.409780
21
-38.999820
31
0.0
0
LINE
8
0
6
CONTINUOUS
10
-81.409780
20
-38.999820
30
0.0
11
-81.409780
21
-34.999740
31
0.0
0
LINE
8
0
6
CONTINUOUS
10
-81.409780
20
-34.999740
30
0.0
11
-81.409780
21
-34.899760
31
0.0
0
LINE
8
0
6
CONTINUOUS
10
-86.605930
20
-40.833350
30
0.0
11
-84.007850
21
-40.833350
31
0.0
0
LINE
8
0
6
CONTINUOUS
10
-86.605930
20
-34.899760
30
0.0
11
-86.605930
21
-40.833350
31
0.0
0
LINE
8
0
6
CONTINUOUS
10
-84.007850
20
-40.833350
30
0.0
11
-84.007850
21
-38.999820
31
0.0
0
LINE
8
0
6
CONTINUOUS
10
-84.007850
20
-38.999820
30
0.0
11
-84.007850
21
-34.999740
31
0.0
0
LINE
8
0
6
CONTINUOUS
10
-84.007850
20
-34.999740
30
0.0
11
-84.007850
21
-34.899760
31
0.0
0
LINE
8
0
6
CONTINUOUS
10
-63.015400
20
-40.833350
30
0.0
11
-60.417320
21
-40.833350
31
0.0
0
LINE
8
0
6
CONTINUOUS
10
-60.417320
20
-40.833350
30
0.0
11
-60.417320
21
-38.999820
31
0.0
0
LINE
8
0
6
CONTINUOUS
10
-60.417320
20
-38.999820
30
0.0
11
-60.417320
21
-34.999740
31
0.0
0
LINE
8
0
6
CONTINUOUS
10
-60.417320
20
-34.999740
30
0.0
11
-60.417320
21
-34.899760
31
0.0
0
LINE
8
0
6
CONTINUOUS
10
-65.613470
20
-40.833350
30
0.0
11
-63.015400
21
-40.833350
31
0.0
0
LINE
8
0
6
CONTINUOUS
10
-65.613470
20
-34.899760
30
0.0
11
-65.613470
21
-40.833350
31
0.0
0
LINE
8
0
6
CONTINUOUS
10
-63.015400
20
-40.833350
30
0.0
11
-63.015400
21
-38.999820
31
0.0
0
LINE
8
0
6
CONTINUOUS
10
-63.015400
20
-38.999820
30
0.0
11
-63.015400
21
-34.999740
31
0.0
0
LINE
8
0
6
CONTINUOUS
10
-63.015400
20
-34.999740
30
0.0
11
-63.015400
21
-34.899760
31
0.0
0
LINE
8
0
6
CONTINUOUS
10
-42.022940
20
-40.833350
30
0.0
11
-39.424870
21
-40.833350
31
0.0
0
LINE
8
0
6
CONTINUOUS
10
-39.424870
20
-40.833350
30
0.0
11
-39.424870
21
-38.999820
31
0.0
0
LINE
8
0
6
CONTINUOUS
10
-39.424870
20
-38.999820
30
0.0
11
-39.424870
21
-34.999740
31
0.0
0
LINE
8
0
6
CONTINUOUS
10
-39.424870
20
-34.999740
30
0.0
11
-39.424870
21
-34.899760
31
0.0
0
LINE
8
0
6
CONTINUOUS
10
-44.621020
20
-40.833350
30
0.0
11
-42.022940
21
-40.833350
31
0.0
0
LINE
8
0
6
CONTINUOUS
10
-44.621020
20
-34.899760
30
0.0
11
-44.621020
21
-40.833350
31
0.0
0
LINE
8
0
6
CONTINUOUS
10
-42.022940
20
-40.833350
30
0.0
11
-42.022940
21
-38.999820
31
0.0
0
LINE
8
0
6
CONTINUOUS
10
-42.022940
20
-38.999820
30
0.0
11
-42.022940
21
-34.999740
31
0.0
0
LINE
8
0
6
CONTINUOUS
10
-42.022940
20
-34.999740
30
0.0
11
-42.022940
21
-34.899760
31
0.0
0
LINE
8
0
6
CONTINUOUS
10
-21.030490
20
-40.833350
30
0.0
11
-18.432420
21
-40.833350
31
0.0
0
LINE
8
0
6
CONTINUOUS
10
-18.432420
20
-40.833350
30
0.0
11
-18.432420
21
-38.999820
31
0.0
0
LINE
8
0
6
CONTINUOUS
10
-18.432420
20
-38.999820
30
0.0
11
-18.432420
21
-34.999740
31
0.0
0
LINE
8
0
6
CONTINUOUS
10
-18.432420
20
-34.999740
30
0.0
11
-18.432420
21
-34.899760
31
0.0
0
LINE
8
0
6
CONTINUOUS
10
-23.628570
20
-40.833350
30
0.0
11
-21.030490
21
-40.833350
31
0.0
0
LINE
8
0
6
CONTINUOUS
10
-23.628570
20
-34.899760
30
0.0
11
-23.628570
21
-40.833350
31
0.0
0
LINE
8
0
6
CONTINUOUS
10
-21.030490
20
-40.833350
30
0.0
11
-21.030490
21
-38.999820
31
0.0
0
LINE
8
0
6
CONTINUOUS
10
-21.030490
20
-38.999820
30
0.0
11
-21.030490
21
-34.999740
31
0.0
0
LINE
8
0
6
CONTINUOUS
10
-21.030490
20
-34.999740
30
0.0
11
-21.030490
21
-34.899760
31
0.0
0
LINE
8
0
6
CONTINUOUS
10
-0.038040
20
-40.833350
30
0.0
11
2.560030
21
-40.833350
31
0.0
0
LINE
8
0
6
CONTINUOUS
10
2.560030
20
-40.833350
30
0.0
11
2.560030
21
-38.999820
31
0.0
0
LINE
8
0
6
CONTINUOUS
10
2.560030
20
-38.999820
30
0.0
11
2.560030
21
-34.999740
31
0.0
0
LINE
8
0
6
CONTINUOUS
10
2.560030
20
-34.999740
30
0.0
11
2.560030
21
-34.899760
31
0.0
0
LINE
8
0
6
CONTINUOUS
10
-2.636120
20
-40.833350
30
0.0
11
-0.038040
21
-40.833350
31
0.0
0
LINE
8
0
6
CONTINUOUS
10
-2.636120
20
-34.899760
30
0.0
11
-2.636120
21
-40.833350
31
0.0
0
LINE
8
0
6
CONTINUOUS
10
-0.038040
20
-40.833350
30
0.0
11
-0.038040
21
-38.999820
31
0.0
0
LINE
8
0
6
CONTINUOUS
10
-0.038040
20
-38.999820
30
0.0
11
-0.038040
21
-34.999740
31
0.0
0
LINE
8
0
6
CONTINUOUS
10
-0.038040
20
-34.999740
30
0.0
11
-0.038040
21
-34.899760
31
0.0
0
LINE
8
0
6
CONTINUOUS
10
20.954410
20
-40.833350
30
0.0
11
23.552480
21
-40.833350
31
0.0
0
LINE
8
0
6
CONTINUOUS
10
23.552480
20
-40.833350
30
0.0
11
23.552480
21
-38.999820
31
0.0
0
LINE
8
0
6
CONTINUOUS
10
23.552480
20
-38.999820
30
0.0
11
23.552480
21
-34.999740
31
0.0
0
LINE
8
0
6
CONTINUOUS
10
23.552480
20
-34.999740
30
0.0
11
23.552480
21
-34.899760
31
0.0
0
LINE
8
0
6
CONTINUOUS
10
18.356330
20
-40.833350
30
0.0
11
20.954410
21
-40.833350
31
0.0
0
LINE
8
0
6
CONTINUOUS
10
18.356330
20
-34.899760
30
0.0
11
18.356330
21
-40.833350
31
0.0
0
LINE
8
0
6
CONTINUOUS
10
20.954410
20
-40.833350
30
0.0
11
20.954410
21
-38.999820
31
0.0
0
LINE
8
0
6
CONTINUOUS
10
20.954410
20
-38.999820
30
0.0
11
20.954410
21
-34.999740
31
0.0
0
LINE
8
0
6
CONTINUOUS
10
20.954410
20
-34.999740
30
0.0
11
20.954410
21
-34.899760
31
0.0
0
LINE
8
0
6
CONTINUOUS
10
41.946860
20
-40.833350
30
0.0
11
44.544940
21
-40.833350
31
0.0
0
LINE
8
0
6
CONTINUOUS
10
44.544940
20
-40.833350
30
0.0
11
44.544940
21
-38.999820
31
0.0
0
LINE
8
0
6
CONTINUOUS
10
44.544940
20
-38.999820
30
0.0
11
44.544940
21
-34.999740
31
0.0
0
LINE
8
0
6
CONTINUOUS
10
44.544940
20
-34.999740
30
0.0
11
44.544940
21
-34.899760
31
0.0
0
LINE
8
0
6
CONTINUOUS
10
39.348780
20
-40.833350
30
0.0
11
41.946860
21
-40.833350
31
0.0
0
LINE
8
0
6
CONTINUOUS
10
39.348780
20
-34.899760
30
0.0
11
39.348780
21
-40.833350
31
0.0
0
LINE
8
0
6
CONTINUOUS
10
41.946860
20
-40.833350
30
0.0
11
41.946860
21
-38.999820
31
0.0
0
LINE
8
0
6
CONTINUOUS
10
41.946860
20
-38.999820
30
0.0
11
41.946860
21
-34.999740
31
0.0
0
LINE
8
0
6
CONTINUOUS
10
41.946860
20
-34.999740
30
0.0
11
41.946860
21
-34.899760
31
0.0
0
LINE
8
0
6
CONTINUOUS
10
62.939320
20
-40.833350
30
0.0
11
65.537400
21
-40.833350
31
0.0
0
LINE
8
0
6
CONTINUOUS
10
65.537400
20
-40.833350
30
0.0
11
65.537400
21
-38.999820
31
0.0
0
LINE
8
0
6
CONTINUOUS
10
65.537400
20
-38.999820
30
0.0
11
65.537400
21
-34.999740
31
0.0
0
LINE
8
0
6
CONTINUOUS
10
65.537400
20
-34.999740
30
0.0
11
65.537400
21
-34.899760
31
0.0
0
LINE
8
0
6
CONTINUOUS
10
60.341240
20
-40.833350
30
0.0
11
62.939320
21
-40.833350
31
0.0
0
LINE
8
0
6
CONTINUOUS
10
60.341240
20
-34.899760
30
0.0
11
60.341240
21
-40.833350
31
0.0
0
LINE
8
0
6
CONTINUOUS
10
62.939320
20
-40.833350
30
0.0
11
62.939320
21
-38.999820
31
0.0
0
LINE
8
0
6
CONTINUOUS
10
62.939320
20
-38.999820
30
0.0
11
62.939320
21
-34.999740
31
0.0
0
LINE
8
0
6
CONTINUOUS
10
62.939320
20
-34.999740
30
0.0
11
62.939320
21
-34.899760
31
0.0
0
LINE
8
0
6
CONTINUOUS
10
83.931770
20
-40.833350
30
0.0
11
86.529850
21
-40.833350
31
0.0
0
LINE
8
0
6
CONTINUOUS
10
86.529850
20
-40.833350
30
0.0
11
86.529850
21
-38.999820
31
0.0
0
LINE
8
0
6
CONTINUOUS
10
86.529850
20
-38.999820
30
0.0
11
86.529850
21
-34.999740
31
0.0
0
LINE
8
0
6
CONTINUOUS
10
86.529850
20
-34.999740
30
0.0
11
86.529850
21
-34.899760
31
0.0
0
LINE
8
0
6
CONTINUOUS
10
81.333690
20
-40.833350
30
0.0
11
83.931770
21
-40.833350
31
0.0
0
LINE
8
0
6
CONTINUOUS
10
81.333690
20
-34.899760
30
0.0
11
81.333690
21
-40.833350
31
0.0
0
LINE
8
0
6
CONTINUOUS
10
83.931770
20
-40.833350
30
0.0
11
83.931770
21
-38.999820
31
0.0
0
LINE
8
0
6
CONTINUOUS
10
83.931770
20
-38.999820
30
0.0
11
83.931770
21
-34.999740
31
0.0
0
LINE
8
0
6
CONTINUOUS
10
83.931770
20
-34.999740
30
0.0
11
83.931770
21
-34.899760
31
0.0
0
LINE
8
0
6
CONTINUOUS
10
104.924220
20
-40.833350
30
0.0
11
107.522300
21
-40.833350
31
0.0
0
LINE
8
0
6
CONTINUOUS
10
107.522300
20
-40.833350
30
0.0
11
107.522300
21
-38.999820
31
0.0
0
LINE
8
0
6
CONTINUOUS
10
107.522300
20
-38.999820
30
0.0
11
107.522300
21
-34.999740
31
0.0
0
LINE
8
0
6
CONTINUOUS
10
107.522300
20
-34.999740
30
0.0
11
107.522300
21
-34.899760
31
0.0
0
LINE
8
0
6
CONTINUOUS
10
102.326150
20
-40.833350
30
0.0
11
104.924220
21
-40.833350
31
0.0
0
LINE
8
0
6
CONTINUOUS
10
102.326150
20
-34.899760
30
0.0
11
102.326150
21
-40.833350
31
0.0
0
LINE
8
0
6
CONTINUOUS
10
104.924220
20
-40.833350
30
0.0
11
104.924220
21
-38.999820
31
0.0
0
LINE
8
0
6
CONTINUOUS
10
104.924220
20
-38.999820
30
0.0
11
104.924220
21
-34.999740
31
0.0
0
LINE
8
0
6
CONTINUOUS
10
104.924220
20
-34.999740
30
0.0
11
104.924220
21
-34.899760
31
0.0
0
LINE
8
0
6
CONTINUOUS
10
-25.969470
20
-40.833350
30
0.0
11
-23.628570
21
-40.833350
31
0.0
0
LINE
8
0
6
CONTINUOUS
10
-28.567540
20
-40.833350
30
0.0
11
-25.969470
21
-40.833350
31
0.0
0
LINE
8
0
6
CONTINUOUS
10
-28.567540
20
-34.899760
30
0.0
11
-28.567540
21
-40.833350
31
0.0
0
LINE
8
0
6
CONTINUOUS
10
-25.969470
20
-40.833350
30
0.0
11
-25.969470
21
-38.999820
31
0.0
0
LINE
8
0
6
CONTINUOUS
10
-25.969470
20
-38.999820
30
0.0
11
-25.969470
21
-34.999740
31
0.0
0
LINE
8
0
6
CONTINUOUS
10
-25.969470
20
-34.999740
30
0.0
11
-25.969470
21
-34.899760
31
0.0
0
LINE
8
0
6
CONTINUOUS
10
25.912240
20
-40.833350
30
0.0
11
28.510310
21
-40.833350
31
0.0
0
LINE
8
0
6
CONTINUOUS
10
28.510310
20
-40.833350
30
0.0
11
28.510310
21
-38.999820
31
0.0
0
LINE
8
0
6
CONTINUOUS
10
28.510310
20
-38.999820
30
0.0
11
28.510310
21
-34.999740
31
0.0
0
LINE
8
0
6
CONTINUOUS
10
28.510310
20
-34.999740
30
0.0
11
28.510310
21
-34.899760
31
0.0
0
LINE
8
0
6
CONTINUOUS
10
23.552480
20
-40.833350
30
0.0
11
25.912240
21
-40.833350
31
0.0
0
LINE
8
0
6
CONTINUOUS
10
25.912240
20
-40.833350
30
0.0
11
25.912240
21
-38.999820
31
0.0
0
LINE
8
0
6
CONTINUOUS
10
25.912240
20
-38.999820
30
0.0
11
25.912240
21
-34.999740
31
0.0
0
LINE
8
0
6
CONTINUOUS
10
25.912240
20
-34.999740
30
0.0
11
25.912240
21
-34.899760
31
0.0
0
LINE
8
0
6
CONTINUOUS
10
-16.000020
20
-40.833350
30
0.0
11
-15.424020
21
-40.833350
31
0.0
0
LINE
8
0
6
CONTINUOUS
10
-16.000020
20
-34.899760
30
0.0
11
-16.000020
21
-34.999740
31
0.0
0
LINE
8
0
6
CONTINUOUS
10
-16.000020
20
-34.999740
30
0.0
11
-16.000020
21
-38.999820
31
0.0
0
LINE
8
0
6
CONTINUOUS
10
-16.000020
20
-38.999820
30
0.0
11
-16.000020
21
-40.833350
31
0.0
0
LINE
8
0
6
CONTINUOUS
10
-15.424020
20
-40.833350
30
0.0
11
-13.888020
21
-40.833350
31
0.0
0
LINE
8
0
6
CONTINUOUS
10
-13.888020
20
-40.833350
30
0.0
11
-11.328020
21
-40.833350
31
0.0
0
LINE
8
0
6
CONTINUOUS
10
-11.328020
20
-40.833350
30
0.0
11
-7.936020
21
-40.833350
31
0.0
0
LINE
8
0
6
CONTINUOUS
10
-7.936020
20
-40.833350
30
0.0
11
-4.096020
21
-40.833350
31
0.0
0
LINE
8
0
6
CONTINUOUS
10
-4.096020
20
-40.833350
30
0.0
11
-2.636120
21
-40.833350
31
0.0
0
LINE
8
0
6
CONTINUOUS
10
15.423980
20
-40.833350
30
0.0
11
15.999980
21
-40.833350
31
0.0
0
LINE
8
0
6
CONTINUOUS
10
15.999980
20
-40.833350
30
0.0
11
15.999980
21
-38.999820
31
0.0
0
LINE
8
0
6
CONTINUOUS
10
15.999980
20
-38.999820
30
0.0
11
15.999980
21
-34.999740
31
0.0
0
LINE
8
0
6
CONTINUOUS
10
15.999980
20
-34.999740
30
0.0
11
15.999980
21
-34.899760
31
0.0
0
LINE
8
0
6
CONTINUOUS
10
13.887980
20
-40.833350
30
0.0
11
15.423980
21
-40.833350
31
0.0
0
LINE
8
0
6
CONTINUOUS
10
11.327980
20
-40.833350
30
0.0
11
13.887980
21
-40.833350
31
0.0
0
LINE
8
0
6
CONTINUOUS
10
7.935980
20
-40.833350
30
0.0
11
11.327980
21
-40.833350
31
0.0
0
LINE
8
0
6
CONTINUOUS
10
4.095980
20
-40.833350
30
0.0
11
7.935980
21
-40.833350
31
0.0
0
LINE
8
0
6
CONTINUOUS
10
2.560030
20
-40.833350
30
0.0
11
4.095980
21
-40.833350
31
0.0
0
LINE
8
0
6
CONTINUOUS
10
-118.000035
20
-34.999740
30
0.0
11
-107.598380
21
-34.999740
31
0.0
0
LINE
8
0
6
CONTINUOUS
10
-102.402230
20
-34.999740
30
0.0
11
-86.605930
21
-34.999740
31
0.0
0
LINE
8
0
6
CONTINUOUS
10
-81.409780
20
-34.999740
30
0.0
11
-65.613470
21
-34.999740
31
0.0
0
LINE
8
0
6
CONTINUOUS
10
-60.417320
20
-34.999740
30
0.0
11
-44.621020
21
-34.999740
31
0.0
0
LINE
8
0
6
CONTINUOUS
10
-39.424870
20
-34.999740
30
0.0
11
-28.567540
21
-34.999740
31
0.0
0
LINE
8
0
6
CONTINUOUS
10
-18.432420
20
-34.999740
30
0.0
11
-16.000020
21
-34.999740
31
0.0
0
LINE
8
0
6
CONTINUOUS
10
15.999980
20
-34.999740
30
0.0
11
18.356330
21
-34.999740
31
0.0
0
LINE
8
0
6
CONTINUOUS
10
28.510310
20
-34.999740
30
0.0
11
39.348780
21
-34.999740
31
0.0
0
LINE
8
0
6
CONTINUOUS
10
44.544940
20
-34.999740
30
0.0
11
60.341240
21
-34.999740
31
0.0
0
LINE
8
0
6
CONTINUOUS
10
65.537400
20
-34.999740
30
0.0
11
81.333690
21
-34.999740
31
0.0
0
LINE
8
0
6
CONTINUOUS
10
86.529850
20
-34.999740
30
0.0
11
102.326150
21
-34.999740
31
0.0
0
LINE
8
0
6
CONTINUOUS
10
107.522300
20
-34.999740
30
0.0
11
118.000025
21
-34.999740
31
0.0
0
LINE
8
0
6
CONTINUOUS
10
-118.000035
20
-34.999740
30
0.0
11
-121.826845
21
-34.999740
31
0.0
0
LINE
8
0
6
CONTINUOUS
10
-121.826845
20
-34.999740
30
0.0
11
-125.071075
21
-34.999740
31
0.0
0
LINE
8
0
6
CONTINUOUS
10
-125.071075
20
-34.999740
30
0.0
11
-127.238815
21
-34.999740
31
0.0
0
LINE
8
0
6
CONTINUOUS
10
-127.238815
20
-34.999740
30
0.0
11
-128.000015
21
-34.999740
31
0.0
0
LINE
8
0
6
CONTINUOUS
10
118.000025
20
-34.999740
30
0.0
11
121.826865
21
-34.999740
31
0.0
0
LINE
8
0
6
CONTINUOUS
10
121.826865
20
-34.999740
30
0.0
11
125.071065
21
-34.999740
31
0.0
0
LINE
8
0
6
CONTINUOUS
10
125.071065
20
-34.999740
30
0.0
11
127.238825
21
-34.999740
31
0.0
0
LINE
8
0
6
CONTINUOUS
10
127.238825
20
-34.999740
30
0.0
11
128.000025
21
-34.999740
31
0.0
0
LINE
8
0
6
CONTINUOUS
10
-118.000025
20
-34.999740
30
0.0
11
118.000015
21
-34.999740
31
0.0
0
LINE
8
0
6
CONTINUOUS
10
-118.000025
20
-34.999740
30
0.0
11
-121.826855
21
-34.999740
31
0.0
0
LINE
8
0
6
CONTINUOUS
10
-121.826855
20
-34.999740
30
0.0
11
-125.071085
21
-34.999740
31
0.0
0
LINE
8
0
6
CONTINUOUS
10
-125.071085
20
-34.999740
30
0.0
11
-127.238795
21
-34.999740
31
0.0
0
LINE
8
0
6
CONTINUOUS
10
-128.000025
20
-34.999740
30
0.0
11
-128.000025
21
-35.739740
31
0.0
0
LINE
8
0
6
CONTINUOUS
10
-127.238795
20
-34.999740
30
0.0
11
-128.000025
21
-34.999740
31
0.0
0
LINE
8
0
6
CONTINUOUS
10
118.000015
20
-34.999740
30
0.0
11
121.826855
21
-34.999740
31
0.0
0
LINE
8
0
6
CONTINUOUS
10
121.826855
20
-34.999740
30
0.0
11
125.071085
21
-34.999740
31
0.0
0
LINE
8
0
6
CONTINUOUS
10
125.071085
20
-34.999740
30
0.0
11
127.238805
21
-34.999740
31
0.0
0
LINE
8
0
6
CONTINUOUS
10
128.000015
20
-35.739740
30
0.0
11
128.000005
21
-34.999740
31
0.0
0
LINE
8
0
6
CONTINUOUS
10
127.238805
20
-34.999740
30
0.0
11
128.000005
21
-34.999740
31
0.0
0
LINE
8
0
6
CONTINUOUS
10
-118.000035
20
-38.999820
30
0.0
11
-107.598380
21
-38.999820
31
0.0
0
LINE
8
0
6
CONTINUOUS
10
-102.402230
20
-38.999820
30
0.0
11
-86.605930
21
-38.999820
31
0.0
0
LINE
8
0
6
CONTINUOUS
10
-81.409780
20
-38.999820
30
0.0
11
-65.613470
21
-38.999820
31
0.0
0
LINE
8
0
6
CONTINUOUS
10
-60.417320
20
-38.999820
30
0.0
11
-44.621020
21
-38.999820
31
0.0
0
LINE
8
0
6
CONTINUOUS
10
-39.424870
20
-38.999820
30
0.0
11
-28.567540
21
-38.999820
31
0.0
0
LINE
8
0
6
CONTINUOUS
10
-18.432420
20
-38.999820
30
0.0
11
-16.000020
21
-38.999820
31
0.0
0
LINE
8
0
6
CONTINUOUS
10
15.999980
20
-38.999820
30
0.0
11
18.356330
21
-38.999820
31
0.0
0
LINE
8
0
6
CONTINUOUS
10
28.510310
20
-38.999820
30
0.0
11
39.348780
21
-38.999820
31
0.0
0
LINE
8
0
6
CONTINUOUS
10
44.544940
20
-38.999820
30
0.0
11
60.341240
21
-38.999820
31
0.0
0
LINE
8
0
6
CONTINUOUS
10
65.537400
20
-38.999820
30
0.0
11
81.333690
21
-38.999820
31
0.0
0
LINE
8
0
6
CONTINUOUS
10
86.529850
20
-38.999820
30
0.0
11
102.326150
21
-38.999820
31
0.0
0
LINE
8
0
6
CONTINUOUS
10
107.522300
20
-38.999820
30
0.0
11
118.000025
21
-38.999820
31
0.0
0
LINE
8
0
6
CONTINUOUS
10
-118.000035
20
-38.999820
30
0.0
11
-121.826845
21
-38.999820
31
0.0
0
LINE
8
0
6
CONTINUOUS
10
-121.826845
20
-38.999820
30
0.0
11
-125.071075
21
-38.999820
31
0.0
0
LINE
8
0
6
CONTINUOUS
10
-125.071075
20
-38.999820
30
0.0
11
-127.238815
21
-38.999820
31
0.0
0
LINE
8
0
6
CONTINUOUS
10
-127.238815
20
-38.999820
30
0.0
11
-128.000015
21
-38.999820
31
0.0
0
LINE
8
0
6
CONTINUOUS
10
118.000025
20
-38.999820
30
0.0
11
121.826865
21
-38.999820
31
0.0
0
LINE
8
0
6
CONTINUOUS
10
121.826865
20
-38.999820
30
0.0
11
125.071065
21
-38.999820
31
0.0
0
LINE
8
0
6
CONTINUOUS
10
125.071065
20
-38.999820
30
0.0
11
127.238825
21
-38.999820
31
0.0
0
LINE
8
0
6
CONTINUOUS
10
127.238825
20
-38.999820
30
0.0
11
128.000025
21
-38.999820
31
0.0
0
LINE
8
0
6
CONTINUOUS
10
-118.000025
20
-38.999820
30
0.0
11
118.000015
21
-38.999820
31
0.0
0
LINE
8
0
6
CONTINUOUS
10
-118.000025
20
-38.999820
30
0.0
11
-121.826855
21
-38.999820
31
0.0
0
LINE
8
0
6
CONTINUOUS
10
-121.826855
20
-38.999820
30
0.0
11
-125.071085
21
-38.999820
31
0.0
0
LINE
8
0
6
CONTINUOUS
10
-125.071085
20
-38.999820
30
0.0
11
-127.238795
21
-38.999820
31
0.0
0
LINE
8
0
6
CONTINUOUS
10
-128.000025
20
-38.259830
30
0.0
11
-128.000025
21
-38.999820
31
0.0
0
LINE
8
0
6
CONTINUOUS
10
-127.238795
20
-38.999820
30
0.0
11
-128.000025
21
-38.999820
31
0.0
0
LINE
8
0
6
CONTINUOUS
10
118.000015
20
-38.999820
30
0.0
11
121.826855
21
-38.999820
31
0.0
0
LINE
8
0
6
CONTINUOUS
10
121.826855
20
-38.999820
30
0.0
11
125.071085
21
-38.999820
31
0.0
0
LINE
8
0
6
CONTINUOUS
10
125.071085
20
-38.999820
30
0.0
11
127.238805
21
-38.999820
31
0.0
0
LINE
8
0
6
CONTINUOUS
10
128.000015
20
-38.999820
30
0.0
11
128.000015
21
-38.259830
31
0.0
0
LINE
8
0
6
CONTINUOUS
10
127.238805
20
-38.999820
30
0.0
11
128.000015
21
-38.999820
31
0.0
0
LINE
8
0
6
CONTINUOUS
10
88.499995
20
-34.999740
30
0.0
11
88.499995
21
-35.754620
31
0.0
0
LINE
8
0
6
CONTINUOUS
10
88.114785
20
-34.999740
30
0.0
11
87.729565
21
-34.999740
31
0.0
0
LINE
8
0
6
CONTINUOUS
10
-88.114795
20
-34.999740
30
0.0
11
-88.500005
21
-34.999740
31
0.0
0
LINE
8
0
6
CONTINUOUS
10
-88.500005
20
-35.754620
30
0.0
11
-88.500005
21
-34.999740
31
0.0
0
LINE
8
0
6
CONTINUOUS
10
-87.729575
20
-34.999740
30
0.0
11
-86.605930
21
-34.999740
31
0.0
0
LINE
8
0
6
CONTINUOUS
10
-88.114795
20
-34.999740
30
0.0
11
-87.729575
21
-34.999740
31
0.0
0
LINE
8
0
6
CONTINUOUS
10
-87.729645
20
-34.999740
30
0.0
11
-88.500005
21
-34.999740
31
0.0
0
LINE
8
0
6
CONTINUOUS
10
-81.409780
20
-34.999740
30
0.0
11
-65.613470
21
-34.999740
31
0.0
0
LINE
8
0
6
CONTINUOUS
10
-60.417320
20
-34.999740
30
0.0
11
-44.621020
21
-34.999740
31
0.0
0
LINE
8
0
6
CONTINUOUS
10
-39.424870
20
-34.999740
30
0.0
11
-28.567540
21
-34.999740
31
0.0
0
LINE
8
0
6
CONTINUOUS
10
-18.432420
20
-34.999740
30
0.0
11
-16.000020
21
-34.999740
31
0.0
0
LINE
8
0
6
CONTINUOUS
10
15.999980
20
-34.999740
30
0.0
11
18.356330
21
-34.999740
31
0.0
0
LINE
8
0
6
CONTINUOUS
10
28.510310
20
-34.999740
30
0.0
11
39.348780
21
-34.999740
31
0.0
0
LINE
8
0
6
CONTINUOUS
10
44.544940
20
-34.999740
30
0.0
11
60.341240
21
-34.999740
31
0.0
0
LINE
8
0
6
CONTINUOUS
10
65.537400
20
-34.999740
30
0.0
11
81.333690
21
-34.999740
31
0.0
0
LINE
8
0
6
CONTINUOUS
10
-86.605930
20
-34.999740
30
0.0
11
-87.729645
21
-34.999740
31
0.0
0
LINE
8
0
6
CONTINUOUS
10
86.529850
20
-34.999740
30
0.0
11
87.729565
21
-34.999740
31
0.0
0
LINE
8
0
6
CONTINUOUS
10
81.333690
20
-34.999740
30
0.0
11
65.537400
21
-34.999740
31
0.0
0
LINE
8
0
6
CONTINUOUS
10
60.341240
20
-34.999740
30
0.0
11
44.544940
21
-34.999740
31
0.0
0
LINE
8
0
6
CONTINUOUS
10
39.348780
20
-34.999740
30
0.0
11
28.510310
21
-34.999740
31
0.0
0
LINE
8
0
6
CONTINUOUS
10
18.356330
20
-34.999740
30
0.0
11
15.999980
21
-34.999740
31
0.0
0
LINE
8
0
6
CONTINUOUS
10
-16.000020
20
-34.999740
30
0.0
11
-18.432420
21
-34.999740
31
0.0
0
LINE
8
0
6
CONTINUOUS
10
-28.567540
20
-34.999740
30
0.0
11
-39.424870
21
-34.999740
31
0.0
0
LINE
8
0
6
CONTINUOUS
10
-44.621020
20
-34.999740
30
0.0
11
-60.417320
21
-34.999740
31
0.0
0
LINE
8
0
6
CONTINUOUS
10
-65.613470
20
-34.999740
30
0.0
11
-81.409780
21
-34.999740
31
0.0
0
LINE
8
0
6
CONTINUOUS
10
88.114785
20
-34.999740
30
0.0
11
88.499995
21
-34.999740
31
0.0
0
LINE
8
0
6
CONTINUOUS
10
88.499995
20
-34.999740
30
0.0
11
87.729635
21
-34.999740
31
0.0
0
LINE
8
0
6
CONTINUOUS
10
87.729635
20
-34.999740
30
0.0
11
86.529850
21
-34.999740
31
0.0
0
LINE
8
0
6
CONTINUOUS
10
-128.000025
20
-38.259830
30
0.0
11
-128.000025
21
-35.739740
31
0.0
0
LINE
8
0
6
CONTINUOUS
10
128.000015
20
-38.259830
30
0.0
11
128.000015
21
-35.739740
31
0.0
0
LINE
8
0
6
CONTINUOUS
10
-88.500005
20
-38.244950
30
0.0
11
-88.500005
21
-35.754620
31
0.0
0
LINE
8
0
6
CONTINUOUS
10
88.499995
20
-35.754620
30
0.0
11
88.499995
21
-38.244950
31
0.0
0
LINE
8
0
6
CONTINUOUS
10
88.499995
20
-38.244950
30
0.0
11
88.499995
21
-38.999820
31
0.0
0
LINE
8
0
6
CONTINUOUS
10
87.729565
20
-38.999820
30
0.0
11
88.114785
21
-38.999820
31
0.0
0
LINE
8
0
6
CONTINUOUS
10
-88.500005
20
-38.999820
30
0.0
11
-88.114795
21
-38.999820
31
0.0
0
LINE
8
0
6
CONTINUOUS
10
-88.500005
20
-38.999820
30
0.0
11
-88.500005
21
-38.244950
31
0.0
0
LINE
8
0
6
CONTINUOUS
10
-86.605930
20
-38.999820
30
0.0
11
-87.729575
21
-38.999820
31
0.0
0
LINE
8
0
6
CONTINUOUS
10
-87.729575
20
-38.999820
30
0.0
11
-88.114795
21
-38.999820
31
0.0
0
LINE
8
0
6
CONTINUOUS
10
-88.500005
20
-38.999820
30
0.0
11
-87.729645
21
-38.999820
31
0.0
0
LINE
8
0
6
CONTINUOUS
10
81.333690
20
-38.999820
30
0.0
11
65.537400
21
-38.999820
31
0.0
0
LINE
8
0
6
CONTINUOUS
10
60.341240
20
-38.999820
30
0.0
11
44.544940
21
-38.999820
31
0.0
0
LINE
8
0
6
CONTINUOUS
10
39.348780
20
-38.999820
30
0.0
11
28.510310
21
-38.999820
31
0.0
0
LINE
8
0
6
CONTINUOUS
10
18.356330
20
-38.999820
30
0.0
11
15.999980
21
-38.999820
31
0.0
0
LINE
8
0
6
CONTINUOUS
10
-16.000020
20
-38.999820
30
0.0
11
-18.432420
21
-38.999820
31
0.0
0
LINE
8
0
6
CONTINUOUS
10
-28.567540
20
-38.999820
30
0.0
11
-39.424870
21
-38.999820
31
0.0
0
LINE
8
0
6
CONTINUOUS
10
-44.621020
20
-38.999820
30
0.0
11
-60.417320
21
-38.999820
31
0.0
0
LINE
8
0
6
CONTINUOUS
10
-65.613470
20
-38.999820
30
0.0
11
-81.409780
21
-38.999820
31
0.0
0
LINE
8
0
6
CONTINUOUS
10
-87.729645
20
-38.999820
30
0.0
11
-86.605930
21
-38.999820
31
0.0
0
LINE
8
0
6
CONTINUOUS
10
87.729565
20
-38.999820
30
0.0
11
86.529850
21
-38.999820
31
0.0
0
LINE
8
0
6
CONTINUOUS
10
-81.409780
20
-38.999820
30
0.0
11
-65.613470
21
-38.999820
31
0.0
0
LINE
8
0
6
CONTINUOUS
10
-60.417320
20
-38.999820
30
0.0
11
-44.621020
21
-38.999820
31
0.0
0
LINE
8
0
6
CONTINUOUS
10
-39.424870
20
-38.999820
30
0.0
11
-28.567540
21
-38.999820
31
0.0
0
LINE
8
0
6
CONTINUOUS
10
-18.432420
20
-38.999820
30
0.0
11
-16.000020
21
-38.999820
31
0.0
0
LINE
8
0
6
CONTINUOUS
10
15.999980
20
-38.999820
30
0.0
11
18.356330
21
-38.999820
31
0.0
0
LINE
8
0
6
CONTINUOUS
10
28.510310
20
-38.999820
30
0.0
11
39.348780
21
-38.999820
31
0.0
0
LINE
8
0
6
CONTINUOUS
10
44.544940
20
-38.999820
30
0.0
11
60.341240
21
-38.999820
31
0.0
0
LINE
8
0
6
CONTINUOUS
10
65.537400
20
-38.999820
30
0.0
11
81.333690
21
-38.999820
31
0.0
0
LINE
8
0
6
CONTINUOUS
10
88.499995
20
-38.999820
30
0.0
11
88.114785
21
-38.999820
31
0.0
0
LINE
8
0
6
CONTINUOUS
10
87.729635
20
-38.999820
30
0.0
11
88.499995
21
-38.999820
31
0.0
0
LINE
8
0
6
CONTINUOUS
10
86.529850
20
-38.999820
30
0.0
11
87.729635
21
-38.999820
31
0.0
0
LINE
8
0
6
CONTINUOUS
10
-128.465760
20
-16.899760
30
0.0
11
-128.465760
21
-33.399760
31
0.0
0
LINE
8
0
6
CONTINUOUS
10
128.465760
20
-33.399760
30
0.0
11
128.465760
21
-16.899760
31
0.0
0
LINE
8
0
6
CONTINUOUS
10
128.465750
20
-34.899760
30
0.0
11
128.465760
21
-33.399760
31
0.0
0
LINE
8
0
6
CONTINUOUS
10
127.704550
20
-34.899760
30
0.0
11
128.465750
21
-34.899760
31
0.0
0
LINE
8
0
6
CONTINUOUS
10
128.465760
20
-16.899760
30
0.0
11
128.465760
21
-15.399760
31
0.0
0
LINE
8
0
6
CONTINUOUS
10
128.465760
20
-15.399760
30
0.0
11
127.704550
21
-15.399760
31
0.0
0
LINE
8
0
6
CONTINUOUS
10
125.536820
20
-34.899760
30
0.0
11
127.704550
21
-34.899760
31
0.0
0
LINE
8
0
6
CONTINUOUS
10
127.704550
20
-15.399760
30
0.0
11
125.536820
21
-15.399760
31
0.0
0
LINE
8
0
6
CONTINUOUS
10
122.292590
20
-34.899760
30
0.0
11
125.536820
21
-34.899760
31
0.0
0
LINE
8
0
6
CONTINUOUS
10
125.536820
20
-15.399760
30
0.0
11
122.292590
21
-15.399760
31
0.0
0
LINE
8
0
6
CONTINUOUS
10
118.465760
20
-34.899760
30
0.0
11
122.292590
21
-34.899760
31
0.0
0
LINE
8
0
6
CONTINUOUS
10
122.292590
20
-15.399760
30
0.0
11
118.465760
21
-15.399760
31
0.0
0
LINE
8
0
6
CONTINUOUS
10
-122.292590
20
-34.899760
30
0.0
11
-118.465760
21
-34.899760
31
0.0
0
LINE
8
0
6
CONTINUOUS
10
-118.465760
20
-15.399760
30
0.0
11
-122.292590
21
-15.399760
31
0.0
0
LINE
8
0
6
CONTINUOUS
10
-125.536820
20
-34.899760
30
0.0
11
-122.292590
21
-34.899760
31
0.0
0
LINE
8
0
6
CONTINUOUS
10
-122.292590
20
-15.399760
30
0.0
11
-125.536820
21
-15.399760
31
0.0
0
LINE
8
0
6
CONTINUOUS
10
-127.704550
20
-34.899760
30
0.0
11
-125.536820
21
-34.899760
31
0.0
0
LINE
8
0
6
CONTINUOUS
10
-125.536820
20
-15.399760
30
0.0
11
-127.704550
21
-15.399760
31
0.0
0
LINE
8
0
6
CONTINUOUS
10
-128.465760
20
-33.399760
30
0.0
11
-128.465760
21
-34.899760
31
0.0
0
LINE
8
0
6
CONTINUOUS
10
-128.465760
20
-34.899760
30
0.0
11
-127.704550
21
-34.899760
31
0.0
0
LINE
8
0
6
CONTINUOUS
10
-128.465750
20
-15.399760
30
0.0
11
-128.465760
21
-16.899760
31
0.0
0
LINE
8
0
6
CONTINUOUS
10
-127.704550
20
-15.399760
30
0.0
11
-128.465750
21
-15.399760
31
0.0
0
LINE
8
0
6
CONTINUOUS
10
-118.465760
20
-34.899760
30
0.0
11
118.465760
21
-34.899760
31
0.0
0
LINE
8
0
6
CONTINUOUS
10
118.465760
20
-15.399760
30
0.0
11
-118.465760
21
-15.399760
31
0.0
0
LINE
8
0
6
CONTINUOUS
10
14.535950
20
20.532020
30
0.0
11
14.437890
21
20.539240
31
0.0
0
LINE
8
0
6
CONTINUOUS
10
50.750239
20
10.331210
30
0.0
11
43.413590
21
16.403160
31
0.0
0
LINE
8
0
6
CONTINUOUS
10
43.413590
20
16.403160
30
0.0
11
28.796950
21
18.949600
31
0.0
0
LINE
8
0
6
CONTINUOUS
10
104.930940
20
-8.869500
30
0.0
11
85.132860
21
-4.614790
31
0.0
0
LINE
8
0
6
CONTINUOUS
10
126.400010
20
-13.587520
30
0.0
11
124.423020
21
-13.252330
31
0.0
0
LINE
8
0
6
CONTINUOUS
10
124.438680
20
-13.161550
30
0.0
11
104.721540
21
-8.804230
31
0.0
0
LINE
8
0
6
CONTINUOUS
10
104.721540
20
-8.804230
30
0.0
11
84.743160
21
-4.560520
31
0.0
0
LINE
8
0
6
CONTINUOUS
10
14.437890
20
20.539240
30
0.0
11
0.000000
21
21.054240
31
0.0
0
LINE
8
0
6
CONTINUOUS
10
33.542860
20
-13.587520
30
0.0
11
50.314290
21
-13.587520
31
0.0
0
LINE
8
0
6
CONTINUOUS
10
108.632850
20
-13.587520
30
0.0
11
120.355790
21
-13.587520
31
0.0
0
LINE
8
0
6
CONTINUOUS
10
121.004140
20
-13.587520
30
0.0
11
108.632850
21
-13.587520
31
0.0
0
LINE
8
0
6
CONTINUOUS
10
126.400010
20
-15.587520
30
0.0
11
126.400010
21
-13.587520
31
0.0
0
LINE
8
0
6
CONTINUOUS
10
124.040550
20
-13.587520
30
0.0
11
125.968170
21
-13.587520
31
0.0
0
LINE
8
0
6
CONTINUOUS
10
125.968170
20
-13.587520
30
0.0
11
126.400010
21
-13.587520
31
0.0
0
LINE
8
0
6
CONTINUOUS
10
125.968170
20
-13.587520
30
0.0
11
124.142300
21
-13.587520
31
0.0
0
LINE
8
0
6
CONTINUOUS
10
50.314290
20
-13.587520
30
0.0
11
67.085720
21
-13.587520
31
0.0
0
LINE
8
0
6
CONTINUOUS
10
16.771430
20
-13.587520
30
0.0
11
0.000000
21
-13.587520
31
0.0
0
LINE
8
0
6
CONTINUOUS
10
33.542860
20
-13.587520
30
0.0
11
16.771430
21
-13.587520
31
0.0
0
LINE
8
0
6
CONTINUOUS
10
124.142300
20
-13.587520
30
0.0
11
121.004140
21
-13.587520
31
0.0
0
LINE
8
0
6
CONTINUOUS
10
126.400010
20
-13.587520
30
0.0
11
124.435510
21
-13.176390
31
0.0
0
LINE
8
0
6
CONTINUOUS
10
126.400010
20
-13.587520
30
0.0
11
124.425890
21
-13.225420
31
0.0
0
LINE
8
0
6
CONTINUOUS
10
120.355790
20
-13.587520
30
0.0
11
124.040550
21
-13.587520
31
0.0
0
LINE
8
0
6
CONTINUOUS
10
-14.536430
20
20.532020
30
0.0
11
-28.926917
21
18.985832
31
0.0
0
LINE
8
0
6
CONTINUOUS
10
108.632850
20
-13.587520
30
0.0
11
87.862650
21
-13.587520
31
0.0
0
LINE
8
0
6
CONTINUOUS
10
-43.413590
20
16.403160
30
0.0
11
-50.750239
21
10.331210
31
0.0
0
LINE
8
0
6
CONTINUOUS
10
-28.796950
20
18.949600
30
0.0
11
-43.413590
21
16.403160
31
0.0
0
LINE
8
0
6
CONTINUOUS
10
-85.107930
20
-4.608460
30
0.0
11
-104.930940
21
-8.869500
31
0.0
0
LINE
8
0
6
CONTINUOUS
10
-124.422690
20
-13.255330
30
0.0
11
-126.400010
21
-13.587520
31
0.0
0
LINE
8
0
6
CONTINUOUS
10
-104.703520
20
-8.800510
30
0.0
11
-124.438680
21
-13.161550
31
0.0
0
LINE
8
0
6
CONTINUOUS
10
-84.660560
20
-4.540250
30
0.0
11
-104.703520
21
-8.800510
31
0.0
0
LINE
8
0
6
CONTINUOUS
10
0.000000
20
21.054240
30
0.0
11
-14.536430
21
20.532020
31
0.0
0
LINE
8
0
6
CONTINUOUS
10
-50.314290
20
-13.587520
30
0.0
11
-33.542860
21
-13.587520
31
0.0
0
LINE
8
0
6
CONTINUOUS
10
-117.400020
20
-13.587520
30
0.0
11
-121.004140
21
-13.587520
31
0.0
0
LINE
8
0
6
CONTINUOUS
10
-126.400010
20
-13.587520
30
0.0
11
-126.400010
21
-15.587520
31
0.0
0
LINE
8
0
6
CONTINUOUS
10
-126.400010
20
-13.587520
30
0.0
11
-125.968170
21
-13.587520
31
0.0
0
LINE
8
0
6
CONTINUOUS
10
-125.968170
20
-13.587520
30
0.0
11
-124.040550
21
-13.587520
31
0.0
0
LINE
8
0
6
CONTINUOUS
10
-124.142300
20
-13.587520
30
0.0
11
-125.968170
21
-13.587520
31
0.0
0
LINE
8
0
6
CONTINUOUS
10
-67.085720
20
-13.587520
30
0.0
11
-50.314290
21
-13.587520
31
0.0
0
LINE
8
0
6
CONTINUOUS
10
-117.280850
20
-13.587520
30
0.0
11
-92.242870
21
-13.587520
31
0.0
0
LINE
8
0
6
CONTINUOUS
10
0.000000
20
-13.587520
30
0.0
11
-16.771430
21
-13.587520
31
0.0
0
LINE
8
0
6
CONTINUOUS
10
-16.771430
20
-13.587520
30
0.0
11
-33.542860
21
-13.587520
31
0.0
0
LINE
8
0
6
CONTINUOUS
10
-121.004140
20
-13.587520
30
0.0
11
-124.142300
21
-13.587520
31
0.0
0
LINE
8
0
6
CONTINUOUS
10
-124.435510
20
-13.176390
30
0.0
11
-126.400010
21
-13.587520
31
0.0
0
LINE
8
0
6
CONTINUOUS
10
-124.425890
20
-13.225420
30
0.0
11
-126.400010
21
-13.587520
31
0.0
0
LINE
8
0
6
CONTINUOUS
10
-124.040550
20
-13.587520
30
0.0
11
-120.355790
21
-13.587520
31
0.0
0
LINE
8
0
6
CONTINUOUS
10
-120.355790
20
-13.587520
30
0.0
11
-117.280850
21
-13.587520
31
0.0
0
LINE
8
0
6
CONTINUOUS
10
-92.242870
20
-13.587520
30
0.0
11
-117.400020
21
-13.587520
31
0.0
0
LINE
8
0
6
CONTINUOUS
10
-67.085720
20
-13.587520
30
0.0
11
-92.242870
21
-13.587520
31
0.0
0
LINE
8
0
6
CONTINUOUS
10
87.862650
20
-13.587520
30
0.0
11
67.085720
21
-13.587520
31
0.0
0
LINE
8
0
6
CONTINUOUS
10
-127.420340
20
-79.987820
30
0.0
11
127.420340
21
-79.987810
31
0.0
0
LINE
8
0
6
CONTINUOUS
10
127.420340
20
79.987820
30
0.0
11
-127.420340
21
79.987810
31
0.0
0
LINE
8
0
6
CONTINUOUS
10
127.420340
20
79.987820
30
0.0
11
-127.420340
21
79.987820
31
0.0
0
LINE
8
0
6
CONTINUOUS
10
-129.000000
20
78.408160
30
0.0
11
-129.000000
21
-78.408160
31
0.0
0
LINE
8
0
6
CONTINUOUS
10
129.000000
20
-78.408160
30
0.0
11
129.000000
21
78.408160
31
0.0
0
LINE
8
0
6
CONTINUOUS
10
129.000000
20
79.987820
30
0.0
11
127.420340
21
79.987820
31
0.0
0
LINE
8
0
6
CONTINUOUS
10
129.000000
20
79.987820
30
0.0
11
127.420340
21
79.987820
31
0.0
0
LINE
8
0
6
CONTINUOUS
10
129.000000
20
78.408160
30
0.0
11
129.000000
21
79.987820
31
0.0
0
LINE
8
0
6
CONTINUOUS
10
129.000000
20
-79.987810
30
0.0
11
129.000000
21
-78.408160
31
0.0
0
LINE
8
0
6
CONTINUOUS
10
127.420340
20
-79.987810
30
0.0
11
129.000000
21
-79.987810
31
0.0
0
LINE
8
0
6
CONTINUOUS
10
-129.000000
20
79.987820
30
0.0
11
-127.420340
21
79.987810
31
0.0
0
LINE
8
0
6
CONTINUOUS
10
-127.420340
20
79.987820
30
0.0
11
-129.000000
21
79.987820
31
0.0
0
LINE
8
0
6
CONTINUOUS
10
-129.000000
20
79.987810
30
0.0
11
-129.000000
21
78.408160
31
0.0
0
LINE
8
0
6
CONTINUOUS
10
-127.420340
20
79.987810
30
0.0
11
-129.000000
21
79.987810
31
0.0
0
LINE
8
0
6
CONTINUOUS
10
-129.000000
20
-79.987820
30
0.0
11
-127.420340
21
-79.987820
31
0.0
0
LINE
8
0
6
CONTINUOUS
10
-129.000000
20
-78.408160
30
0.0
11
-129.000000
21
-79.987820
31
0.0
0
LINE
8
0
6
CONTINUOUS
10
-105.000310
20
-38.999820
30
0.0
11
-102.402230
21
-38.999820
31
0.0
0
LINE
8
0
6
CONTINUOUS
10
-63.015400
20
-34.999740
30
0.0
11
-60.417320
21
-34.999740
31
0.0
0
LINE
8
0
6
CONTINUOUS
10
-63.015400
20
-38.999820
30
0.0
11
-60.417320
21
-38.999820
31
0.0
0
LINE
8
0
6
CONTINUOUS
10
-21.030490
20
-34.999740
30
0.0
11
-18.432420
21
-34.999740
31
0.0
0
LINE
8
0
6
CONTINUOUS
10
-21.030490
20
-38.999820
30
0.0
11
-18.432420
21
-38.999820
31
0.0
0
LINE
8
0
6
CONTINUOUS
10
62.939320
20
-34.999740
30
0.0
11
65.537400
21
-34.999740
31
0.0
0
LINE
8
0
6
CONTINUOUS
10
62.939320
20
-38.999820
30
0.0
11
65.537400
21
-38.999820
31
0.0
0
LINE
8
0
6
CONTINUOUS
10
20.954410
20
-34.999740
30
0.0
11
23.552480
21
-34.999740
31
0.0
0
LINE
8
0
6
CONTINUOUS
10
20.954410
20
-38.999820
30
0.0
11
23.552480
21
-38.999820
31
0.0
0
LINE
8
0
6
CONTINUOUS
10
83.931770
20
-34.999740
30
0.0
11
86.529850
21
-34.999740
31
0.0
0
LINE
8
0
6
CONTINUOUS
10
83.931770
20
-38.999820
30
0.0
11
86.529850
21
-38.999820
31
0.0
0
LINE
8
0
6
CONTINUOUS
10
-42.022940
20
-34.999740
30
0.0
11
-39.424870
21
-34.999740
31
0.0
0
LINE
8
0
6
CONTINUOUS
10
-42.022940
20
-38.999820
30
0.0
11
-39.424870
21
-38.999820
31
0.0
0
LINE
8
0
6
CONTINUOUS
10
104.924220
20
-34.999740
30
0.0
11
107.522300
21
-34.999740
31
0.0
0
LINE
8
0
6
CONTINUOUS
10
104.924220
20
-38.999820
30
0.0
11
107.522300
21
-38.999820
31
0.0
0
LINE
8
0
6
CONTINUOUS
10
-84.007850
20
-34.999740
30
0.0
11
-81.409780
21
-34.999740
31
0.0
0
LINE
8
0
6
CONTINUOUS
10
-84.007850
20
-38.999820
30
0.0
11
-81.409780
21
-38.999820
31
0.0
0
LINE
8
0
6
CONTINUOUS
10
-0.038040
20
-34.999740
30
0.0
11
2.560030
21
-34.999740
31
0.0
0
LINE
8
0
6
CONTINUOUS
10
-0.038040
20
-38.999820
30
0.0
11
2.560030
21
-38.999820
31
0.0
0
LINE
8
0
6
CONTINUOUS
10
25.912240
20
-38.999820
30
0.0
11
28.510310
21
-38.999820
31
0.0
0
LINE
8
0
6
CONTINUOUS
10
41.946860
20
-34.999740
30
0.0
11
44.544940
21
-34.999740
31
0.0
0
LINE
8
0
6
CONTINUOUS
10
41.946860
20
-38.999820
30
0.0
11
44.544940
21
-38.999820
31
0.0
0
LINE
8
0
6
CONTINUOUS
10
-25.969470
20
-38.999820
30
0.0
11
-23.628570
21
-38.999820
31
0.0
0
LINE
8
0
6
CONTINUOUS
10
15.423980
20
-34.999740
30
0.0
11
15.999980
21
-34.999740
31
0.0
0
LINE
8
0
6
CONTINUOUS
10
13.887980
20
-34.999740
30
0.0
11
15.423980
21
-34.999740
31
0.0
0
LINE
8
0
6
CONTINUOUS
10
-15.424020
20
-34.999740
30
0.0
11
-16.000020
21
-34.999740
31
0.0
0
LINE
8
0
6
CONTINUOUS
10
-7.936020
20
-38.999820
30
0.0
11
-4.096020
21
-38.999820
31
0.0
0
LINE
8
0
6
CONTINUOUS
10
11.327980
20
-38.999820
30
0.0
11
13.887980
21
-38.999820
31
0.0
0
LINE
8
0
6
CONTINUOUS
10
-11.328020
20
-38.999820
30
0.0
11
-7.936020
21
-38.999820
31
0.0
0
LINE
8
0
6
CONTINUOUS
10
13.887980
20
-38.999820
30
0.0
11
15.423980
21
-38.999820
31
0.0
0
LINE
8
0
6
CONTINUOUS
10
-13.888020
20
-38.999820
30
0.0
11
-15.424020
21
-38.999820
31
0.0
0
LINE
8
0
6
CONTINUOUS
10
7.935980
20
-38.999820
30
0.0
11
11.327980
21
-38.999820
31
0.0
0
LINE
8
0
6
CONTINUOUS
10
-11.328020
20
-38.999820
30
0.0
11
-13.888020
21
-38.999820
31
0.0
0
LINE
8
0
6
CONTINUOUS
10
4.095980
20
-38.999820
30
0.0
11
7.935980
21
-38.999820
31
0.0
0
ENDSEC
0
EOF
