999
Erzeugt mit innoplus bad 
0
SECTION
2
HEADER
9
$ACADVER
1
AC1009
9
$DWGCODEPAGE
3
ISO8859-1
0
ENDSEC
0
SECTION
2
TABLES
0
TABLE
2
LAYER
70
1
0
LAYER
2
0
70
0
62
7
6
CONTINUOUS
0
ENDTAB
0
ENDSEC
0
SECTION
2
ENTITIES
0
LINE
8
0
6
CONTINUOUS
10
23.191745
20
-105.091680
30
0.0
11
25.398553
21
-103.775224
31
0.0
0
LINE
8
0
6
CONTINUOUS
10
19.498475
20
-106.407150
30
0.0
11
23.191745
21
-105.091680
31
0.0
0
LINE
8
0
6
CONTINUOUS
10
13.734925
20
-67.162360
30
0.0
11
9.856385
21
-67.734750
31
0.0
0
LINE
8
0
6
CONTINUOUS
10
31.209435
20
-60.525310
30
0.0
11
13.485885
21
-64.944270
31
0.0
0
LINE
8
0
6
CONTINUOUS
10
39.769655
20
-55.240600
30
0.0
11
37.496425
21
-57.507180
31
0.0
0
LINE
8
0
6
CONTINUOUS
10
48.161525
20
6.027680
30
0.0
11
48.023555
21
5.549920
31
0.0
0
LINE
8
0
6
CONTINUOUS
10
34.524865
20
-59.141140
30
0.0
11
31.209435
21
-60.525310
31
0.0
0
LINE
8
0
6
CONTINUOUS
10
37.496425
20
-57.507180
30
0.0
11
34.524865
21
-59.141140
31
0.0
0
LINE
8
0
6
CONTINUOUS
10
49.463495
20
6.855700
30
0.0
11
48.997485
21
6.783370
31
0.0
0
LINE
8
0
6
CONTINUOUS
10
58.869945
20
7.432440
30
0.0
11
49.856695
21
6.897890
31
0.0
0
LINE
8
0
6
CONTINUOUS
10
47.997825
20
5.301510
30
0.0
11
42.545865
21
-46.641410
31
0.0
0
LINE
8
0
6
CONTINUOUS
10
48.449875
20
6.380210
30
0.0
11
48.161525
21
6.027680
31
0.0
0
LINE
8
0
6
CONTINUOUS
10
48.744815
20
6.717110
30
0.0
11
48.449875
21
6.380210
31
0.0
0
LINE
8
0
6
CONTINUOUS
10
48.997485
20
6.783370
30
0.0
11
48.744815
21
6.717110
31
0.0
0
LINE
8
0
6
CONTINUOUS
10
42.545865
20
-46.641410
30
0.0
11
42.160345
21
-49.591620
31
0.0
0
LINE
8
0
6
CONTINUOUS
10
42.160345
20
-49.591620
30
0.0
11
41.345625
21
-52.581500
31
0.0
0
LINE
8
0
6
CONTINUOUS
10
41.345625
20
-52.581500
30
0.0
11
39.769655
21
-55.240600
31
0.0
0
LINE
8
0
6
CONTINUOUS
10
59.875885
20
7.492100
30
0.0
11
58.869945
21
7.432440
31
0.0
0
LINE
8
0
6
CONTINUOUS
10
60.005235
20
7.282120
30
0.0
11
59.875885
21
7.492100
31
0.0
0
LINE
8
0
6
CONTINUOUS
10
60.124685
20
6.919760
30
0.0
11
60.005235
21
7.282120
31
0.0
0
LINE
8
0
6
CONTINUOUS
10
60.236965
20
6.487810
30
0.0
11
60.124685
21
6.919760
31
0.0
0
LINE
8
0
6
CONTINUOUS
10
49.856695
20
6.897890
30
0.0
11
49.660405
21
6.886250
31
0.0
0
LINE
8
0
6
CONTINUOUS
10
49.660405
20
6.886250
30
0.0
11
49.463495
21
6.855700
31
0.0
0
LINE
8
0
6
CONTINUOUS
10
44.209185
20
-102.155540
30
0.0
11
45.369285
21
-101.866290
31
0.0
0
LINE
8
0
6
CONTINUOUS
10
60.498345
20
2.869300
30
0.0
11
60.539785
21
3.520200
31
0.0
0
LINE
8
0
6
CONTINUOUS
10
40.728825
20
-103.023280
30
0.0
11
41.888935
21
-102.734030
31
0.0
0
LINE
8
0
6
CONTINUOUS
10
41.888935
20
-102.734030
30
0.0
11
43.049055
21
-102.444780
31
0.0
0
LINE
8
0
6
CONTINUOUS
10
47.689345
20
-101.287110
30
0.0
11
48.849295
21
-100.997150
31
0.0
0
LINE
8
0
6
CONTINUOUS
10
43.049055
20
-102.444780
30
0.0
11
44.209185
21
-102.155540
31
0.0
0
LINE
8
0
6
CONTINUOUS
10
55.009695
20
-62.876890
30
0.0
11
60.472515
21
2.556190
31
0.0
0
LINE
8
0
6
CONTINUOUS
10
60.539785
20
3.520200
30
0.0
11
60.554625
21
4.208980
31
0.0
0
LINE
8
0
6
CONTINUOUS
10
60.522075
20
4.900410
30
0.0
11
60.445555
21
5.516070
31
0.0
0
LINE
8
0
6
CONTINUOUS
10
60.445555
20
5.516070
30
0.0
11
60.346095
21
6.031720
31
0.0
0
LINE
8
0
6
CONTINUOUS
10
60.554625
20
4.208980
30
0.0
11
60.522075
21
4.900410
31
0.0
0
LINE
8
0
6
CONTINUOUS
10
60.346095
20
6.031720
30
0.0
11
60.236965
21
6.487810
31
0.0
0
LINE
8
0
6
CONTINUOUS
10
50.906955
20
-99.138150
30
0.0
11
51.807895
21
-96.161130
31
0.0
0
LINE
8
0
6
CONTINUOUS
10
49.881035
20
-100.739260
30
0.0
11
50.906955
21
-99.138150
31
0.0
0
LINE
8
0
6
CONTINUOUS
10
48.849295
20
-100.997150
30
0.0
11
49.881035
21
-100.739260
31
0.0
0
LINE
8
0
6
CONTINUOUS
10
51.807895
20
-96.161130
30
0.0
11
52.505415
21
-92.042790
31
0.0
0
LINE
8
0
6
CONTINUOUS
10
52.505415
20
-92.042790
30
0.0
11
53.020285
21
-86.983280
31
0.0
0
LINE
8
0
6
CONTINUOUS
10
53.020285
20
-86.983280
30
0.0
11
53.449265
21
-81.785170
31
0.0
0
LINE
8
0
6
CONTINUOUS
10
54.648245
20
-67.256630
30
0.0
11
55.009695
21
-62.876890
31
0.0
0
LINE
8
0
6
CONTINUOUS
10
54.286815
20
-71.636350
30
0.0
11
54.648245
21
-67.256630
31
0.0
0
LINE
8
0
6
CONTINUOUS
10
53.449265
20
-81.785170
30
0.0
11
53.925375
21
-76.016090
31
0.0
0
LINE
8
0
6
CONTINUOUS
10
53.925375
20
-76.016090
30
0.0
11
54.286815
21
-71.636350
31
0.0
0
LINE
8
0
6
CONTINUOUS
10
46.529415
20
-101.577040
30
0.0
11
47.689345
21
-101.287110
31
0.0
0
LINE
8
0
6
CONTINUOUS
10
45.369285
20
-101.866290
30
0.0
11
46.529415
21
-101.577040
31
0.0
0
LINE
8
0
6
CONTINUOUS
10
48.023555
20
5.549920
30
0.0
11
47.997825
21
5.301510
31
0.0
0
LINE
8
0
6
CONTINUOUS
10
60.472515
20
2.556190
30
0.0
11
60.498345
21
2.869300
31
0.0
0
LINE
8
0
6
CONTINUOUS
10
29.381355
20
-105.852510
30
0.0
11
40.728825
21
-103.023280
31
0.0
0
LINE
8
0
6
CONTINUOUS
10
13.485885
20
-64.944270
30
0.0
11
12.985525
21
-65.069030
31
0.0
0
LINE
8
0
6
CONTINUOUS
10
21.621635
20
-99.754820
30
0.0
11
24.458805
21
-102.971450
31
0.0
0
LINE
8
0
6
CONTINUOUS
10
24.458805
20
-102.971450
30
0.0
11
26.955635
21
-105.107010
31
0.0
0
LINE
8
0
6
CONTINUOUS
10
28.877695
20
-105.979700
30
0.0
11
29.381355
21
-105.852510
31
0.0
0
LINE
8
0
6
CONTINUOUS
10
26.955635
20
-105.107010
30
0.0
11
28.877695
21
-105.979700
31
0.0
0
LINE
8
0
6
CONTINUOUS
10
13.473545
20
-67.008860
30
0.0
11
13.053585
21
-65.331200
31
0.0
0
LINE
8
0
6
CONTINUOUS
10
13.053585
20
-65.331200
30
0.0
11
12.985525
21
-65.069030
31
0.0
0
LINE
8
0
6
CONTINUOUS
10
14.214515
20
-69.978390
30
0.0
11
13.473545
21
-67.008860
31
0.0
0
LINE
8
0
6
CONTINUOUS
10
20.443545
20
-95.011900
30
0.0
11
19.136865
21
-89.754750
31
0.0
0
LINE
8
0
6
CONTINUOUS
10
16.437695
20
-78.904140
30
0.0
11
15.228245
21
-74.046570
31
0.0
0
LINE
8
0
6
CONTINUOUS
10
17.775285
20
-84.279740
30
0.0
11
16.437695
21
-78.904140
31
0.0
0
LINE
8
0
6
CONTINUOUS
10
19.136865
20
-89.754750
30
0.0
11
17.775285
21
-84.279740
31
0.0
0
LINE
8
0
6
CONTINUOUS
10
21.621635
20
-99.754820
30
0.0
11
20.443545
21
-95.011900
31
0.0
0
LINE
8
0
6
CONTINUOUS
10
15.228245
20
-74.046570
30
0.0
11
14.214515
21
-69.978390
31
0.0
0
LINE
8
0
6
CONTINUOUS
10
-18.471265
20
149.040090
30
0.0
11
-18.425435
21
150.408340
31
0.0
0
LINE
8
0
6
CONTINUOUS
10
-18.375335
20
154.984620
30
0.0
11
-18.375335
21
155.397570
31
0.0
0
LINE
8
0
6
CONTINUOUS
10
-46.584405
20
155.397600
30
0.0
11
-46.584405
21
154.984700
31
0.0
0
LINE
8
0
6
CONTINUOUS
10
-32.479895
20
140.882260
30
0.0
11
-25.427625
21
142.767260
31
0.0
0
LINE
8
0
6
CONTINUOUS
10
-39.532155
20
142.767260
30
0.0
11
-32.479895
21
140.882260
31
0.0
0
LINE
8
0
6
CONTINUOUS
10
-44.694765
20
147.917130
30
0.0
11
-39.532155
21
142.767260
31
0.0
0
LINE
8
0
6
CONTINUOUS
10
-25.427625
20
142.767260
30
0.0
11
-20.264995
21
147.917130
31
0.0
0
LINE
8
0
6
CONTINUOUS
10
-46.584405
20
154.952090
30
0.0
11
-44.694765
21
147.917130
31
0.0
0
LINE
8
0
6
CONTINUOUS
10
-20.264995
20
147.917130
30
0.0
11
-18.375335
21
154.952010
31
0.0
0
LINE
8
0
6
CONTINUOUS
10
-32.479895
20
141.360410
30
0.0
11
-25.427625
21
143.245370
31
0.0
0
LINE
8
0
6
CONTINUOUS
10
-39.532155
20
143.245410
30
0.0
11
-32.479895
21
141.360410
31
0.0
0
LINE
8
0
6
CONTINUOUS
10
-25.427575
20
167.615010
30
0.0
11
-32.479845
21
169.500010
31
0.0
0
LINE
8
0
6
CONTINUOUS
10
-44.694765
20
148.395350
30
0.0
11
-39.532155
21
143.245410
31
0.0
0
LINE
8
0
6
CONTINUOUS
10
-18.375335
20
155.430180
30
0.0
11
-20.264975
21
162.465090
31
0.0
0
LINE
8
0
6
CONTINUOUS
10
-25.427625
20
143.245370
30
0.0
11
-20.264995
21
148.395290
31
0.0
0
LINE
8
0
6
CONTINUOUS
10
-44.694735
20
162.465130
30
0.0
11
-46.584405
21
155.430220
31
0.0
0
LINE
8
0
6
CONTINUOUS
10
-32.479845
20
169.500010
30
0.0
11
-39.532115
21
167.615010
31
0.0
0
LINE
8
0
6
CONTINUOUS
10
-39.532115
20
167.615010
30
0.0
11
-44.694735
21
162.465130
31
0.0
0
LINE
8
0
6
CONTINUOUS
10
-20.264975
20
162.465090
30
0.0
11
-25.427575
21
167.615010
31
0.0
0
LINE
8
0
6
CONTINUOUS
10
-46.584405
20
155.430220
30
0.0
11
-44.694765
21
148.395350
31
0.0
0
LINE
8
0
6
CONTINUOUS
10
-20.264995
20
148.395290
30
0.0
11
-18.375335
21
155.430180
31
0.0
0
LINE
8
0
6
CONTINUOUS
10
-46.428235
20
154.773330
30
0.0
11
-46.428235
21
153.219600
31
0.0
0
LINE
8
0
6
CONTINUOUS
10
-18.531515
20
153.219560
30
0.0
11
-18.531505
21
154.773290
31
0.0
0
LINE
8
0
6
CONTINUOUS
10
-18.516625
20
141.391330
30
0.0
11
-18.565975
21
146.417010
31
0.0
0
LINE
8
0
6
CONTINUOUS
10
-46.397555
20
146.417200
30
0.0
11
-46.445975
21
141.391500
31
0.0
0
LINE
8
0
6
CONTINUOUS
10
-46.548635
20
150.411720
30
0.0
11
-46.397555
21
146.417200
31
0.0
0
LINE
8
0
6
CONTINUOUS
10
-46.428235
20
153.219600
30
0.0
11
-46.548635
21
150.411720
31
0.0
0
LINE
8
0
6
CONTINUOUS
10
-18.425435
20
150.408340
30
0.0
11
-18.531515
21
153.219560
31
0.0
0
LINE
8
0
6
CONTINUOUS
10
-46.445975
20
141.391500
30
0.0
11
-46.973175
21
124.177510
31
0.0
0
LINE
8
0
6
CONTINUOUS
10
-18.135965
20
124.177530
30
0.0
11
-18.516625
21
141.391330
31
0.0
0
LINE
8
0
6
CONTINUOUS
10
-18.675425
20
83.776400
30
0.0
11
-18.675425
21
91.440410
31
0.0
0
LINE
8
0
6
CONTINUOUS
10
-46.433855
20
91.440470
30
0.0
11
-46.433855
21
83.776400
31
0.0
0
LINE
8
0
6
CONTINUOUS
10
-18.675425
20
91.440410
30
0.0
11
-18.675425
21
99.967420
31
0.0
0
LINE
8
0
6
CONTINUOUS
10
-46.433855
20
99.967440
30
0.0
11
-46.433855
21
91.440470
31
0.0
0
LINE
8
0
6
CONTINUOUS
10
-18.675425
20
99.967420
30
0.0
11
-18.675425
21
107.012630
31
0.0
0
LINE
8
0
6
CONTINUOUS
10
-46.433855
20
107.012650
30
0.0
11
-46.433855
21
99.967440
31
0.0
0
LINE
8
0
6
CONTINUOUS
10
-18.675425
20
107.012630
30
0.0
11
-18.675425
21
113.635040
31
0.0
0
LINE
8
0
6
CONTINUOUS
10
-46.433855
20
113.635020
30
0.0
11
-46.433855
21
107.012650
31
0.0
0
LINE
8
0
6
CONTINUOUS
10
-18.675425
20
113.635040
30
0.0
11
-18.675425
21
120.602150
31
0.0
0
LINE
8
0
6
CONTINUOUS
10
-46.433855
20
120.602130
30
0.0
11
-46.433855
21
113.635020
31
0.0
0
LINE
8
0
6
CONTINUOUS
10
-18.675425
20
120.602150
30
0.0
11
-18.675425
21
123.078159
31
0.0
0
LINE
8
0
6
CONTINUOUS
10
-46.433855
20
123.078192
30
0.0
11
-46.433855
21
120.602130
31
0.0
0
LINE
8
0
6
CONTINUOUS
10
-46.503885
20
142.605890
30
0.0
11
-46.433855
21
141.109940
31
0.0
0
LINE
8
0
6
CONTINUOUS
10
-20.067675
20
122.715680
30
0.0
11
-18.135965
21
123.218610
31
0.0
0
LINE
8
0
6
CONTINUOUS
10
-25.345285
20
124.089660
30
0.0
11
-20.067705
21
123.721520
31
0.0
0
LINE
8
0
6
CONTINUOUS
10
-20.067705
20
123.721520
30
0.0
11
-18.135965
21
123.218610
31
0.0
0
LINE
8
0
6
CONTINUOUS
10
-18.135965
20
123.218610
30
0.0
11
-18.135965
21
124.177530
31
0.0
0
LINE
8
0
6
CONTINUOUS
10
-45.041435
20
122.715660
30
0.0
11
-44.683175
21
122.690672
31
0.0
0
LINE
8
0
6
CONTINUOUS
10
-20.425965
20
122.690689
30
0.0
11
-20.067675
21
122.715680
31
0.0
0
LINE
8
0
6
CONTINUOUS
10
-39.763895
20
124.089660
30
0.0
11
-32.554595
21
124.224410
31
0.0
0
LINE
8
0
6
CONTINUOUS
10
-46.973175
20
123.218610
30
0.0
11
-45.041435
21
122.715660
31
0.0
0
LINE
8
0
6
CONTINUOUS
10
-46.973175
20
123.218610
30
0.0
11
-45.041465
21
123.721480
31
0.0
0
LINE
8
0
6
CONTINUOUS
10
-46.973175
20
124.177510
30
0.0
11
-46.973175
21
123.218610
31
0.0
0
LINE
8
0
6
CONTINUOUS
10
-45.041465
20
123.721480
30
0.0
11
-39.763895
21
124.089660
31
0.0
0
LINE
8
0
6
CONTINUOUS
10
-32.554595
20
124.224410
30
0.0
11
-25.345285
21
124.089660
31
0.0
0
LINE
8
0
6
CONTINUOUS
10
-46.504035
20
149.191380
30
0.0
11
-46.503885
21
142.605890
31
0.0
0
LINE
8
0
6
CONTINUOUS
10
-46.504035
20
149.253420
30
0.0
11
-46.504035
21
149.191380
31
0.0
0
LINE
8
0
6
CONTINUOUS
10
-18.675415
20
29.929710
30
0.0
11
-18.675415
21
31.177210
31
0.0
0
LINE
8
0
6
CONTINUOUS
10
-46.433845
20
31.177210
30
0.0
11
-46.433845
21
29.929690
31
0.0
0
LINE
8
0
6
CONTINUOUS
10
-44.574395
20
31.582050
30
0.0
11
-39.494245
21
31.582050
31
0.0
0
LINE
8
0
6
CONTINUOUS
10
-46.433855
20
31.904790
30
0.0
11
-46.433845
21
31.582030
31
0.0
0
LINE
8
0
6
CONTINUOUS
10
-46.433845
20
31.582030
30
0.0
11
-44.574395
21
31.582050
31
0.0
0
LINE
8
0
6
CONTINUOUS
10
-18.675415
20
31.582050
30
0.0
11
-18.675415
21
31.904790
31
0.0
0
LINE
8
0
6
CONTINUOUS
10
-20.534885
20
31.582030
30
0.0
11
-18.675415
21
31.582050
31
0.0
0
LINE
8
0
6
CONTINUOUS
10
-25.615035
20
31.582030
30
0.0
11
-20.534885
21
31.582030
31
0.0
0
LINE
8
0
6
CONTINUOUS
10
-39.494245
20
31.582050
30
0.0
11
-32.554645
21
31.582050
31
0.0
0
LINE
8
0
6
CONTINUOUS
10
-32.554645
20
31.582050
30
0.0
11
-25.615035
21
31.582030
31
0.0
0
LINE
8
0
6
CONTINUOUS
10
-44.574385
20
31.499970
30
0.0
11
-39.494245
21
31.499940
31
0.0
0
LINE
8
0
6
CONTINUOUS
10
-46.433845
20
31.499960
30
0.0
11
-46.433845
21
31.177210
31
0.0
0
LINE
8
0
6
CONTINUOUS
10
-44.574385
20
31.499970
30
0.0
11
-46.433845
21
31.499960
31
0.0
0
LINE
8
0
6
CONTINUOUS
10
-20.824265
20
31.499970
30
0.0
11
-19.009575
21
31.499940
31
0.0
0
LINE
8
0
6
CONTINUOUS
10
-20.534875
20
31.499970
30
0.0
11
-20.824265
21
31.499970
31
0.0
0
LINE
8
0
6
CONTINUOUS
10
-18.675415
20
31.499940
30
0.0
11
-20.534875
21
31.499970
31
0.0
0
LINE
8
0
6
CONTINUOUS
10
-18.675415
20
31.177210
30
0.0
11
-18.675415
21
31.499940
31
0.0
0
LINE
8
0
6
CONTINUOUS
10
-19.009575
20
31.499940
30
0.0
11
-20.824275
21
31.499960
31
0.0
0
LINE
8
0
6
CONTINUOUS
10
-20.534885
20
31.499940
30
0.0
11
-18.675415
21
31.499940
31
0.0
0
LINE
8
0
6
CONTINUOUS
10
-20.824275
20
31.499960
30
0.0
11
-25.782115
21
31.499960
31
0.0
0
LINE
8
0
6
CONTINUOUS
10
-25.615035
20
31.499940
30
0.0
11
-20.534885
21
31.499940
31
0.0
0
LINE
8
0
6
CONTINUOUS
10
-32.554645
20
31.499960
30
0.0
11
-39.327175
21
31.499960
31
0.0
0
LINE
8
0
6
CONTINUOUS
10
-39.494245
20
31.499940
30
0.0
11
-32.554645
21
31.499940
31
0.0
0
LINE
8
0
6
CONTINUOUS
10
-25.782115
20
31.499960
30
0.0
11
-32.554645
21
31.499960
31
0.0
0
LINE
8
0
6
CONTINUOUS
10
-32.554645
20
31.499940
30
0.0
11
-25.615035
21
31.499940
31
0.0
0
LINE
8
0
6
CONTINUOUS
10
-18.675415
20
75.994370
30
0.0
11
-18.675425
21
83.776400
31
0.0
0
LINE
8
0
6
CONTINUOUS
10
-46.433855
20
83.776400
30
0.0
11
-46.433845
21
75.994340
31
0.0
0
LINE
8
0
6
CONTINUOUS
10
-46.433845
20
75.994340
30
0.0
11
-46.433855
21
31.904790
31
0.0
0
LINE
8
0
6
CONTINUOUS
10
-18.675415
20
31.904790
30
0.0
11
-18.675415
21
75.994370
31
0.0
0
LINE
8
0
6
CONTINUOUS
10
-20.425965
20
118.530160
30
0.0
11
-20.425965
21
118.824710
31
0.0
0
LINE
8
0
6
CONTINUOUS
10
-44.683175
20
118.824690
30
0.0
11
-44.683175
21
118.530160
31
0.0
0
LINE
8
0
6
CONTINUOUS
10
-26.490245
20
117.837810
30
0.0
11
-22.050875
21
118.130430
31
0.0
0
LINE
8
0
6
CONTINUOUS
10
-22.050875
20
118.130430
30
0.0
11
-20.425965
21
118.530160
31
0.0
0
LINE
8
0
6
CONTINUOUS
10
-20.425965
20
118.530160
30
0.0
11
-22.050895
21
118.929880
31
0.0
0
LINE
8
0
6
CONTINUOUS
10
-22.050895
20
118.929880
30
0.0
11
-26.490285
21
119.222510
31
0.0
0
LINE
8
0
6
CONTINUOUS
10
-26.490285
20
119.222510
30
0.0
11
-32.554585
21
119.329600
31
0.0
0
LINE
8
0
6
CONTINUOUS
10
-32.554585
20
119.329600
30
0.0
11
-38.618885
21
119.222510
31
0.0
0
LINE
8
0
6
CONTINUOUS
10
-38.618885
20
119.222510
30
0.0
11
-43.058255
21
118.929900
31
0.0
0
LINE
8
0
6
CONTINUOUS
10
-43.058255
20
118.929900
30
0.0
11
-44.683175
21
118.530160
31
0.0
0
LINE
8
0
6
CONTINUOUS
10
-44.683175
20
118.530160
30
0.0
11
-43.058245
21
118.130430
31
0.0
0
LINE
8
0
6
CONTINUOUS
10
-43.058245
20
118.130430
30
0.0
11
-38.618865
21
117.837830
31
0.0
0
LINE
8
0
6
CONTINUOUS
10
-38.618865
20
117.837830
30
0.0
11
-32.554545
21
117.730710
31
0.0
0
LINE
8
0
6
CONTINUOUS
10
-32.554555
20
117.853120
30
0.0
11
-27.418895
21
117.943840
31
0.0
0
LINE
8
0
6
CONTINUOUS
10
-20.425965
20
118.824710
30
0.0
11
-20.425965
21
122.690689
31
0.0
0
LINE
8
0
6
CONTINUOUS
10
-44.683175
20
122.690672
30
0.0
11
-44.683175
21
118.824690
31
0.0
0
LINE
8
0
6
CONTINUOUS
10
-23.659345
20
118.191640
30
0.0
11
-27.418895
21
117.943840
31
0.0
0
LINE
8
0
6
CONTINUOUS
10
-23.659355
20
118.868690
30
0.0
11
-22.283255
21
118.530160
31
0.0
0
LINE
8
0
6
CONTINUOUS
10
-27.418925
20
119.116480
30
0.0
11
-23.659355
21
118.868690
31
0.0
0
LINE
8
0
6
CONTINUOUS
10
-32.554585
20
119.207190
30
0.0
11
-27.418925
21
119.116480
31
0.0
0
LINE
8
0
6
CONTINUOUS
10
-37.690235
20
119.116480
30
0.0
11
-32.554585
21
119.207190
31
0.0
0
LINE
8
0
6
CONTINUOUS
10
-41.449795
20
118.868670
30
0.0
11
-37.690235
21
119.116480
31
0.0
0
LINE
8
0
6
CONTINUOUS
10
-42.825885
20
118.530160
30
0.0
11
-41.449795
21
118.868670
31
0.0
0
LINE
8
0
6
CONTINUOUS
10
-41.449785
20
118.191640
30
0.0
11
-42.825885
21
118.530160
31
0.0
0
LINE
8
0
6
CONTINUOUS
10
-37.690215
20
117.943860
30
0.0
11
-41.449785
21
118.191640
31
0.0
0
LINE
8
0
6
CONTINUOUS
10
-32.554555
20
117.853120
30
0.0
11
-37.690215
21
117.943860
31
0.0
0
LINE
8
0
6
CONTINUOUS
10
-23.659345
20
118.191640
30
0.0
11
-22.283255
21
118.530160
31
0.0
0
LINE
8
0
6
CONTINUOUS
10
-37.690215
20
118.793900
30
0.0
11
-32.554555
21
118.703170
31
0.0
0
LINE
8
0
6
CONTINUOUS
10
-41.449785
20
119.041710
30
0.0
11
-37.690215
21
118.793900
31
0.0
0
LINE
8
0
6
CONTINUOUS
10
-27.418895
20
118.793890
30
0.0
11
-23.659345
21
119.041690
31
0.0
0
LINE
8
0
6
CONTINUOUS
10
-32.554555
20
118.703170
30
0.0
11
-27.418895
21
118.793890
31
0.0
0
LINE
8
0
6
CONTINUOUS
10
-32.554545
20
117.730710
30
0.0
11
-26.490245
21
117.837810
31
0.0
0
LINE
8
0
6
CONTINUOUS
10
-57.359405
20
-123.853920
30
0.0
11
-60.519715
21
-169.001220
31
0.0
0
LINE
8
0
6
CONTINUOUS
10
-4.589535
20
-169.001220
30
0.0
11
-7.244785
21
-131.068990
31
0.0
0
LINE
8
0
6
CONTINUOUS
10
-12.066025
20
-62.194240
30
0.0
11
-12.388705
21
-57.584470
31
0.0
0
LINE
8
0
6
CONTINUOUS
10
-53.943155
20
-75.050300
30
0.0
11
-54.330185
21
-80.579320
31
0.0
0
LINE
8
0
6
CONTINUOUS
10
-28.931165
20
30.499970
30
0.0
11
-25.554635
21
30.499970
31
0.0
0
LINE
8
0
6
CONTINUOUS
10
-25.806795
20
30.499990
30
0.0
11
-29.061695
21
30.499990
31
0.0
0
LINE
8
0
6
CONTINUOUS
10
-39.554625
20
30.499970
30
0.0
11
-36.178095
21
30.499970
31
0.0
0
LINE
8
0
6
CONTINUOUS
10
-36.047575
20
30.499990
30
0.0
11
-39.302475
21
30.499990
31
0.0
0
LINE
8
0
6
CONTINUOUS
10
-22.655135
20
30.499970
30
0.0
11
-20.430275
21
30.499970
31
0.0
0
LINE
8
0
6
CONTINUOUS
10
-20.867025
20
30.499990
30
0.0
11
-23.011745
21
30.499990
31
0.0
0
LINE
8
0
6
CONTINUOUS
10
-44.678985
20
30.499970
30
0.0
11
-42.454125
21
30.499970
31
0.0
0
LINE
8
0
6
CONTINUOUS
10
-42.097515
20
30.499990
30
0.0
11
-44.242235
21
30.499990
31
0.0
0
LINE
8
0
6
CONTINUOUS
10
-46.077595
20
30.499970
30
0.0
11
-44.678985
21
30.499970
31
0.0
0
LINE
8
0
6
CONTINUOUS
10
-44.242235
20
30.499990
30
0.0
11
-44.498266
21
30.499990
31
0.0
0
LINE
8
0
6
CONTINUOUS
10
-44.670000
20
30.499990
30
0.0
11
-45.590465
21
30.499990
31
0.0
0
LINE
8
0
6
CONTINUOUS
10
-20.430275
20
30.499970
30
0.0
11
-19.031665
21
30.499970
31
0.0
0
LINE
8
0
6
CONTINUOUS
10
-19.518795
20
30.499990
30
0.0
11
-20.439308
21
30.499990
31
0.0
0
LINE
8
0
6
CONTINUOUS
10
-20.610975
20
30.499990
30
0.0
11
-20.867025
21
30.499990
31
0.0
0
LINE
8
0
6
CONTINUOUS
10
-29.061695
20
30.499990
30
0.0
11
-32.554625
21
30.499990
31
0.0
0
LINE
8
0
6
CONTINUOUS
10
-28.931165
20
30.499970
30
0.0
11
-32.554625
21
30.499970
31
0.0
0
LINE
8
0
6
CONTINUOUS
10
-36.178095
20
30.499970
30
0.0
11
-32.554625
21
30.499970
31
0.0
0
LINE
8
0
6
CONTINUOUS
10
-32.554625
20
30.499990
30
0.0
11
-36.047575
21
30.499990
31
0.0
0
LINE
8
0
6
CONTINUOUS
10
-25.554635
20
30.499970
30
0.0
11
-22.655135
21
30.499970
31
0.0
0
LINE
8
0
6
CONTINUOUS
10
-23.011745
20
30.499990
30
0.0
11
-25.806795
21
30.499990
31
0.0
0
LINE
8
0
6
CONTINUOUS
10
-46.554635
20
30.499970
30
0.0
11
-46.589545
21
30.001200
31
0.0
0
LINE
8
0
6
CONTINUOUS
10
-46.554635
20
30.499970
30
0.0
11
-46.077595
21
30.499970
31
0.0
0
LINE
8
0
6
CONTINUOUS
10
-46.269162
20
30.499981
30
0.0
11
-46.554635
21
30.499970
31
0.0
0
LINE
8
0
6
CONTINUOUS
10
-45.590465
20
30.499990
30
0.0
11
-45.855854
21
30.499990
31
0.0
0
LINE
8
0
6
CONTINUOUS
10
-42.454125
20
30.499970
30
0.0
11
-39.554625
21
30.499970
31
0.0
0
LINE
8
0
6
CONTINUOUS
10
-39.302475
20
30.499990
30
0.0
11
-42.097515
21
30.499990
31
0.0
0
LINE
8
0
6
CONTINUOUS
10
-18.519715
20
30.001200
30
0.0
11
-18.554625
21
30.499970
31
0.0
0
LINE
8
0
6
CONTINUOUS
10
-18.554625
20
30.499970
30
0.0
11
-18.840088
21
30.499981
31
0.0
0
LINE
8
0
6
CONTINUOUS
10
-19.031665
20
30.499970
30
0.0
11
-18.554625
21
30.499970
31
0.0
0
LINE
8
0
6
CONTINUOUS
10
-19.253409
20
30.499990
30
0.0
11
-19.518795
21
30.499990
31
0.0
0
LINE
8
0
6
CONTINUOUS
10
-46.554625
20
-169.500010
30
0.0
11
-39.801555
21
-169.500010
31
0.0
0
LINE
8
0
6
CONTINUOUS
10
-56.803335
20
-169.500010
30
0.0
11
-52.353615
21
-169.500010
31
0.0
0
LINE
8
0
6
CONTINUOUS
10
-8.305905
20
-169.500010
30
0.0
11
-5.508685
21
-169.500010
31
0.0
0
LINE
8
0
6
CONTINUOUS
10
-32.554615
20
-169.500010
30
0.0
11
-25.307685
21
-169.500010
31
0.0
0
LINE
8
0
6
CONTINUOUS
10
-60.554625
20
-169.500010
30
0.0
11
-59.600555
21
-169.500010
31
0.0
0
LINE
8
0
6
CONTINUOUS
10
-60.519715
20
-169.001220
30
0.0
11
-60.554625
21
-169.500010
31
0.0
0
LINE
8
0
6
CONTINUOUS
10
-18.554615
20
-169.500010
30
0.0
11
-12.755625
21
-169.500010
31
0.0
0
LINE
8
0
6
CONTINUOUS
10
-39.801555
20
-169.500010
30
0.0
11
-32.554615
21
-169.500010
31
0.0
0
LINE
8
0
6
CONTINUOUS
10
-52.353615
20
-169.500010
30
0.0
11
-46.554625
21
-169.500010
31
0.0
0
LINE
8
0
6
CONTINUOUS
10
-4.554615
20
-169.500010
30
0.0
11
-4.589535
21
-169.001220
31
0.0
0
LINE
8
0
6
CONTINUOUS
10
-5.508685
20
-169.500010
30
0.0
11
-4.554615
21
-169.500010
31
0.0
0
LINE
8
0
6
CONTINUOUS
10
-59.600555
20
-169.500010
30
0.0
11
-56.803335
21
-169.500010
31
0.0
0
LINE
8
0
6
CONTINUOUS
10
-25.307685
20
-169.500010
30
0.0
11
-18.554615
21
-169.500010
31
0.0
0
LINE
8
0
6
CONTINUOUS
10
-12.755625
20
-169.500010
30
0.0
11
-8.305905
21
-169.500010
31
0.0
0
LINE
8
0
6
CONTINUOUS
10
14.656575
20
-81.777920
30
0.0
11
14.014765
21
-79.203730
31
0.0
0
LINE
8
0
6
CONTINUOUS
10
18.053405
20
-95.401860
30
0.0
11
18.695225
21
-97.976060
31
0.0
0
LINE
8
0
6
CONTINUOUS
10
13.372935
20
-76.629550
30
0.0
11
14.014765
21
-79.203730
31
0.0
0
LINE
8
0
6
CONTINUOUS
10
21.175015
20
-107.921950
30
0.0
11
20.643315
21
-105.789420
31
0.0
0
LINE
8
0
6
CONTINUOUS
10
18.053405
20
-95.401860
30
0.0
11
17.411595
21
-92.827680
31
0.0
0
LINE
8
0
6
CONTINUOUS
10
20.643315
20
-105.789420
30
0.0
11
19.797515
21
-102.397050
31
0.0
0
LINE
8
0
6
CONTINUOUS
10
11.424855
20
-68.816170
30
0.0
11
10.893155
21
-66.683660
31
0.0
0
LINE
8
0
6
CONTINUOUS
10
12.270665
20
-72.208550
30
0.0
11
13.372935
21
-76.629550
31
0.0
0
LINE
8
0
6
CONTINUOUS
10
10.711805
20
-65.956280
30
0.0
11
10.225305
21
-66.072780
31
0.0
0
LINE
8
0
6
CONTINUOUS
10
10.893155
20
-66.683660
30
0.0
11
10.711805
21
-65.956280
31
0.0
0
LINE
8
0
6
CONTINUOUS
10
16.034085
20
-87.302800
30
0.0
11
14.656575
21
-81.777920
31
0.0
0
LINE
8
0
6
CONTINUOUS
10
19.797515
20
-102.397050
30
0.0
11
18.695225
21
-97.976060
31
0.0
0
LINE
8
0
6
CONTINUOUS
10
20.873505
20
-108.779030
30
0.0
11
21.356365
21
-108.649310
31
0.0
0
LINE
8
0
6
CONTINUOUS
10
21.356365
20
-108.649310
30
0.0
11
21.175015
21
-107.921950
31
0.0
0
LINE
8
0
6
CONTINUOUS
10
17.411595
20
-92.827680
30
0.0
11
16.034085
21
-87.302800
31
0.0
0
LINE
8
0
6
CONTINUOUS
10
12.270665
20
-72.208550
30
0.0
11
11.424855
21
-68.816170
31
0.0
0
LINE
8
0
6
CONTINUOUS
10
-1.468505
20
-114.781690
30
0.0
11
0.374695
21
-114.286460
31
0.0
0
LINE
8
0
6
CONTINUOUS
10
-2.752635
20
-69.180410
30
0.0
11
-4.608735
21
-69.624870
31
0.0
0
LINE
8
0
6
CONTINUOUS
10
-7.244785
20
-131.068990
30
0.0
11
-7.713365
21
-124.375070
31
0.0
0
LINE
8
0
6
CONTINUOUS
10
-56.801695
20
-115.886760
30
0.0
11
-57.359405
21
-123.853920
31
0.0
0
LINE
8
0
6
CONTINUOUS
10
-7.713365
20
-124.375070
30
0.0
11
-7.404725
21
-121.262980
31
0.0
0
LINE
8
0
6
CONTINUOUS
10
-7.404725
20
-121.262980
30
0.0
11
-6.109565
21
-118.347020
31
0.0
0
LINE
8
0
6
CONTINUOUS
10
-6.109565
20
-118.347020
30
0.0
11
-4.025035
21
-116.071070
31
0.0
0
LINE
8
0
6
CONTINUOUS
10
-4.025035
20
-116.071070
30
0.0
11
-1.468505
21
-114.781690
31
0.0
0
LINE
8
0
6
CONTINUOUS
10
-11.303865
20
-65.538670
30
0.0
11
-12.066025
21
-62.194240
31
0.0
0
LINE
8
0
6
CONTINUOUS
10
-9.619015
20
-68.125200
30
0.0
11
-11.303865
21
-65.538670
31
0.0
0
LINE
8
0
6
CONTINUOUS
10
-7.268005
20
-69.560090
30
0.0
11
-9.619015
21
-68.125200
31
0.0
0
LINE
8
0
6
CONTINUOUS
10
-4.608735
20
-69.624870
30
0.0
11
-7.268005
21
-69.560090
31
0.0
0
LINE
8
0
6
CONTINUOUS
10
-54.330185
20
-80.579320
30
0.0
11
-55.194135
21
-92.921470
31
0.0
0
LINE
8
0
6
CONTINUOUS
10
-56.139425
20
-106.425590
30
0.0
11
-56.801695
21
-115.886760
31
0.0
0
LINE
8
0
6
CONTINUOUS
10
-55.194135
20
-92.921470
30
0.0
11
-55.648845
21
-99.417330
31
0.0
0
LINE
8
0
6
CONTINUOUS
10
10.225305
20
-66.072780
30
0.0
11
-2.752635
21
-69.180410
31
0.0
0
LINE
8
0
6
CONTINUOUS
10
-46.589545
20
30.001200
30
0.0
11
-53.943155
21
-75.050300
31
0.0
0
LINE
8
0
6
CONTINUOUS
10
-12.388705
20
-57.584470
30
0.0
11
-18.519715
21
30.001200
31
0.0
0
LINE
8
0
6
CONTINUOUS
10
0.374695
20
-114.286460
30
0.0
11
20.873505
21
-108.779030
31
0.0
0
LINE
8
0
6
CONTINUOUS
10
-55.648845
20
-99.417330
30
0.0
11
-56.139425
21
-106.425590
31
0.0
0
LINE
8
0
6
CONTINUOUS
10
-44.574390
20
30.499988
30
0.0
11
-44.670000
21
30.499990
31
0.0
0
LINE
8
0
6
CONTINUOUS
10
-45.855854
20
30.499990
30
0.0
11
-46.269162
21
30.499981
31
0.0
0
LINE
8
0
6
CONTINUOUS
10
-19.253409
20
30.499990
30
0.0
11
-18.840088
21
30.499981
31
0.0
0
LINE
8
0
6
CONTINUOUS
10
-20.534885
20
30.499988
30
0.0
11
-20.439308
21
30.499990
31
0.0
0
ENDSEC
0
EOF
