999
Erzeugt mit innoplus bad 
0
SECTION
2
HEADER
9
$ACADVER
1
AC1009
9
$DWGCODEPAGE
3
ISO8859-1
0
ENDSEC
0
SECTION
2
TABLES
0
TABLE
2
LAYER
70
1
0
LAYER
2
0
70
0
62
7
6
CONTINUOUS
0
ENDTAB
0
ENDSEC
0
SECTION
2
ENTITIES
0
LINE
8
0
6
CONTINUOUS
10
10.802153
20
-152.146519
30
0.0
11
9.392683
21
-146.665113
31
0.0
0
LINE
8
0
6
CONTINUOUS
10
-10.297989
20
-175.296311
30
0.0
11
14.289096
21
-167.980100
31
0.0
0
LINE
8
0
6
CONTINUOUS
10
3.371233
20
-125.618027
30
0.0
11
-12.807848
21
-128.804133
31
0.0
0
LINE
8
0
6
CONTINUOUS
10
9.392683
20
-146.665113
30
0.0
11
7.978107
21
-141.189376
31
0.0
0
LINE
8
0
6
CONTINUOUS
10
-60.665008
20
-222.540720
30
0.0
11
-55.984238
21
-222.540720
31
0.0
0
LINE
8
0
6
CONTINUOUS
10
-49.091113
20
-49.123573
30
0.0
11
-50.732133
21
-49.120213
31
0.0
0
LINE
8
0
6
CONTINUOUS
10
-49.323272
20
-49.195920
30
0.0
11
-51.136783
21
-49.195880
31
0.0
0
LINE
8
0
6
CONTINUOUS
10
-67.583442
20
-222.540720
30
0.0
11
-64.660781
21
-222.540720
31
0.0
0
LINE
8
0
6
CONTINUOUS
10
-52.429404
20
-49.122123
30
0.0
11
-53.718069
21
-49.120213
31
0.0
0
LINE
8
0
6
CONTINUOUS
10
-52.799454
20
-49.171814
30
0.0
11
-54.238089
21
-49.195870
31
0.0
0
LINE
8
0
6
CONTINUOUS
10
-14.278905
20
-222.540720
30
0.0
11
-13.159184
21
-222.540720
31
0.0
0
LINE
8
0
6
CONTINUOUS
10
-16.242326
20
-174.260130
30
0.0
11
-14.945188
21
-175.366618
31
0.0
0
LINE
8
0
6
CONTINUOUS
10
-21.174189
20
-222.540720
30
0.0
11
-17.154047
21
-222.540720
31
0.0
0
LINE
8
0
6
CONTINUOUS
10
14.135719
20
-165.047957
30
0.0
11
13.752520
21
-163.494471
31
0.0
0
LINE
8
0
6
CONTINUOUS
10
-20.665719
20
-170.966363
30
0.0
11
-18.226469
21
-172.776272
31
0.0
0
LINE
8
0
6
CONTINUOUS
10
-33.408103
20
-222.540720
30
0.0
11
-25.923549
21
-222.540720
31
0.0
0
LINE
8
0
6
CONTINUOUS
10
-25.923549
20
-222.540720
30
0.0
11
-21.174189
21
-222.540720
31
0.0
0
LINE
8
0
6
CONTINUOUS
10
-17.154047
20
-222.540720
30
0.0
11
-14.278905
21
-222.540720
31
0.0
0
LINE
8
0
6
CONTINUOUS
10
-13.159184
20
-222.540720
30
0.0
11
-12.604534
21
-222.540720
31
0.0
0
LINE
8
0
6
CONTINUOUS
10
-12.604534
20
-222.540720
30
0.0
11
-12.530378
21
-222.540720
31
0.0
0
LINE
8
0
6
CONTINUOUS
10
-12.530378
20
-222.540720
30
0.0
11
-12.455642
21
-221.821212
31
0.0
0
LINE
8
0
6
CONTINUOUS
10
-69.184587
20
-222.540720
30
0.0
11
-69.038503
21
-222.540720
31
0.0
0
LINE
8
0
6
CONTINUOUS
10
-69.250000
20
-221.821212
30
0.0
11
-69.184587
21
-222.540720
31
0.0
0
LINE
8
0
6
CONTINUOUS
10
-69.038503
20
-222.540720
30
0.0
11
-68.603260
21
-222.540720
31
0.0
0
LINE
8
0
6
CONTINUOUS
10
-68.603260
20
-222.540720
30
0.0
11
-67.583442
21
-222.540720
31
0.0
0
LINE
8
0
6
CONTINUOUS
10
-64.660781
20
-222.540720
30
0.0
11
-60.665008
21
-222.540720
31
0.0
0
LINE
8
0
6
CONTINUOUS
10
-55.984238
20
-222.540720
30
0.0
11
-48.462787
21
-222.540720
31
0.0
0
LINE
8
0
6
CONTINUOUS
10
-48.462787
20
-222.540720
30
0.0
11
-40.963895
21
-222.540720
31
0.0
0
LINE
8
0
6
CONTINUOUS
10
12.133621
20
-157.296566
30
0.0
11
10.802153
21
-152.146519
31
0.0
0
LINE
8
0
6
CONTINUOUS
10
12.744882
20
-159.584577
30
0.0
11
12.133621
21
-157.296566
31
0.0
0
LINE
8
0
6
CONTINUOUS
10
13.752520
20
-163.494471
30
0.0
11
13.279510
21
-161.719027
31
0.0
0
LINE
8
0
6
CONTINUOUS
10
14.660105
20
-167.096822
30
0.0
11
14.135719
21
-165.047957
31
0.0
0
LINE
8
0
6
CONTINUOUS
10
14.845714
20
-167.817900
30
0.0
11
14.660105
21
-167.096822
31
0.0
0
LINE
8
0
6
CONTINUOUS
10
14.289096
20
-167.980100
30
0.0
11
14.845714
21
-167.817900
31
0.0
0
LINE
8
0
6
CONTINUOUS
10
3.940061
20
-125.506177
30
0.0
11
3.371233
21
-125.618027
31
0.0
0
LINE
8
0
6
CONTINUOUS
10
4.113381
20
-126.226535
30
0.0
11
3.940061
21
-125.506177
31
0.0
0
LINE
8
0
6
CONTINUOUS
10
4.654752
20
-128.334169
30
0.0
11
4.113381
21
-126.226535
31
0.0
0
LINE
8
0
6
CONTINUOUS
10
5.520234
20
-131.694554
30
0.0
11
4.654752
21
-128.334169
31
0.0
0
LINE
8
0
6
CONTINUOUS
10
6.655191
20
-136.082541
30
0.0
11
5.520234
21
-131.694554
31
0.0
0
LINE
8
0
6
CONTINUOUS
10
7.978107
20
-141.189376
30
0.0
11
6.655191
21
-136.082541
31
0.0
0
LINE
8
0
6
CONTINUOUS
10
-36.711864
20
-49.124883
30
0.0
11
-40.969730
21
-49.124903
31
0.0
0
LINE
8
0
6
CONTINUOUS
10
-32.667963
20
-49.125173
30
0.0
11
-36.711864
21
-49.124883
31
0.0
0
LINE
8
0
6
CONTINUOUS
10
-29.111830
20
-49.125403
30
0.0
11
-32.667963
21
-49.125173
31
0.0
0
LINE
8
0
6
CONTINUOUS
10
-26.312602
20
-49.125652
30
0.0
11
-29.111830
21
-49.125403
31
0.0
0
LINE
8
0
6
CONTINUOUS
10
-24.511691
20
-49.125483
30
0.0
11
-26.312602
21
-49.125652
31
0.0
0
LINE
8
0
6
CONTINUOUS
10
-23.327116
20
-49.196060
30
0.0
11
-23.795520
21
-49.125782
31
0.0
0
LINE
8
0
6
CONTINUOUS
10
-23.795520
20
-49.125782
30
0.0
11
-24.511691
21
-49.125483
31
0.0
0
LINE
8
0
6
CONTINUOUS
10
-57.293815
20
-49.124243
30
0.0
11
-57.777707
21
-49.196060
31
0.0
0
LINE
8
0
6
CONTINUOUS
10
-56.636964
20
-49.123853
30
0.0
11
-57.293815
21
-49.124243
31
0.0
0
LINE
8
0
6
CONTINUOUS
10
-54.999261
20
-49.123243
30
0.0
11
-56.636964
21
-49.123853
31
0.0
0
LINE
8
0
6
CONTINUOUS
10
-53.718069
20
-49.120213
30
0.0
11
-54.976490
21
-49.123189
31
0.0
0
LINE
8
0
6
CONTINUOUS
10
-50.732133
20
-49.120213
30
0.0
11
-52.429404
21
-49.122123
31
0.0
0
LINE
8
0
6
CONTINUOUS
10
-45.169656
20
-49.124353
30
0.0
11
-49.091113
21
-49.123573
31
0.0
0
LINE
8
0
6
CONTINUOUS
10
-40.969730
20
-49.124903
30
0.0
11
-45.169656
21
-49.124353
31
0.0
0
LINE
8
0
6
CONTINUOUS
10
-18.834713
20
-122.146802
30
0.0
11
-23.250662
21
-49.779313
31
0.0
0
LINE
8
0
6
CONTINUOUS
10
-57.857388
20
-49.886253
30
0.0
11
-64.621715
21
-150.239898
31
0.0
0
LINE
8
0
6
CONTINUOUS
10
-36.574034
20
-49.196000
30
0.0
11
-40.955842
21
-49.196060
31
0.0
0
LINE
8
0
6
CONTINUOUS
10
-14.869484
20
-178.915448
30
0.0
11
-12.489633
21
-176.126638
31
0.0
0
LINE
8
0
6
CONTINUOUS
10
-14.188653
20
-128.939748
30
0.0
11
-15.775350
21
-128.350686
31
0.0
0
LINE
8
0
6
CONTINUOUS
10
-20.151074
20
-137.024988
30
0.0
11
-22.068545
21
-137.312885
31
0.0
0
LINE
8
0
6
CONTINUOUS
10
-20.151074
20
-137.024988
30
0.0
11
-28.367395
21
-143.844609
31
0.0
0
LINE
8
0
6
CONTINUOUS
10
-14.851290
20
-183.797204
30
0.0
11
-14.977371
21
-181.795950
31
0.0
0
LINE
8
0
6
CONTINUOUS
10
-65.444263
20
-163.484973
30
0.0
11
-65.634548
21
-166.401779
31
0.0
0
LINE
8
0
6
CONTINUOUS
10
-15.775350
20
-128.350686
30
0.0
11
-18.382564
21
-124.935752
31
0.0
0
LINE
8
0
6
CONTINUOUS
10
-64.928070
20
-154.965753
30
0.0
11
-65.234425
21
-159.691628
31
0.0
0
LINE
8
0
6
CONTINUOUS
10
-32.423585
20
-49.195920
30
0.0
11
-36.574034
21
-49.196000
31
0.0
0
LINE
8
0
6
CONTINUOUS
10
-28.773913
20
-49.195850
30
0.0
11
-32.423585
21
-49.195920
31
0.0
0
LINE
8
0
6
CONTINUOUS
10
-25.908992
20
-49.195900
30
0.0
11
-28.773913
21
-49.195850
31
0.0
0
LINE
8
0
6
CONTINUOUS
10
-24.049111
20
-49.196000
30
0.0
11
-25.908992
21
-49.195900
31
0.0
0
LINE
8
0
6
CONTINUOUS
10
-23.327116
20
-49.196060
30
0.0
11
-24.049111
21
-49.196000
31
0.0
0
LINE
8
0
6
CONTINUOUS
10
-23.250662
20
-49.779313
30
0.0
11
-23.327116
21
-49.196060
31
0.0
0
LINE
8
0
6
CONTINUOUS
10
-57.777707
20
-49.196060
30
0.0
11
-57.857388
21
-49.886253
31
0.0
0
LINE
8
0
6
CONTINUOUS
10
-57.115809
20
-49.196000
30
0.0
11
-57.777707
21
-49.196060
31
0.0
0
LINE
8
0
6
CONTINUOUS
10
-55.469414
20
-49.195920
30
0.0
11
-57.115809
21
-49.196000
31
0.0
0
LINE
8
0
6
CONTINUOUS
10
-54.238089
20
-49.195870
30
0.0
11
-55.469414
21
-49.195920
31
0.0
0
LINE
8
0
6
CONTINUOUS
10
-51.136783
20
-49.195880
30
0.0
11
-52.799454
21
-49.171814
31
0.0
0
LINE
8
0
6
CONTINUOUS
10
-45.280670
20
-49.196000
30
0.0
11
-49.323272
21
-49.195920
31
0.0
0
LINE
8
0
6
CONTINUOUS
10
-40.955842
20
-49.196060
30
0.0
11
-45.280670
21
-49.196000
31
0.0
0
LINE
8
0
6
CONTINUOUS
10
-40.963895
20
-222.540720
30
0.0
11
-33.408103
21
-222.540720
31
0.0
0
LINE
8
0
6
CONTINUOUS
10
-12.455642
20
-221.821212
30
0.0
11
-14.851290
21
-183.797204
31
0.0
0
LINE
8
0
6
CONTINUOUS
10
-65.634548
20
-166.401779
30
0.0
11
-69.250000
21
-221.821212
31
0.0
0
LINE
8
0
6
CONTINUOUS
10
-18.382564
20
-124.935752
30
0.0
11
-18.834713
21
-122.146802
31
0.0
0
LINE
8
0
6
CONTINUOUS
10
-64.621715
20
-150.239898
30
0.0
11
-64.928070
21
-154.965753
31
0.0
0
LINE
8
0
6
CONTINUOUS
10
-18.226469
20
-172.776272
30
0.0
11
-16.242326
21
-174.260130
31
0.0
0
LINE
8
0
6
CONTINUOUS
10
-12.489633
20
-176.126638
30
0.0
11
-10.297989
21
-175.296311
31
0.0
0
LINE
8
0
6
CONTINUOUS
10
-12.807848
20
-128.804133
30
0.0
11
-14.188653
21
-128.939748
31
0.0
0
LINE
8
0
6
CONTINUOUS
10
-14.674792
20
-129.705968
30
0.0
11
-16.803321
21
-132.285146
31
0.0
0
LINE
8
0
6
CONTINUOUS
10
13.279510
20
-161.719027
30
0.0
11
12.744882
21
-159.584577
31
0.0
0
LINE
8
0
6
CONTINUOUS
10
12.627644
20
-159.130850
30
0.0
11
12.067734
21
-156.970415
31
0.0
0
LINE
8
0
6
CONTINUOUS
10
13.597185
20
-162.893202
30
0.0
11
12.627644
21
-159.130850
31
0.0
0
LINE
8
0
6
CONTINUOUS
10
-14.977371
20
-181.795950
30
0.0
11
-14.869484
21
-178.915448
31
0.0
0
LINE
8
0
6
CONTINUOUS
10
-65.234425
20
-159.691628
30
0.0
11
-65.444263
21
-163.484973
31
0.0
0
LINE
8
0
6
CONTINUOUS
10
39.563547
20
-81.845411
30
0.0
11
39.404115
21
-82.897069
31
0.0
0
LINE
8
0
6
CONTINUOUS
10
24.170206
20
-120.542296
30
0.0
11
7.022644
21
-124.974864
31
0.0
0
LINE
8
0
6
CONTINUOUS
10
33.503880
20
-115.956716
30
0.0
11
30.879011
21
-118.104812
31
0.0
0
LINE
8
0
6
CONTINUOUS
10
69.130314
20
-43.517619
30
0.0
11
68.980613
21
-43.045486
31
0.0
0
LINE
8
0
6
CONTINUOUS
10
43.034893
20
-57.777988
30
0.0
11
42.677882
21
-59.714724
31
0.0
0
LINE
8
0
6
CONTINUOUS
10
35.347895
20
-109.909683
30
0.0
11
33.503880
21
-115.956716
31
0.0
0
LINE
8
0
6
CONTINUOUS
10
36.374366
20
-102.936930
30
0.0
11
35.347895
21
-109.909683
31
0.0
0
LINE
8
0
6
CONTINUOUS
10
37.409980
20
-95.961087
30
0.0
11
36.374366
21
-102.936930
31
0.0
0
LINE
8
0
6
CONTINUOUS
10
38.441018
20
-89.081227
30
0.0
11
37.409980
21
-95.961087
31
0.0
0
LINE
8
0
6
CONTINUOUS
10
27.572602
20
-119.461494
30
0.0
11
24.170206
21
-120.542296
31
0.0
0
LINE
8
0
6
CONTINUOUS
10
30.879011
20
-118.104812
30
0.0
11
27.572602
21
-119.461494
31
0.0
0
LINE
8
0
6
CONTINUOUS
10
51.225926
20
-41.840906
30
0.0
11
43.417832
21
-56.753266
31
0.0
0
LINE
8
0
6
CONTINUOUS
10
43.417832
20
-56.753266
30
0.0
11
43.164371
21
-57.247785
31
0.0
0
LINE
8
0
6
CONTINUOUS
10
43.164371
20
-57.247785
30
0.0
11
43.034893
21
-57.777988
31
0.0
0
LINE
8
0
6
CONTINUOUS
10
42.677882
20
-59.714724
30
0.0
11
39.833943
21
-80.113499
31
0.0
0
LINE
8
0
6
CONTINUOUS
10
39.833943
20
-80.113499
30
0.0
11
39.563547
21
-81.845411
31
0.0
0
LINE
8
0
6
CONTINUOUS
10
39.404115
20
-82.897069
30
0.0
11
38.441018
21
-89.081227
31
0.0
0
LINE
8
0
6
CONTINUOUS
10
68.743498
20
-42.785043
30
0.0
11
68.142818
21
-42.614275
31
0.0
0
LINE
8
0
6
CONTINUOUS
10
68.980613
20
-43.045486
30
0.0
11
68.743498
21
-42.785043
31
0.0
0
LINE
8
0
6
CONTINUOUS
10
52.484337
20
-39.295202
30
0.0
11
52.295260
21
-39.735372
31
0.0
0
LINE
8
0
6
CONTINUOUS
10
52.776894
20
-38.757831
30
0.0
11
52.484337
21
-39.295202
31
0.0
0
LINE
8
0
6
CONTINUOUS
10
52.776894
20
-38.757831
30
0.0
11
52.477673
21
-39.339994
31
0.0
0
LINE
8
0
6
CONTINUOUS
10
53.079732
20
-38.450857
30
0.0
11
52.776894
21
-38.757831
31
0.0
0
LINE
8
0
6
CONTINUOUS
10
53.360629
20
-38.423812
30
0.0
11
53.079732
21
-38.450857
31
0.0
0
LINE
8
0
6
CONTINUOUS
10
68.142818
20
-42.614275
30
0.0
11
53.984249
21
-38.600580
31
0.0
0
LINE
8
0
6
CONTINUOUS
10
7.022644
20
-124.974864
30
0.0
11
6.447661
21
-125.123497
31
0.0
0
LINE
8
0
6
CONTINUOUS
10
53.580309
20
-38.680075
30
0.0
11
53.728270
21
-39.154078
31
0.0
0
LINE
8
0
6
CONTINUOUS
10
53.360629
20
-38.423812
30
0.0
11
53.580309
21
-38.680075
31
0.0
0
LINE
8
0
6
CONTINUOUS
10
53.984249
20
-38.600580
30
0.0
11
53.360629
21
-38.423812
31
0.0
0
LINE
8
0
6
CONTINUOUS
10
52.477673
20
-39.339994
30
0.0
11
51.434076
21
-41.566147
31
0.0
0
LINE
8
0
6
CONTINUOUS
10
52.888837
20
-38.801233
30
0.0
11
51.225926
21
-41.840906
31
0.0
0
LINE
8
0
6
CONTINUOUS
10
46.943681
20
-155.767366
30
0.0
11
47.409838
21
-151.691813
31
0.0
0
LINE
8
0
6
CONTINUOUS
10
46.265598
20
-158.609816
30
0.0
11
46.943681
21
-155.767366
31
0.0
0
LINE
8
0
6
CONTINUOUS
10
45.436155
20
-160.116050
30
0.0
11
46.265598
21
-158.609816
31
0.0
0
LINE
8
0
6
CONTINUOUS
10
44.864420
20
-160.265023
30
0.0
11
45.436155
21
-160.116050
31
0.0
0
LINE
8
0
6
CONTINUOUS
10
47.409838
20
-151.691813
30
0.0
11
47.616918
21
-146.627980
31
0.0
0
LINE
8
0
6
CONTINUOUS
10
23.238592
20
-165.896552
30
0.0
11
34.077863
21
-163.094645
31
0.0
0
LINE
8
0
6
CONTINUOUS
10
37.940301
20
-162.096217
30
0.0
11
39.871520
21
-161.596999
31
0.0
0
LINE
8
0
6
CONTINUOUS
10
44.826043
20
-61.407664
30
0.0
11
44.777345
21
-63.592354
31
0.0
0
LINE
8
0
6
CONTINUOUS
10
44.075683
20
-89.432322
30
0.0
11
44.006113
21
-91.191170
31
0.0
0
LINE
8
0
6
CONTINUOUS
10
69.242496
20
-44.059400
30
0.0
11
69.130314
21
-43.517619
31
0.0
0
LINE
8
0
6
CONTINUOUS
10
39.470048
20
-137.059452
30
0.0
11
40.124591
21
-142.626892
31
0.0
0
LINE
8
0
6
CONTINUOUS
10
42.276839
20
-136.333315
30
0.0
11
41.744610
21
-148.124856
31
0.0
0
LINE
8
0
6
CONTINUOUS
10
42.687454
20
-124.610421
30
0.0
11
42.276839
21
-136.333315
31
0.0
0
LINE
8
0
6
CONTINUOUS
10
43.149594
20
-112.884758
30
0.0
11
42.687454
21
-124.610421
31
0.0
0
LINE
8
0
6
CONTINUOUS
10
43.611864
20
-101.157885
30
0.0
11
43.149594
21
-112.884758
31
0.0
0
LINE
8
0
6
CONTINUOUS
10
34.077863
20
-163.094645
30
0.0
11
36.009082
21
-162.595426
31
0.0
0
LINE
8
0
6
CONTINUOUS
10
36.009082
20
-162.595426
30
0.0
11
37.940301
21
-162.096217
31
0.0
0
LINE
8
0
6
CONTINUOUS
10
52.407683
20
-44.859574
30
0.0
11
44.826043
21
-61.407664
31
0.0
0
LINE
8
0
6
CONTINUOUS
10
44.777345
20
-63.592354
30
0.0
11
44.111721
21
-87.300023
31
0.0
0
LINE
8
0
6
CONTINUOUS
10
44.111721
20
-87.300023
30
0.0
11
44.075683
21
-89.432322
31
0.0
0
LINE
8
0
6
CONTINUOUS
10
44.006113
20
-91.191170
30
0.0
11
43.611864
21
-101.157885
31
0.0
0
LINE
8
0
6
CONTINUOUS
10
69.250000
20
-44.745934
30
0.0
11
69.242496
21
-44.059400
31
0.0
0
LINE
8
0
6
CONTINUOUS
10
69.131393
20
-45.532140
30
0.0
11
69.250000
21
-44.745934
31
0.0
0
LINE
8
0
6
CONTINUOUS
10
68.902870
20
-46.304279
30
0.0
11
69.131393
21
-45.532140
31
0.0
0
LINE
8
0
6
CONTINUOUS
10
68.596416
20
-46.981075
30
0.0
11
68.902870
21
-46.304279
31
0.0
0
LINE
8
0
6
CONTINUOUS
10
53.172661
20
-43.132270
30
0.0
11
53.363896
21
-42.700449
31
0.0
0
LINE
8
0
6
CONTINUOUS
10
42.367970
20
-160.931011
30
0.0
11
44.864420
21
-160.265023
31
0.0
0
LINE
8
0
6
CONTINUOUS
10
58.366647
20
-67.244235
30
0.0
11
59.185119
21
-65.495765
31
0.0
0
LINE
8
0
6
CONTINUOUS
10
49.131378
20
-89.762242
30
0.0
11
49.181505
21
-88.011742
31
0.0
0
LINE
8
0
6
CONTINUOUS
10
68.362138
20
-47.398369
30
0.0
11
68.596416
21
-46.981075
31
0.0
0
LINE
8
0
6
CONTINUOUS
10
47.616918
20
-146.627980
30
0.0
11
47.923134
21
-134.887799
31
0.0
0
LINE
8
0
6
CONTINUOUS
10
47.923134
20
-134.887799
30
0.0
11
48.231177
21
-123.152488
31
0.0
0
LINE
8
0
6
CONTINUOUS
10
48.231177
20
-123.152488
30
0.0
11
48.539440
21
-111.417787
31
0.0
0
LINE
8
0
6
CONTINUOUS
10
48.539440
20
-111.417787
30
0.0
11
48.847244
21
-99.681786
31
0.0
0
LINE
8
0
6
CONTINUOUS
10
59.185119
20
-65.495765
30
0.0
11
67.424929
21
-49.067603
31
0.0
0
LINE
8
0
6
CONTINUOUS
10
49.858089
20
-86.246936
30
0.0
11
58.366647
21
-67.244235
31
0.0
0
LINE
8
0
6
CONTINUOUS
10
49.181505
20
-88.011742
30
0.0
11
49.858089
21
-86.246936
31
0.0
0
LINE
8
0
6
CONTINUOUS
10
48.847244
20
-99.681786
30
0.0
11
49.131378
21
-89.762242
31
0.0
0
LINE
8
0
6
CONTINUOUS
10
15.452020
20
-159.995852
30
0.0
11
18.170697
21
-163.218452
31
0.0
0
LINE
8
0
6
CONTINUOUS
10
18.170697
20
-163.218452
30
0.0
11
20.635565
21
-165.264217
31
0.0
0
LINE
8
0
6
CONTINUOUS
10
20.635565
20
-165.264217
30
0.0
11
22.517796
21
-166.082877
31
0.0
0
LINE
8
0
6
CONTINUOUS
10
22.517796
20
-166.082877
30
0.0
11
23.238592
21
-165.896552
31
0.0
0
LINE
8
0
6
CONTINUOUS
10
39.871520
20
-161.596999
30
0.0
11
42.367970
21
-160.931011
31
0.0
0
LINE
8
0
6
CONTINUOUS
10
53.728270
20
-39.154078
30
0.0
11
53.844160
21
-39.701568
31
0.0
0
LINE
8
0
6
CONTINUOUS
10
53.844160
20
-39.701568
30
0.0
11
53.871047
21
-40.399930
31
0.0
0
LINE
8
0
6
CONTINUOUS
10
53.871047
20
-40.399930
30
0.0
11
53.790337
21
-41.201993
31
0.0
0
LINE
8
0
6
CONTINUOUS
10
53.790337
20
-41.201993
30
0.0
11
53.613170
21
-41.995528
31
0.0
0
LINE
8
0
6
CONTINUOUS
10
53.613170
20
-41.995528
30
0.0
11
53.363896
21
-42.700449
31
0.0
0
LINE
8
0
6
CONTINUOUS
10
52.407683
20
-44.859574
30
0.0
11
53.172661
21
-43.132270
31
0.0
0
LINE
8
0
6
CONTINUOUS
10
52.245623
20
-44.708201
30
0.0
11
53.292278
21
-42.493787
31
0.0
0
LINE
8
0
6
CONTINUOUS
10
67.424929
20
-49.067603
30
0.0
11
68.362138
21
-47.398369
31
0.0
0
LINE
8
0
6
CONTINUOUS
10
6.516481
20
-125.387449
30
0.0
11
6.447661
21
-125.123497
31
0.0
0
LINE
8
0
6
CONTINUOUS
10
6.952554
20
-127.074160
30
0.0
11
6.516481
21
-125.387449
31
0.0
0
LINE
8
0
6
CONTINUOUS
10
7.727014
20
-130.072001
30
0.0
11
6.952554
21
-127.074160
31
0.0
0
LINE
8
0
6
CONTINUOUS
10
11.426213
20
-144.398348
30
0.0
11
10.035517
21
-139.011614
31
0.0
0
LINE
8
0
6
CONTINUOUS
10
10.035517
20
-139.011614
30
0.0
11
8.772290
21
-134.119390
31
0.0
0
LINE
8
0
6
CONTINUOUS
10
14.224372
20
-155.238723
30
0.0
11
12.851860
21
-149.921127
31
0.0
0
LINE
8
0
6
CONTINUOUS
10
12.851860
20
-149.921127
30
0.0
11
11.426213
21
-144.398348
31
0.0
0
LINE
8
0
6
CONTINUOUS
10
15.452020
20
-159.995852
30
0.0
11
14.224372
21
-155.238723
31
0.0
0
LINE
8
0
6
CONTINUOUS
10
8.772290
20
-134.119390
30
0.0
11
7.727014
21
-130.072001
31
0.0
0
LINE
8
0
6
CONTINUOUS
10
14.489447
20
-166.443881
30
0.0
11
20.259728
21
-164.952284
31
0.0
0
LINE
8
0
6
CONTINUOUS
10
6.861688
20
-126.730400
30
0.0
11
4.407341
21
-127.364839
31
0.0
0
LINE
8
0
6
CONTINUOUS
10
-28.041540
20
117.113280
30
0.0
11
-26.109810
21
117.496430
31
0.0
0
LINE
8
0
6
CONTINUOUS
10
-33.319120
20
118.160040
30
0.0
11
-28.041540
21
117.879540
31
0.0
0
LINE
8
0
6
CONTINUOUS
10
-28.041540
20
117.879540
30
0.0
11
-26.109810
21
117.496430
31
0.0
0
LINE
8
0
6
CONTINUOUS
10
-26.109810
20
117.496430
30
0.0
11
-26.109810
21
118.456290
31
0.0
0
LINE
8
0
6
CONTINUOUS
10
-53.015310
20
117.113280
30
0.0
11
-52.657030
21
117.094241
31
0.0
0
LINE
8
0
6
CONTINUOUS
10
-28.399820
20
117.094241
30
0.0
11
-28.041540
21
117.113280
31
0.0
0
LINE
8
0
6
CONTINUOUS
10
-47.737730
20
118.160040
30
0.0
11
-40.528420
21
118.262690
31
0.0
0
LINE
8
0
6
CONTINUOUS
10
-54.947030
20
117.496430
30
0.0
11
-53.015310
21
117.113280
31
0.0
0
LINE
8
0
6
CONTINUOUS
10
-54.947030
20
117.496430
30
0.0
11
-53.015310
21
117.879540
31
0.0
0
LINE
8
0
6
CONTINUOUS
10
-54.947030
20
118.456290
30
0.0
11
-54.947030
21
117.496430
31
0.0
0
LINE
8
0
6
CONTINUOUS
10
-53.015310
20
117.879540
30
0.0
11
-47.737730
21
118.160040
31
0.0
0
LINE
8
0
6
CONTINUOUS
10
-40.528420
20
118.262690
30
0.0
11
-33.319120
21
118.160040
31
0.0
0
LINE
8
0
6
CONTINUOUS
10
-53.118170
20
214.249970
30
0.0
11
-53.118170
21
213.059750
31
0.0
0
LINE
8
0
6
CONTINUOUS
10
-27.938670
20
213.059750
30
0.0
11
-27.938670
21
214.249970
31
0.0
0
LINE
8
0
6
CONTINUOUS
10
-55.108470
20
221.285950
30
0.0
11
-55.108470
21
215.209860
31
0.0
0
LINE
8
0
6
CONTINUOUS
10
-25.948380
20
215.209860
30
0.0
11
-25.948380
21
221.285950
31
0.0
0
LINE
8
0
6
CONTINUOUS
10
-33.319120
20
213.243430
30
0.0
11
-40.528420
21
213.346040
31
0.0
0
LINE
8
0
6
CONTINUOUS
10
-40.528420
20
213.346040
30
0.0
11
-47.737730
21
213.243430
31
0.0
0
LINE
8
0
6
CONTINUOUS
10
-47.737730
20
213.243430
30
0.0
11
-53.015310
21
212.962930
31
0.0
0
LINE
8
0
6
CONTINUOUS
10
-28.041540
20
212.962930
30
0.0
11
-33.319120
21
213.243430
31
0.0
0
LINE
8
0
6
CONTINUOUS
10
-54.947040
20
212.579820
30
0.0
11
-54.947040
21
212.099860
31
0.0
0
LINE
8
0
6
CONTINUOUS
10
-53.015310
20
212.962930
30
0.0
11
-54.947040
21
212.579820
31
0.0
0
LINE
8
0
6
CONTINUOUS
10
-26.109810
20
212.579820
30
0.0
11
-28.041540
21
212.962930
31
0.0
0
LINE
8
0
6
CONTINUOUS
10
-26.109810
20
212.099860
30
0.0
11
-26.109810
21
212.579820
31
0.0
0
LINE
8
0
6
CONTINUOUS
10
-46.823300
20
215.309390
30
0.0
11
-40.528420
21
215.399030
31
0.0
0
LINE
8
0
6
CONTINUOUS
10
-51.431460
20
215.064490
30
0.0
11
-53.118170
21
214.729940
31
0.0
0
LINE
8
0
6
CONTINUOUS
10
-53.118170
20
214.729940
30
0.0
11
-53.118170
21
214.249970
31
0.0
0
LINE
8
0
6
CONTINUOUS
10
-27.938670
20
214.249970
30
0.0
11
-27.938670
21
214.729940
31
0.0
0
LINE
8
0
6
CONTINUOUS
10
-29.625380
20
215.064490
30
0.0
11
-27.938670
21
214.729940
31
0.0
0
LINE
8
0
6
CONTINUOUS
10
-40.528420
20
215.399030
30
0.0
11
-34.233550
21
215.309390
31
0.0
0
LINE
8
0
6
CONTINUOUS
10
-34.233550
20
215.309390
30
0.0
11
-29.625380
21
215.064490
31
0.0
0
LINE
8
0
6
CONTINUOUS
10
-51.431460
20
215.064490
30
0.0
11
-46.823300
21
215.309390
31
0.0
0
LINE
8
0
6
CONTINUOUS
10
-47.818450
20
215.400980
30
0.0
11
-40.528420
21
215.504780
31
0.0
0
LINE
8
0
6
CONTINUOUS
10
-55.108470
20
215.209860
30
0.0
11
-55.108470
21
214.729940
31
0.0
0
LINE
8
0
6
CONTINUOUS
10
-53.155110
20
215.117360
30
0.0
11
-55.108470
21
214.729940
31
0.0
0
LINE
8
0
6
CONTINUOUS
10
-27.901730
20
215.117360
30
0.0
11
-25.948380
21
214.729940
31
0.0
0
LINE
8
0
6
CONTINUOUS
10
-25.948380
20
214.729940
30
0.0
11
-25.948380
21
215.209860
31
0.0
0
LINE
8
0
6
CONTINUOUS
10
-40.528420
20
215.504780
30
0.0
11
-33.238400
21
215.400980
31
0.0
0
LINE
8
0
6
CONTINUOUS
10
-33.238400
20
215.400980
30
0.0
11
-27.901730
21
215.117360
31
0.0
0
LINE
8
0
6
CONTINUOUS
10
-53.155110
20
215.117360
30
0.0
11
-47.818450
21
215.400980
31
0.0
0
LINE
8
0
6
CONTINUOUS
10
-27.901730
20
214.342520
30
0.0
11
-25.948380
21
214.729940
31
0.0
0
LINE
8
0
6
CONTINUOUS
10
-55.108470
20
214.729940
30
0.0
11
-53.155110
21
214.342520
31
0.0
0
LINE
8
0
6
CONTINUOUS
10
-40.528420
20
222.540720
30
0.0
11
-47.818450
21
222.436920
31
0.0
0
LINE
8
0
6
CONTINUOUS
10
-53.155110
20
222.153300
30
0.0
11
-55.108470
21
221.765880
31
0.0
0
LINE
8
0
6
CONTINUOUS
10
-55.108470
20
221.765880
30
0.0
11
-55.108470
21
221.285950
31
0.0
0
LINE
8
0
6
CONTINUOUS
10
-25.948380
20
221.765880
30
0.0
11
-27.901730
21
222.153300
31
0.0
0
LINE
8
0
6
CONTINUOUS
10
-25.948380
20
221.285950
30
0.0
11
-25.948380
21
221.765880
31
0.0
0
LINE
8
0
6
CONTINUOUS
10
-33.238400
20
222.436920
30
0.0
11
-40.528420
21
222.540720
31
0.0
0
LINE
8
0
6
CONTINUOUS
10
-27.901730
20
222.153300
30
0.0
11
-33.238400
21
222.436920
31
0.0
0
LINE
8
0
6
CONTINUOUS
10
-47.818450
20
222.436920
30
0.0
11
-53.155110
21
222.153300
31
0.0
0
LINE
8
0
6
CONTINUOUS
10
-26.109810
20
186.157470
30
0.0
11
-26.109810
21
212.099860
31
0.0
0
LINE
8
0
6
CONTINUOUS
10
-26.109810
20
118.456290
30
0.0
11
-26.109810
21
175.956250
31
0.0
0
LINE
8
0
6
CONTINUOUS
10
-54.947030
20
175.956250
30
0.0
11
-54.947030
21
118.456290
31
0.0
0
LINE
8
0
6
CONTINUOUS
10
-54.947040
20
212.099860
30
0.0
11
-54.947030
21
186.157470
31
0.0
0
LINE
8
0
6
CONTINUOUS
10
-26.109810
20
176.991900
30
0.0
11
-26.109810
21
181.080720
31
0.0
0
LINE
8
0
6
CONTINUOUS
10
-26.109810
20
175.956250
30
0.0
11
-26.109810
21
176.991900
31
0.0
0
LINE
8
0
6
CONTINUOUS
10
-26.109810
20
185.145700
30
0.0
11
-26.109810
21
186.157470
31
0.0
0
LINE
8
0
6
CONTINUOUS
10
-54.947040
20
181.080720
30
0.0
11
-54.947030
21
176.991900
31
0.0
0
LINE
8
0
6
CONTINUOUS
10
-54.947030
20
185.145700
30
0.0
11
-54.947040
21
181.080720
31
0.0
0
LINE
8
0
6
CONTINUOUS
10
-54.947030
20
176.991900
30
0.0
11
-54.947030
21
175.956250
31
0.0
0
LINE
8
0
6
CONTINUOUS
10
-26.109810
20
181.080720
30
0.0
11
-26.109810
21
185.145700
31
0.0
0
LINE
8
0
6
CONTINUOUS
10
-54.947030
20
186.157470
30
0.0
11
-54.947030
21
185.145700
31
0.0
0
LINE
8
0
6
CONTINUOUS
10
-49.189480
20
-48.189010
30
0.0
11
-40.528740
21
-48.189030
31
0.0
0
LINE
8
0
6
CONTINUOUS
10
-54.466230
20
76.963290
30
0.0
11
-57.765780
21
-47.286150
31
0.0
0
LINE
8
0
6
CONTINUOUS
10
-56.227010
20
-48.189010
30
0.0
11
-49.189480
21
-48.189010
31
0.0
0
LINE
8
0
6
CONTINUOUS
10
-57.765780
20
-47.286150
30
0.0
11
-57.766580
21
-48.188990
31
0.0
0
LINE
8
0
6
CONTINUOUS
10
-57.766580
20
-48.188990
30
0.0
11
-56.227010
21
-48.189010
31
0.0
0
LINE
8
0
6
CONTINUOUS
10
-54.976490
20
-48.189010
30
0.0
11
-54.976490
21
-49.123189
31
0.0
0
LINE
8
0
6
CONTINUOUS
10
-54.466230
20
90.563870
30
0.0
11
-54.466230
21
76.963290
31
0.0
0
LINE
8
0
6
CONTINUOUS
10
-54.466230
20
101.704390
30
0.0
11
-54.466230
21
90.563870
31
0.0
0
LINE
8
0
6
CONTINUOUS
10
-54.466230
20
109.419610
30
0.0
11
-54.466230
21
101.704390
31
0.0
0
LINE
8
0
6
CONTINUOUS
10
-54.466230
20
116.613790
30
0.0
11
-54.466230
21
109.419610
31
0.0
0
LINE
8
0
6
CONTINUOUS
10
-54.466230
20
117.401065
30
0.0
11
-54.466230
21
116.613790
31
0.0
0
LINE
8
0
6
CONTINUOUS
10
-40.528740
20
-48.189030
30
0.0
11
-31.868020
21
-48.188990
31
0.0
0
LINE
8
0
6
CONTINUOUS
10
-23.291760
20
-47.286130
30
0.0
11
-26.591310
21
76.963290
31
0.0
0
LINE
8
0
6
CONTINUOUS
10
-31.868020
20
-48.188990
30
0.0
11
-24.830510
21
-48.189010
31
0.0
0
LINE
8
0
6
CONTINUOUS
10
-24.830510
20
-48.189010
30
0.0
11
-23.290960
21
-48.189010
31
0.0
0
LINE
8
0
6
CONTINUOUS
10
-23.290960
20
-48.189010
30
0.0
11
-23.291760
21
-47.286130
31
0.0
0
LINE
8
0
6
CONTINUOUS
10
-26.081056
20
-49.125631
30
0.0
11
-26.081057
21
-48.189006
31
0.0
0
LINE
8
0
6
CONTINUOUS
10
-26.591310
20
76.963290
30
0.0
11
-26.591310
21
90.563870
31
0.0
0
LINE
8
0
6
CONTINUOUS
10
-26.591310
20
90.563870
30
0.0
11
-26.591310
21
101.704390
31
0.0
0
LINE
8
0
6
CONTINUOUS
10
-26.591310
20
101.704390
30
0.0
11
-26.591300
21
109.419610
31
0.0
0
LINE
8
0
6
CONTINUOUS
10
-26.591300
20
109.419610
30
0.0
11
-26.591280
21
116.613790
31
0.0
0
LINE
8
0
6
CONTINUOUS
10
-26.591280
20
116.613790
30
0.0
11
-26.591279
21
117.400933
31
0.0
0
LINE
8
0
6
CONTINUOUS
10
-28.399820
20
112.801990
30
0.0
11
-28.399820
21
113.096830
31
0.0
0
LINE
8
0
6
CONTINUOUS
10
-52.657030
20
113.096830
30
0.0
11
-52.657030
21
112.801990
31
0.0
0
LINE
8
0
6
CONTINUOUS
10
-34.464120
20
112.284180
30
0.0
11
-30.024740
21
112.503030
31
0.0
0
LINE
8
0
6
CONTINUOUS
10
-30.024740
20
112.503030
30
0.0
11
-28.399820
21
112.801990
31
0.0
0
LINE
8
0
6
CONTINUOUS
10
-28.399820
20
112.801990
30
0.0
11
-30.024740
21
113.100950
31
0.0
0
LINE
8
0
6
CONTINUOUS
10
-30.024740
20
113.100950
30
0.0
11
-34.464120
21
113.319800
31
0.0
0
LINE
8
0
6
CONTINUOUS
10
-34.464120
20
113.319800
30
0.0
11
-40.528420
21
113.399900
31
0.0
0
LINE
8
0
6
CONTINUOUS
10
-40.528420
20
113.399900
30
0.0
11
-46.592720
21
113.319830
31
0.0
0
LINE
8
0
6
CONTINUOUS
10
-46.592720
20
113.319830
30
0.0
11
-51.032100
21
113.100950
31
0.0
0
LINE
8
0
6
CONTINUOUS
10
-51.032100
20
113.100950
30
0.0
11
-52.657030
21
112.801990
31
0.0
0
LINE
8
0
6
CONTINUOUS
10
-52.657030
20
112.801990
30
0.0
11
-51.032110
21
112.503030
31
0.0
0
LINE
8
0
6
CONTINUOUS
10
-51.032110
20
112.503030
30
0.0
11
-46.592730
21
112.284180
31
0.0
0
LINE
8
0
6
CONTINUOUS
10
-46.592730
20
112.284180
30
0.0
11
-40.528420
21
112.204070
31
0.0
0
LINE
8
0
6
CONTINUOUS
10
-40.528420
20
112.295630
30
0.0
11
-35.392770
21
112.363490
31
0.0
0
LINE
8
0
6
CONTINUOUS
10
-28.399820
20
113.096830
30
0.0
11
-28.399820
21
117.094241
31
0.0
0
LINE
8
0
6
CONTINUOUS
10
-52.657030
20
117.094241
30
0.0
11
-52.657030
21
113.096830
31
0.0
0
LINE
8
0
6
CONTINUOUS
10
-31.633200
20
112.548810
30
0.0
11
-35.392770
21
112.363490
31
0.0
0
LINE
8
0
6
CONTINUOUS
10
-31.633200
20
113.055170
30
0.0
11
-30.257110
21
112.801990
31
0.0
0
LINE
8
0
6
CONTINUOUS
10
-35.392770
20
113.240530
30
0.0
11
-31.633200
21
113.055170
31
0.0
0
LINE
8
0
6
CONTINUOUS
10
-40.528420
20
113.308350
30
0.0
11
-35.392770
21
113.240530
31
0.0
0
LINE
8
0
6
CONTINUOUS
10
-45.664080
20
113.240530
30
0.0
11
-40.528420
21
113.308350
31
0.0
0
LINE
8
0
6
CONTINUOUS
10
-49.423640
20
113.055170
30
0.0
11
-45.664080
21
113.240530
31
0.0
0
LINE
8
0
6
CONTINUOUS
10
-50.799730
20
112.801990
30
0.0
11
-49.423640
21
113.055170
31
0.0
0
LINE
8
0
6
CONTINUOUS
10
-49.423640
20
112.548810
30
0.0
11
-50.799730
21
112.801990
31
0.0
0
LINE
8
0
6
CONTINUOUS
10
-45.664080
20
112.363490
30
0.0
11
-49.423640
21
112.548810
31
0.0
0
LINE
8
0
6
CONTINUOUS
10
-40.528420
20
112.295630
30
0.0
11
-45.664080
21
112.363490
31
0.0
0
LINE
8
0
6
CONTINUOUS
10
-31.633200
20
112.548810
30
0.0
11
-30.257110
21
112.801990
31
0.0
0
LINE
8
0
6
CONTINUOUS
10
-45.664080
20
113.214360
30
0.0
11
-40.528420
21
113.146490
31
0.0
0
LINE
8
0
6
CONTINUOUS
10
-40.528420
20
113.146490
30
0.0
11
-35.392770
21
113.214360
31
0.0
0
LINE
8
0
6
CONTINUOUS
10
-40.528420
20
112.204070
30
0.0
11
-34.464120
21
112.284180
31
0.0
0
ENDSEC
0
EOF
