999
Erzeugt mit innoplus bad 
0
SECTION
2
HEADER
9
$ACADVER
1
AC1009
9
$DWGCODEPAGE
3
ISO8859-1
0
ENDSEC
0
SECTION
2
TABLES
0
TABLE
2
LAYER
70
1
0
LAYER
2
0
70
0
62
7
6
CONTINUOUS
0
ENDTAB
0
ENDSEC
0
SECTION
2
ENTITIES
0
LINE
8
0
6
CONTINUOUS
10
0.121500
20
-0.066500
30
0.0
11
0.120478
21
-0.066500
31
0.0
0
LINE
8
0
6
CONTINUOUS
10
0.120478
20
-0.066500
30
0.0
11
0.117481
21
-0.066500
31
0.0
0
LINE
8
0
6
CONTINUOUS
10
0.117481
20
-0.066500
30
0.0
11
0.115500
21
-0.066500
31
0.0
0
LINE
8
0
6
CONTINUOUS
10
0.067500
20
-0.066500
30
0.0
11
0.065519
21
-0.066500
31
0.0
0
LINE
8
0
6
CONTINUOUS
10
0.065519
20
-0.066500
30
0.0
11
0.062522
21
-0.066500
31
0.0
0
LINE
8
0
6
CONTINUOUS
10
0.062522
20
-0.066500
30
0.0
11
0.061500
21
-0.066500
31
0.0
0
LINE
8
0
6
CONTINUOUS
10
0.087133
20
-0.014441
30
0.0
11
0.085873
21
-0.014441
31
0.0
0
LINE
8
0
6
CONTINUOUS
10
0.105501
20
-0.063557
30
0.0
11
0.105501
21
-0.026769
31
0.0
0
LINE
8
0
6
CONTINUOUS
10
0.087970
20
-0.005163
30
0.0
11
0.087970
21
-0.005284
31
0.0
0
LINE
8
0
6
CONTINUOUS
10
0.090149
20
-0.008548
30
0.0
11
0.090149
21
-0.008670
31
0.0
0
LINE
8
0
6
CONTINUOUS
10
0.089713
20
-0.021423
30
0.0
11
0.089004
21
-0.019490
31
0.0
0
LINE
8
0
6
CONTINUOUS
10
0.077499
20
-0.018607
30
0.0
11
0.077499
21
-0.020690
31
0.0
0
LINE
8
0
6
CONTINUOUS
10
0.077499
20
-0.020690
30
0.0
11
0.077499
21
-0.022773
31
0.0
0
LINE
8
0
6
CONTINUOUS
10
0.077499
20
-0.016524
30
0.0
11
0.077499
21
-0.018607
31
0.0
0
LINE
8
0
6
CONTINUOUS
10
0.077499
20
-0.022773
30
0.0
11
0.077499
21
-0.024856
31
0.0
0
LINE
8
0
6
CONTINUOUS
10
0.077499
20
-0.024856
30
0.0
11
0.077499
21
-0.026769
31
0.0
0
LINE
8
0
6
CONTINUOUS
10
0.089004
20
-0.019490
30
0.0
11
0.090149
21
-0.020346
31
0.0
0
LINE
8
0
6
CONTINUOUS
10
0.087970
20
-0.015769
30
0.0
11
0.087970
21
-0.016611
31
0.0
0
LINE
8
0
6
CONTINUOUS
10
0.087970
20
-0.015019
30
0.0
11
0.087970
21
-0.015769
31
0.0
0
LINE
8
0
6
CONTINUOUS
10
0.090149
20
-0.019232
30
0.0
11
0.090149
21
-0.018476
31
0.0
0
LINE
8
0
6
CONTINUOUS
10
0.087766
20
-0.025015
30
0.0
11
0.088327
21
-0.024136
31
0.0
0
LINE
8
0
6
CONTINUOUS
10
0.095030
20
-0.005284
30
0.0
11
0.095030
21
-0.005163
31
0.0
0
LINE
8
0
6
CONTINUOUS
10
0.093287
20
-0.021423
30
0.0
11
0.093996
21
-0.019490
31
0.0
0
LINE
8
0
6
CONTINUOUS
10
0.091500
20
-0.008827
30
0.0
11
0.091500
21
-0.008949
31
0.0
0
LINE
8
0
6
CONTINUOUS
10
0.092851
20
-0.008670
30
0.0
11
0.092851
21
-0.008548
31
0.0
0
LINE
8
0
6
CONTINUOUS
10
0.093949
20
-0.022862
30
0.0
11
0.094673
21
-0.024136
31
0.0
0
LINE
8
0
6
CONTINUOUS
10
0.105501
20
-0.020690
30
0.0
11
0.105501
21
-0.018607
31
0.0
0
LINE
8
0
6
CONTINUOUS
10
0.105501
20
-0.022773
30
0.0
11
0.105501
21
-0.020690
31
0.0
0
LINE
8
0
6
CONTINUOUS
10
0.105501
20
-0.018607
30
0.0
11
0.105501
21
-0.016524
31
0.0
0
LINE
8
0
6
CONTINUOUS
10
0.091500
20
-0.020616
30
0.0
11
0.091500
21
-0.021455
31
0.0
0
LINE
8
0
6
CONTINUOUS
10
0.105501
20
-0.024856
30
0.0
11
0.105501
21
-0.022773
31
0.0
0
LINE
8
0
6
CONTINUOUS
10
0.105501
20
-0.026769
30
0.0
11
0.105501
21
-0.024856
31
0.0
0
LINE
8
0
6
CONTINUOUS
10
0.104334
20
-0.014441
30
0.0
11
0.097743
21
-0.014441
31
0.0
0
LINE
8
0
6
CONTINUOUS
10
0.104838
20
-0.014441
30
0.0
11
0.104334
21
-0.014441
31
0.0
0
LINE
8
0
6
CONTINUOUS
10
0.105501
20
-0.016524
30
0.0
11
0.105501
21
-0.015077
31
0.0
0
LINE
8
0
6
CONTINUOUS
10
0.092851
20
-0.020346
30
0.0
11
0.093996
21
-0.019490
31
0.0
0
LINE
8
0
6
CONTINUOUS
10
0.091500
20
-0.019494
30
0.0
11
0.091500
21
-0.020616
31
0.0
0
LINE
8
0
6
CONTINUOUS
10
0.095030
20
-0.016611
30
0.0
11
0.095030
21
-0.015769
31
0.0
0
LINE
8
0
6
CONTINUOUS
10
0.095030
20
-0.015769
30
0.0
11
0.095030
21
-0.015019
31
0.0
0
LINE
8
0
6
CONTINUOUS
10
0.091500
20
-0.018739
30
0.0
11
0.091500
21
-0.019494
31
0.0
0
LINE
8
0
6
CONTINUOUS
10
0.092851
20
-0.018476
30
0.0
11
0.092851
21
-0.019232
31
0.0
0
LINE
8
0
6
CONTINUOUS
10
0.094673
20
-0.024136
30
0.0
11
0.095234
21
-0.025015
31
0.0
0
LINE
8
0
6
CONTINUOUS
10
0.089051
20
-0.022862
30
0.0
11
0.088327
21
-0.024136
31
0.0
0
LINE
8
0
6
CONTINUOUS
10
0.089051
20
-0.022862
30
0.0
11
0.089713
21
-0.021423
31
0.0
0
LINE
8
0
6
CONTINUOUS
10
0.094883
20
-0.018454
30
0.0
11
0.094206
21
-0.019913
31
0.0
0
LINE
8
0
6
CONTINUOUS
10
0.093287
20
-0.021423
30
0.0
11
0.093949
21
-0.022862
31
0.0
0
LINE
8
0
6
CONTINUOUS
10
0.094206
20
-0.019913
30
0.0
11
0.093287
21
-0.021423
31
0.0
0
LINE
8
0
6
CONTINUOUS
10
0.095066
20
-0.015332
30
0.0
11
0.095733
21
-0.015897
31
0.0
0
LINE
8
0
6
CONTINUOUS
10
0.077499
20
-0.014441
30
0.0
11
0.077499
21
-0.015077
31
0.0
0
LINE
8
0
6
CONTINUOUS
10
0.078003
20
-0.014441
30
0.0
11
0.077499
21
-0.014441
31
0.0
0
LINE
8
0
6
CONTINUOUS
10
0.081588
20
-0.014441
30
0.0
11
0.079348
21
-0.014441
31
0.0
0
LINE
8
0
6
CONTINUOUS
10
0.079348
20
-0.014441
30
0.0
11
0.078003
21
-0.014441
31
0.0
0
LINE
8
0
6
CONTINUOUS
10
0.084556
20
-0.014441
30
0.0
11
0.081588
21
-0.014441
31
0.0
0
LINE
8
0
6
CONTINUOUS
10
0.087072
20
-0.014441
30
0.0
11
0.086444
21
-0.014441
31
0.0
0
LINE
8
0
6
CONTINUOUS
10
0.086444
20
-0.014441
30
0.0
11
0.084556
21
-0.014441
31
0.0
0
LINE
8
0
6
CONTINUOUS
10
0.105501
20
-0.014441
30
0.0
11
0.104997
21
-0.014441
31
0.0
0
LINE
8
0
6
CONTINUOUS
10
0.105501
20
-0.015077
30
0.0
11
0.105501
21
-0.014441
31
0.0
0
LINE
8
0
6
CONTINUOUS
10
0.103653
20
-0.014441
30
0.0
11
0.101412
21
-0.014441
31
0.0
0
LINE
8
0
6
CONTINUOUS
10
0.104997
20
-0.014441
30
0.0
11
0.103653
21
-0.014441
31
0.0
0
LINE
8
0
6
CONTINUOUS
10
0.101412
20
-0.014441
30
0.0
11
0.098444
21
-0.014441
31
0.0
0
LINE
8
0
6
CONTINUOUS
10
0.096556
20
-0.014441
30
0.0
11
0.095928
21
-0.014441
31
0.0
0
LINE
8
0
6
CONTINUOUS
10
0.098444
20
-0.014441
30
0.0
11
0.096556
21
-0.014441
31
0.0
0
LINE
8
0
6
CONTINUOUS
10
0.087819
20
-0.014297
30
0.0
11
0.087072
21
-0.014441
31
0.0
0
LINE
8
0
6
CONTINUOUS
10
0.095928
20
-0.014441
30
0.0
11
0.095181
21
-0.014297
31
0.0
0
LINE
8
0
6
CONTINUOUS
10
0.077499
20
-0.015077
30
0.0
11
0.077499
21
-0.016524
31
0.0
0
LINE
8
0
6
CONTINUOUS
10
0.077499
20
-0.026769
30
0.0
11
0.077499
21
-0.063557
31
0.0
0
LINE
8
0
6
CONTINUOUS
10
0.105501
20
-0.066500
30
0.0
11
0.105501
21
-0.064057
31
0.0
0
LINE
8
0
6
CONTINUOUS
10
0.097743
20
-0.014441
30
0.0
11
0.095030
21
-0.014441
31
0.0
0
LINE
8
0
6
CONTINUOUS
10
0.084875
20
-0.014441
30
0.0
11
0.084944
21
-0.014441
31
0.0
0
LINE
8
0
6
CONTINUOUS
10
0.087970
20
-0.014441
30
0.0
11
0.084875
21
-0.014441
31
0.0
0
LINE
8
0
6
CONTINUOUS
10
0.097124
20
-0.014441
30
0.0
11
0.095861
21
-0.014441
31
0.0
0
LINE
8
0
6
CONTINUOUS
10
0.091500
20
-0.001500
30
0.0
11
0.090149
21
-0.001779
31
0.0
0
LINE
8
0
6
CONTINUOUS
10
0.088239
20
-0.003761
30
0.0
11
0.087970
21
-0.005163
31
0.0
0
LINE
8
0
6
CONTINUOUS
10
0.087970
20
-0.005163
30
0.0
11
0.088239
21
-0.006565
31
0.0
0
LINE
8
0
6
CONTINUOUS
10
0.088239
20
-0.006565
30
0.0
11
0.089004
21
-0.007754
31
0.0
0
LINE
8
0
6
CONTINUOUS
10
0.089004
20
-0.007754
30
0.0
11
0.090149
21
-0.008548
31
0.0
0
LINE
8
0
6
CONTINUOUS
10
0.090149
20
-0.008548
30
0.0
11
0.091500
21
-0.008827
31
0.0
0
LINE
8
0
6
CONTINUOUS
10
0.092851
20
-0.001779
30
0.0
11
0.091500
21
-0.001500
31
0.0
0
LINE
8
0
6
CONTINUOUS
10
0.095030
20
-0.005163
30
0.0
11
0.094761
21
-0.003761
31
0.0
0
LINE
8
0
6
CONTINUOUS
10
0.094761
20
-0.006565
30
0.0
11
0.095030
21
-0.005163
31
0.0
0
LINE
8
0
6
CONTINUOUS
10
0.093996
20
-0.007754
30
0.0
11
0.094761
21
-0.006565
31
0.0
0
LINE
8
0
6
CONTINUOUS
10
0.092851
20
-0.008548
30
0.0
11
0.093996
21
-0.007754
31
0.0
0
LINE
8
0
6
CONTINUOUS
10
0.091500
20
-0.008827
30
0.0
11
0.092851
21
-0.008548
31
0.0
0
LINE
8
0
6
CONTINUOUS
10
0.089004
20
-0.002573
30
0.0
11
0.088576
21
-0.003237
31
0.0
0
LINE
8
0
6
CONTINUOUS
10
0.089500
20
-0.002229
30
0.0
11
0.089004
21
-0.002573
31
0.0
0
LINE
8
0
6
CONTINUOUS
10
0.094424
20
-0.003237
30
0.0
11
0.093996
21
-0.002573
31
0.0
0
LINE
8
0
6
CONTINUOUS
10
0.093996
20
-0.002573
30
0.0
11
0.093500
21
-0.002229
31
0.0
0
LINE
8
0
6
CONTINUOUS
10
0.088576
20
-0.003237
30
0.0
11
0.088239
21
-0.003761
31
0.0
0
LINE
8
0
6
CONTINUOUS
10
0.090149
20
-0.001779
30
0.0
11
0.089500
21
-0.002229
31
0.0
0
LINE
8
0
6
CONTINUOUS
10
0.093500
20
-0.002229
30
0.0
11
0.092851
21
-0.001779
31
0.0
0
LINE
8
0
6
CONTINUOUS
10
0.094761
20
-0.003761
30
0.0
11
0.094424
21
-0.003237
31
0.0
0
LINE
8
0
6
CONTINUOUS
10
0.092851
20
-0.008670
30
0.0
11
0.092851
21
-0.018476
31
0.0
0
LINE
8
0
6
CONTINUOUS
10
0.095030
20
-0.015019
30
0.0
11
0.095030
21
-0.005284
31
0.0
0
LINE
8
0
6
CONTINUOUS
10
0.091500
20
-0.018739
30
0.0
11
0.091500
21
-0.008949
31
0.0
0
LINE
8
0
6
CONTINUOUS
10
0.090149
20
-0.018476
30
0.0
11
0.090149
21
-0.008670
31
0.0
0
LINE
8
0
6
CONTINUOUS
10
0.087970
20
-0.005284
30
0.0
11
0.087970
21
-0.015019
31
0.0
0
LINE
8
0
6
CONTINUOUS
10
0.077499
20
-0.064057
30
0.0
11
0.077499
21
-0.066500
31
0.0
0
LINE
8
0
6
CONTINUOUS
10
0.081588
20
-0.063682
30
0.0
11
0.079348
21
-0.063682
31
0.0
0
LINE
8
0
6
CONTINUOUS
10
0.081941
20
-0.063807
30
0.0
11
0.079783
21
-0.063807
31
0.0
0
LINE
8
0
6
CONTINUOUS
10
0.081588
20
-0.063932
30
0.0
11
0.079348
21
-0.063932
31
0.0
0
LINE
8
0
6
CONTINUOUS
10
0.079348
20
-0.063682
30
0.0
11
0.078003
21
-0.063682
31
0.0
0
LINE
8
0
6
CONTINUOUS
10
0.079783
20
-0.063807
30
0.0
11
0.078487
21
-0.063807
31
0.0
0
LINE
8
0
6
CONTINUOUS
10
0.079348
20
-0.063932
30
0.0
11
0.078003
21
-0.063932
31
0.0
0
LINE
8
0
6
CONTINUOUS
10
0.077499
20
-0.063557
30
0.0
11
0.077499
21
-0.063682
31
0.0
0
LINE
8
0
6
CONTINUOUS
10
0.077499
20
-0.063682
30
0.0
11
0.077999
21
-0.063807
31
0.0
0
LINE
8
0
6
CONTINUOUS
10
0.078003
20
-0.063682
30
0.0
11
0.077499
21
-0.063682
31
0.0
0
LINE
8
0
6
CONTINUOUS
10
0.077999
20
-0.063807
30
0.0
11
0.077499
21
-0.063932
31
0.0
0
LINE
8
0
6
CONTINUOUS
10
0.078487
20
-0.063807
30
0.0
11
0.077999
21
-0.063807
31
0.0
0
LINE
8
0
6
CONTINUOUS
10
0.077499
20
-0.063932
30
0.0
11
0.077499
21
-0.064057
31
0.0
0
LINE
8
0
6
CONTINUOUS
10
0.078003
20
-0.063932
30
0.0
11
0.077499
21
-0.063932
31
0.0
0
LINE
8
0
6
CONTINUOUS
10
0.084556
20
-0.063682
30
0.0
11
0.081588
21
-0.063682
31
0.0
0
LINE
8
0
6
CONTINUOUS
10
0.084801
20
-0.063807
30
0.0
11
0.081941
21
-0.063807
31
0.0
0
LINE
8
0
6
CONTINUOUS
10
0.084556
20
-0.063932
30
0.0
11
0.081588
21
-0.063932
31
0.0
0
LINE
8
0
6
CONTINUOUS
10
0.087916
20
-0.063682
30
0.0
11
0.084556
21
-0.063682
31
0.0
0
LINE
8
0
6
CONTINUOUS
10
0.088044
20
-0.063807
30
0.0
11
0.084801
21
-0.063807
31
0.0
0
LINE
8
0
6
CONTINUOUS
10
0.087916
20
-0.063932
30
0.0
11
0.084556
21
-0.063932
31
0.0
0
LINE
8
0
6
CONTINUOUS
10
0.091500
20
-0.063682
30
0.0
11
0.087916
21
-0.063682
31
0.0
0
LINE
8
0
6
CONTINUOUS
10
0.091500
20
-0.063807
30
0.0
11
0.088044
21
-0.063807
31
0.0
0
LINE
8
0
6
CONTINUOUS
10
0.091500
20
-0.063932
30
0.0
11
0.087916
21
-0.063932
31
0.0
0
LINE
8
0
6
CONTINUOUS
10
0.103653
20
-0.063682
30
0.0
11
0.101412
21
-0.063682
31
0.0
0
LINE
8
0
6
CONTINUOUS
10
0.103217
20
-0.063807
30
0.0
11
0.101059
21
-0.063807
31
0.0
0
LINE
8
0
6
CONTINUOUS
10
0.103653
20
-0.063932
30
0.0
11
0.101412
21
-0.063932
31
0.0
0
LINE
8
0
6
CONTINUOUS
10
0.104997
20
-0.063682
30
0.0
11
0.103653
21
-0.063682
31
0.0
0
LINE
8
0
6
CONTINUOUS
10
0.104513
20
-0.063807
30
0.0
11
0.103217
21
-0.063807
31
0.0
0
LINE
8
0
6
CONTINUOUS
10
0.104997
20
-0.063932
30
0.0
11
0.103653
21
-0.063932
31
0.0
0
LINE
8
0
6
CONTINUOUS
10
0.105501
20
-0.063682
30
0.0
11
0.105501
21
-0.063557
31
0.0
0
LINE
8
0
6
CONTINUOUS
10
0.105001
20
-0.063807
30
0.0
11
0.105501
21
-0.063682
31
0.0
0
LINE
8
0
6
CONTINUOUS
10
0.105501
20
-0.063682
30
0.0
11
0.104997
21
-0.063682
31
0.0
0
LINE
8
0
6
CONTINUOUS
10
0.105501
20
-0.063932
30
0.0
11
0.105001
21
-0.063807
31
0.0
0
LINE
8
0
6
CONTINUOUS
10
0.105001
20
-0.063807
30
0.0
11
0.104513
21
-0.063807
31
0.0
0
LINE
8
0
6
CONTINUOUS
10
0.105501
20
-0.064057
30
0.0
11
0.105501
21
-0.063932
31
0.0
0
LINE
8
0
6
CONTINUOUS
10
0.105501
20
-0.063932
30
0.0
11
0.104997
21
-0.063932
31
0.0
0
LINE
8
0
6
CONTINUOUS
10
0.101412
20
-0.063682
30
0.0
11
0.098444
21
-0.063682
31
0.0
0
LINE
8
0
6
CONTINUOUS
10
0.101059
20
-0.063807
30
0.0
11
0.098199
21
-0.063807
31
0.0
0
LINE
8
0
6
CONTINUOUS
10
0.101412
20
-0.063932
30
0.0
11
0.098444
21
-0.063932
31
0.0
0
LINE
8
0
6
CONTINUOUS
10
0.098444
20
-0.063682
30
0.0
11
0.095084
21
-0.063682
31
0.0
0
LINE
8
0
6
CONTINUOUS
10
0.098199
20
-0.063807
30
0.0
11
0.094956
21
-0.063807
31
0.0
0
LINE
8
0
6
CONTINUOUS
10
0.098444
20
-0.063932
30
0.0
11
0.095084
21
-0.063932
31
0.0
0
LINE
8
0
6
CONTINUOUS
10
0.095084
20
-0.063682
30
0.0
11
0.091500
21
-0.063682
31
0.0
0
LINE
8
0
6
CONTINUOUS
10
0.094956
20
-0.063807
30
0.0
11
0.091500
21
-0.063807
31
0.0
0
LINE
8
0
6
CONTINUOUS
10
0.095084
20
-0.063932
30
0.0
11
0.091500
21
-0.063932
31
0.0
0
LINE
8
0
6
CONTINUOUS
10
0.120478
20
-0.072500
30
0.0
11
0.121500
21
-0.072500
31
0.0
0
LINE
8
0
6
CONTINUOUS
10
0.121500
20
-0.072500
30
0.0
11
0.121500
21
-0.071553
31
0.0
0
LINE
8
0
6
CONTINUOUS
10
0.117481
20
-0.072500
30
0.0
11
0.120478
21
-0.072500
31
0.0
0
LINE
8
0
6
CONTINUOUS
10
0.112713
20
-0.072500
30
0.0
11
0.117481
21
-0.072500
31
0.0
0
LINE
8
0
6
CONTINUOUS
10
0.106500
20
-0.072500
30
0.0
11
0.112713
21
-0.072500
31
0.0
0
LINE
8
0
6
CONTINUOUS
10
0.099265
20
-0.072500
30
0.0
11
0.106500
21
-0.072500
31
0.0
0
LINE
8
0
6
CONTINUOUS
10
0.091500
20
-0.072500
30
0.0
11
0.099265
21
-0.072500
31
0.0
0
LINE
8
0
6
CONTINUOUS
10
0.083735
20
-0.072500
30
0.0
11
0.091500
21
-0.072500
31
0.0
0
LINE
8
0
6
CONTINUOUS
10
0.076500
20
-0.072500
30
0.0
11
0.083735
21
-0.072500
31
0.0
0
LINE
8
0
6
CONTINUOUS
10
0.070287
20
-0.072500
30
0.0
11
0.076500
21
-0.072500
31
0.0
0
LINE
8
0
6
CONTINUOUS
10
0.065519
20
-0.072500
30
0.0
11
0.070287
21
-0.072500
31
0.0
0
LINE
8
0
6
CONTINUOUS
10
0.062522
20
-0.072500
30
0.0
11
0.065519
21
-0.072500
31
0.0
0
LINE
8
0
6
CONTINUOUS
10
0.061500
20
-0.072500
30
0.0
11
0.062522
21
-0.072500
31
0.0
0
LINE
8
0
6
CONTINUOUS
10
0.061500
20
-0.071553
30
0.0
11
0.061500
21
-0.072500
31
0.0
0
LINE
8
0
6
CONTINUOUS
10
0.121500
20
-0.071553
30
0.0
11
0.121500
21
-0.067447
31
0.0
0
LINE
8
0
6
CONTINUOUS
10
0.121500
20
-0.067447
30
0.0
11
0.121500
21
-0.066500
31
0.0
0
LINE
8
0
6
CONTINUOUS
10
0.121500
20
-0.066500
30
0.0
11
0.120478
21
-0.066500
31
0.0
0
LINE
8
0
6
CONTINUOUS
10
0.120478
20
-0.066500
30
0.0
11
0.117481
21
-0.066500
31
0.0
0
LINE
8
0
6
CONTINUOUS
10
0.117481
20
-0.066500
30
0.0
11
0.112713
21
-0.066500
31
0.0
0
LINE
8
0
6
CONTINUOUS
10
0.112713
20
-0.066500
30
0.0
11
0.106500
21
-0.066500
31
0.0
0
LINE
8
0
6
CONTINUOUS
10
0.106500
20
-0.066500
30
0.0
11
0.099265
21
-0.066500
31
0.0
0
LINE
8
0
6
CONTINUOUS
10
0.099265
20
-0.066500
30
0.0
11
0.091500
21
-0.066500
31
0.0
0
LINE
8
0
6
CONTINUOUS
10
0.091500
20
-0.066500
30
0.0
11
0.083735
21
-0.066500
31
0.0
0
LINE
8
0
6
CONTINUOUS
10
0.083735
20
-0.066500
30
0.0
11
0.076500
21
-0.066500
31
0.0
0
LINE
8
0
6
CONTINUOUS
10
0.076500
20
-0.066500
30
0.0
11
0.070287
21
-0.066500
31
0.0
0
LINE
8
0
6
CONTINUOUS
10
0.070287
20
-0.066500
30
0.0
11
0.065519
21
-0.066500
31
0.0
0
LINE
8
0
6
CONTINUOUS
10
0.065519
20
-0.066500
30
0.0
11
0.062522
21
-0.066500
31
0.0
0
LINE
8
0
6
CONTINUOUS
10
0.061500
20
-0.066500
30
0.0
11
0.061500
21
-0.067447
31
0.0
0
LINE
8
0
6
CONTINUOUS
10
0.062522
20
-0.066500
30
0.0
11
0.061500
21
-0.066500
31
0.0
0
LINE
8
0
6
CONTINUOUS
10
0.061500
20
-0.067447
30
0.0
11
0.061500
21
-0.071553
31
0.0
0
LINE
8
0
6
CONTINUOUS
10
0.067500
20
-0.012004
30
0.0
11
0.067500
21
-0.066500
31
0.0
0
LINE
8
0
6
CONTINUOUS
10
0.077000
20
0.014987
30
0.0
11
0.077000
21
-0.010099
31
0.0
0
LINE
8
0
6
CONTINUOUS
10
0.076859
20
0.021209
30
0.0
11
0.077036
21
0.018111
31
0.0
0
LINE
8
0
6
CONTINUOUS
10
0.105616
20
0.022447
30
0.0
11
0.104557
21
0.029801
31
0.0
0
LINE
8
0
6
CONTINUOUS
10
0.074880
20
0.027109
30
0.0
11
0.076125
21
0.024245
31
0.0
0
LINE
8
0
6
CONTINUOUS
10
0.102266
20
0.036911
30
0.0
11
0.098789
21
0.043521
31
0.0
0
LINE
8
0
6
CONTINUOUS
10
0.071243
20
0.032158
30
0.0
11
0.073243
21
0.029777
31
0.0
0
LINE
8
0
6
CONTINUOUS
10
0.094413
20
0.049596
30
0.0
11
0.089215
21
0.054918
31
0.0
0
LINE
8
0
6
CONTINUOUS
10
0.066272
20
0.035903
30
0.0
11
0.068893
21
0.034225
31
0.0
0
LINE
8
0
6
CONTINUOUS
10
0.083245
20
0.059431
30
0.0
11
0.076695
21
0.062966
31
0.0
0
LINE
8
0
6
CONTINUOUS
10
0.060415
20
0.038008
30
0.0
11
0.063415
21
0.037175
31
0.0
0
LINE
8
0
6
CONTINUOUS
10
0.069654
20
0.065425
30
0.0
11
0.062352
21
0.066943
31
0.0
0
LINE
8
0
6
CONTINUOUS
10
0.053112
20
0.038400
30
0.0
11
0.060415
21
0.038008
31
0.0
0
LINE
8
0
6
CONTINUOUS
10
0.062352
20
0.066943
30
0.0
11
0.053708
21
0.067336
31
0.0
0
LINE
8
0
6
CONTINUOUS
10
-0.125465
20
0.043528
30
0.0
11
-0.119591
21
0.043360
31
0.0
0
LINE
8
0
6
CONTINUOUS
10
-0.092531
20
0.042583
30
0.0
11
0.053112
21
0.038400
31
0.0
0
LINE
8
0
6
CONTINUOUS
10
0.053708
20
0.067336
30
0.0
11
-0.123786
21
0.072463
31
0.0
0
LINE
8
0
6
CONTINUOUS
10
-0.125031
20
0.068890
30
0.0
11
-0.124920
21
0.070796
31
0.0
0
LINE
8
0
6
CONTINUOUS
10
-0.126500
20
0.043565
30
0.0
11
-0.125465
21
0.043528
31
0.0
0
LINE
8
0
6
CONTINUOUS
10
-0.126459
20
0.044273
30
0.0
11
-0.126500
21
0.043565
31
0.0
0
LINE
8
0
6
CONTINUOUS
10
-0.126340
20
0.046328
30
0.0
11
-0.126459
21
0.044273
31
0.0
0
LINE
8
0
6
CONTINUOUS
10
-0.126154
20
0.049529
30
0.0
11
-0.126340
21
0.046328
31
0.0
0
LINE
8
0
6
CONTINUOUS
10
-0.125920
20
0.053562
30
0.0
11
-0.126154
21
0.049529
31
0.0
0
LINE
8
0
6
CONTINUOUS
10
-0.125661
20
0.058032
30
0.0
11
-0.125920
21
0.053562
31
0.0
0
LINE
8
0
6
CONTINUOUS
10
-0.125401
20
0.062503
30
0.0
11
-0.125661
21
0.058032
31
0.0
0
LINE
8
0
6
CONTINUOUS
10
-0.125167
20
0.066536
30
0.0
11
-0.125401
21
0.062503
31
0.0
0
LINE
8
0
6
CONTINUOUS
10
-0.124981
20
0.069737
30
0.0
11
-0.125167
21
0.066536
31
0.0
0
LINE
8
0
6
CONTINUOUS
10
-0.124862
20
0.071792
30
0.0
11
-0.124981
21
0.069737
31
0.0
0
LINE
8
0
6
CONTINUOUS
10
-0.123786
20
0.072463
30
0.0
11
-0.124821
21
0.072500
31
0.0
0
LINE
8
0
6
CONTINUOUS
10
-0.124821
20
0.072500
30
0.0
11
-0.124862
21
0.071792
31
0.0
0
LINE
8
0
6
CONTINUOUS
10
0.106000
20
-0.010099
30
0.0
11
0.106000
21
0.014987
31
0.0
0
LINE
8
0
6
CONTINUOUS
10
-0.095377
20
0.027611
30
0.0
11
-0.095219
21
0.028553
31
0.0
0
LINE
8
0
6
CONTINUOUS
10
-0.096020
20
0.027734
30
0.0
11
-0.095377
21
0.027611
31
0.0
0
LINE
8
0
6
CONTINUOUS
10
-0.097884
20
0.028091
30
0.0
11
-0.096020
21
0.027734
31
0.0
0
LINE
8
0
6
CONTINUOUS
10
-0.100787
20
0.028648
30
0.0
11
-0.097884
21
0.028091
31
0.0
0
LINE
8
0
6
CONTINUOUS
10
-0.104445
20
0.029349
30
0.0
11
-0.100787
21
0.028648
31
0.0
0
LINE
8
0
6
CONTINUOUS
10
-0.108500
20
0.030125
30
0.0
11
-0.104445
21
0.029349
31
0.0
0
LINE
8
0
6
CONTINUOUS
10
-0.112555
20
0.030902
30
0.0
11
-0.108500
21
0.030125
31
0.0
0
LINE
8
0
6
CONTINUOUS
10
-0.116213
20
0.031603
30
0.0
11
-0.112555
21
0.030902
31
0.0
0
LINE
8
0
6
CONTINUOUS
10
-0.119116
20
0.032160
30
0.0
11
-0.116213
21
0.031603
31
0.0
0
LINE
8
0
6
CONTINUOUS
10
-0.120980
20
0.032517
30
0.0
11
-0.119116
21
0.032160
31
0.0
0
LINE
8
0
6
CONTINUOUS
10
-0.121464
20
0.033581
30
0.0
11
-0.121623
21
0.032640
31
0.0
0
LINE
8
0
6
CONTINUOUS
10
-0.121623
20
0.032640
30
0.0
11
-0.120980
21
0.032517
31
0.0
0
LINE
8
0
6
CONTINUOUS
10
-0.095219
20
0.028553
30
0.0
11
-0.092531
21
0.042583
31
0.0
0
LINE
8
0
6
CONTINUOUS
10
-0.100493
20
0.050091
30
0.0
11
-0.104548
21
0.050868
31
0.0
0
LINE
8
0
6
CONTINUOUS
10
-0.119591
20
0.043360
30
0.0
11
-0.121464
21
0.033581
31
0.0
0
LINE
8
0
6
CONTINUOUS
10
-0.104548
20
0.050868
30
0.0
11
-0.108603
21
0.051645
31
0.0
0
LINE
8
0
6
CONTINUOUS
10
0.115500
20
-0.066500
30
0.0
11
0.115500
21
-0.012004
31
0.0
0
LINE
8
0
6
CONTINUOUS
10
0.077000
20
-0.010099
30
0.0
11
0.077000
21
-0.011004
31
0.0
0
LINE
8
0
6
CONTINUOUS
10
0.077710
20
-0.011004
30
0.0
11
0.077000
21
-0.011004
31
0.0
0
LINE
8
0
6
CONTINUOUS
10
0.079769
20
-0.011004
30
0.0
11
0.077710
21
-0.011004
31
0.0
0
LINE
8
0
6
CONTINUOUS
10
0.082977
20
-0.011004
30
0.0
11
0.079769
21
-0.011004
31
0.0
0
LINE
8
0
6
CONTINUOUS
10
0.087019
20
-0.011004
30
0.0
11
0.082977
21
-0.011004
31
0.0
0
LINE
8
0
6
CONTINUOUS
10
0.087970
20
-0.011004
30
0.0
11
0.087019
21
-0.011004
31
0.0
0
LINE
8
0
6
CONTINUOUS
10
0.095981
20
-0.011004
30
0.0
11
0.095030
21
-0.011004
31
0.0
0
LINE
8
0
6
CONTINUOUS
10
0.100023
20
-0.011004
30
0.0
11
0.095981
21
-0.011004
31
0.0
0
LINE
8
0
6
CONTINUOUS
10
0.103231
20
-0.011004
30
0.0
11
0.100023
21
-0.011004
31
0.0
0
LINE
8
0
6
CONTINUOUS
10
0.105290
20
-0.011004
30
0.0
11
0.103231
21
-0.011004
31
0.0
0
LINE
8
0
6
CONTINUOUS
10
0.106000
20
-0.011004
30
0.0
11
0.106000
21
-0.010099
31
0.0
0
LINE
8
0
6
CONTINUOUS
10
0.106000
20
-0.011004
30
0.0
11
0.105290
21
-0.011004
31
0.0
0
LINE
8
0
6
CONTINUOUS
10
0.067500
20
-0.011004
30
0.0
11
0.067500
21
-0.012004
31
0.0
0
LINE
8
0
6
CONTINUOUS
10
0.068318
20
-0.011004
30
0.0
11
0.067500
21
-0.011004
31
0.0
0
LINE
8
0
6
CONTINUOUS
10
0.070715
20
-0.011004
30
0.0
11
0.068318
21
-0.011004
31
0.0
0
LINE
8
0
6
CONTINUOUS
10
0.074529
20
-0.011004
30
0.0
11
0.070715
21
-0.011004
31
0.0
0
LINE
8
0
6
CONTINUOUS
10
0.079500
20
-0.011004
30
0.0
11
0.074529
21
-0.011004
31
0.0
0
LINE
8
0
6
CONTINUOUS
10
0.085288
20
-0.011004
30
0.0
11
0.079500
21
-0.011004
31
0.0
0
LINE
8
0
6
CONTINUOUS
10
0.087970
20
-0.011004
30
0.0
11
0.085288
21
-0.011004
31
0.0
0
LINE
8
0
6
CONTINUOUS
10
0.097712
20
-0.011004
30
0.0
11
0.095030
21
-0.011004
31
0.0
0
LINE
8
0
6
CONTINUOUS
10
0.103500
20
-0.011004
30
0.0
11
0.097712
21
-0.011004
31
0.0
0
LINE
8
0
6
CONTINUOUS
10
0.108471
20
-0.011004
30
0.0
11
0.103500
21
-0.011004
31
0.0
0
LINE
8
0
6
CONTINUOUS
10
0.112285
20
-0.011004
30
0.0
11
0.108471
21
-0.011004
31
0.0
0
LINE
8
0
6
CONTINUOUS
10
0.114682
20
-0.011004
30
0.0
11
0.112285
21
-0.011004
31
0.0
0
LINE
8
0
6
CONTINUOUS
10
0.115500
20
-0.011004
30
0.0
11
0.114682
21
-0.011004
31
0.0
0
LINE
8
0
6
CONTINUOUS
10
0.115500
20
-0.012004
30
0.0
11
0.115500
21
-0.011004
31
0.0
0
LINE
8
0
6
CONTINUOUS
10
-0.125031
20
0.068890
30
0.0
11
-0.124920
21
0.070796
31
0.0
0
LINE
8
0
6
CONTINUOUS
10
0.104557
20
0.029801
30
0.0
11
0.102266
21
0.036911
31
0.0
0
LINE
8
0
6
CONTINUOUS
10
0.076125
20
0.024245
30
0.0
11
0.076859
21
0.021209
31
0.0
0
LINE
8
0
6
CONTINUOUS
10
0.098789
20
0.043521
30
0.0
11
0.094413
21
0.049596
31
0.0
0
LINE
8
0
6
CONTINUOUS
10
0.073243
20
0.029777
30
0.0
11
0.074880
21
0.027109
31
0.0
0
LINE
8
0
6
CONTINUOUS
10
0.106000
20
0.014987
30
0.0
11
0.105616
21
0.022447
31
0.0
0
LINE
8
0
6
CONTINUOUS
10
0.077036
20
0.018111
30
0.0
11
0.077000
21
0.014987
31
0.0
0
LINE
8
0
6
CONTINUOUS
10
0.089215
20
0.054918
30
0.0
11
0.083245
21
0.059431
31
0.0
0
LINE
8
0
6
CONTINUOUS
10
0.068893
20
0.034225
30
0.0
11
0.071243
21
0.032158
31
0.0
0
LINE
8
0
6
CONTINUOUS
10
0.076695
20
0.062966
30
0.0
11
0.069654
21
0.065425
31
0.0
0
LINE
8
0
6
CONTINUOUS
10
0.063415
20
0.037175
30
0.0
11
0.066272
21
0.035903
31
0.0
0
LINE
8
0
6
CONTINUOUS
10
0.125307
20
-0.072500
30
0.0
11
0.126500
21
-0.072500
31
0.0
0
LINE
8
0
6
CONTINUOUS
10
0.126500
20
-0.072500
30
0.0
11
0.126500
21
-0.071553
31
0.0
0
LINE
8
0
6
CONTINUOUS
10
0.121811
20
-0.072500
30
0.0
11
0.125307
21
-0.072500
31
0.0
0
LINE
8
0
6
CONTINUOUS
10
0.057693
20
-0.072500
30
0.0
11
0.061189
21
-0.072500
31
0.0
0
LINE
8
0
6
CONTINUOUS
10
0.056500
20
-0.072500
30
0.0
11
0.057693
21
-0.072500
31
0.0
0
LINE
8
0
6
CONTINUOUS
10
0.056500
20
-0.071553
30
0.0
11
0.056500
21
-0.072500
31
0.0
0
LINE
8
0
6
CONTINUOUS
10
0.126500
20
-0.071553
30
0.0
11
0.126500
21
-0.067447
31
0.0
0
LINE
8
0
6
CONTINUOUS
10
0.126500
20
-0.067447
30
0.0
11
0.126500
21
-0.066500
31
0.0
0
LINE
8
0
6
CONTINUOUS
10
0.126500
20
-0.066500
30
0.0
11
0.125307
21
-0.066500
31
0.0
0
LINE
8
0
6
CONTINUOUS
10
0.125307
20
-0.066500
30
0.0
11
0.121811
21
-0.066500
31
0.0
0
LINE
8
0
6
CONTINUOUS
10
0.121811
20
-0.066500
30
0.0
11
0.116249
21
-0.066500
31
0.0
0
LINE
8
0
6
CONTINUOUS
10
0.116249
20
-0.066500
30
0.0
11
0.109000
21
-0.066500
31
0.0
0
LINE
8
0
6
CONTINUOUS
10
0.109000
20
-0.066500
30
0.0
11
0.105501
21
-0.066500
31
0.0
0
LINE
8
0
6
CONTINUOUS
10
0.077499
20
-0.066500
30
0.0
11
0.074000
21
-0.066500
31
0.0
0
LINE
8
0
6
CONTINUOUS
10
0.074000
20
-0.066500
30
0.0
11
0.066751
21
-0.066500
31
0.0
0
LINE
8
0
6
CONTINUOUS
10
0.066751
20
-0.066500
30
0.0
11
0.061189
21
-0.066500
31
0.0
0
LINE
8
0
6
CONTINUOUS
10
0.061189
20
-0.066500
30
0.0
11
0.057693
21
-0.066500
31
0.0
0
LINE
8
0
6
CONTINUOUS
10
0.056500
20
-0.066500
30
0.0
11
0.056500
21
-0.067447
31
0.0
0
LINE
8
0
6
CONTINUOUS
10
0.057693
20
-0.066500
30
0.0
11
0.056500
21
-0.066500
31
0.0
0
LINE
8
0
6
CONTINUOUS
10
0.056500
20
-0.067447
30
0.0
11
0.056500
21
-0.071553
31
0.0
0
ENDSEC
0
EOF
