999
Erzeugt mit innoplus bad 
0
SECTION
2
HEADER
9
$ACADVER
1
AC1009
9
$DWGCODEPAGE
3
ISO8859-1
0
ENDSEC
0
SECTION
2
TABLES
0
TABLE
2
LAYER
70
1
0
LAYER
2
0
70
0
62
7
6
CONTINUOUS
0
ENDTAB
0
ENDSEC
0
SECTION
2
ENTITIES
0
LINE
8
0
6
CONTINUOUS
10
-0.071022
20
-0.072500
30
0.0
11
-0.070000
21
-0.072500
31
0.0
0
LINE
8
0
6
CONTINUOUS
10
-0.070000
20
-0.072500
30
0.0
11
-0.070000
21
-0.071553
31
0.0
0
LINE
8
0
6
CONTINUOUS
10
-0.074019
20
-0.072500
30
0.0
11
-0.071022
21
-0.072500
31
0.0
0
LINE
8
0
6
CONTINUOUS
10
-0.078787
20
-0.072500
30
0.0
11
-0.074019
21
-0.072500
31
0.0
0
LINE
8
0
6
CONTINUOUS
10
-0.085000
20
-0.072500
30
0.0
11
-0.078787
21
-0.072500
31
0.0
0
LINE
8
0
6
CONTINUOUS
10
-0.092235
20
-0.072500
30
0.0
11
-0.085000
21
-0.072500
31
0.0
0
LINE
8
0
6
CONTINUOUS
10
-0.100000
20
-0.072500
30
0.0
11
-0.092235
21
-0.072500
31
0.0
0
LINE
8
0
6
CONTINUOUS
10
-0.107765
20
-0.072500
30
0.0
11
-0.100000
21
-0.072500
31
0.0
0
LINE
8
0
6
CONTINUOUS
10
-0.115000
20
-0.072500
30
0.0
11
-0.107765
21
-0.072500
31
0.0
0
LINE
8
0
6
CONTINUOUS
10
-0.121213
20
-0.072500
30
0.0
11
-0.115000
21
-0.072500
31
0.0
0
LINE
8
0
6
CONTINUOUS
10
-0.125981
20
-0.072500
30
0.0
11
-0.121213
21
-0.072500
31
0.0
0
LINE
8
0
6
CONTINUOUS
10
-0.128978
20
-0.072500
30
0.0
11
-0.125981
21
-0.072500
31
0.0
0
LINE
8
0
6
CONTINUOUS
10
-0.130000
20
-0.072500
30
0.0
11
-0.128978
21
-0.072500
31
0.0
0
LINE
8
0
6
CONTINUOUS
10
-0.130000
20
-0.071553
30
0.0
11
-0.130000
21
-0.072500
31
0.0
0
LINE
8
0
6
CONTINUOUS
10
-0.130000
20
-0.067447
30
0.0
11
-0.130000
21
-0.071553
31
0.0
0
LINE
8
0
6
CONTINUOUS
10
-0.070000
20
-0.071553
30
0.0
11
-0.070000
21
-0.067447
31
0.0
0
LINE
8
0
6
CONTINUOUS
10
-0.070000
20
-0.067447
30
0.0
11
-0.070000
21
-0.066500
31
0.0
0
LINE
8
0
6
CONTINUOUS
10
-0.070000
20
-0.066500
30
0.0
11
-0.071022
21
-0.066500
31
0.0
0
LINE
8
0
6
CONTINUOUS
10
-0.071022
20
-0.066500
30
0.0
11
-0.074019
21
-0.066500
31
0.0
0
LINE
8
0
6
CONTINUOUS
10
-0.074019
20
-0.066500
30
0.0
11
-0.078787
21
-0.066500
31
0.0
0
LINE
8
0
6
CONTINUOUS
10
-0.078787
20
-0.066500
30
0.0
11
-0.085000
21
-0.066500
31
0.0
0
LINE
8
0
6
CONTINUOUS
10
-0.085000
20
-0.066500
30
0.0
11
-0.092235
21
-0.066500
31
0.0
0
LINE
8
0
6
CONTINUOUS
10
-0.092235
20
-0.066500
30
0.0
11
-0.100000
21
-0.066500
31
0.0
0
LINE
8
0
6
CONTINUOUS
10
-0.100000
20
-0.066500
30
0.0
11
-0.107765
21
-0.066500
31
0.0
0
LINE
8
0
6
CONTINUOUS
10
-0.107765
20
-0.066500
30
0.0
11
-0.115000
21
-0.066500
31
0.0
0
LINE
8
0
6
CONTINUOUS
10
-0.115000
20
-0.066500
30
0.0
11
-0.121213
21
-0.066500
31
0.0
0
LINE
8
0
6
CONTINUOUS
10
-0.121213
20
-0.066500
30
0.0
11
-0.125981
21
-0.066500
31
0.0
0
LINE
8
0
6
CONTINUOUS
10
-0.125981
20
-0.066500
30
0.0
11
-0.128978
21
-0.066500
31
0.0
0
LINE
8
0
6
CONTINUOUS
10
-0.130000
20
-0.066500
30
0.0
11
-0.130000
21
-0.067447
31
0.0
0
LINE
8
0
6
CONTINUOUS
10
-0.128978
20
-0.066500
30
0.0
11
-0.130000
21
-0.066500
31
0.0
0
LINE
8
0
6
CONTINUOUS
10
-0.089482
20
-0.014441
30
0.0
11
-0.091783
21
-0.014441
31
0.0
0
LINE
8
0
6
CONTINUOUS
10
-0.088150
20
-0.014441
30
0.0
11
-0.089482
21
-0.014441
31
0.0
0
LINE
8
0
6
CONTINUOUS
10
-0.156145
20
-0.001500
30
0.0
11
-0.156216
21
-0.001779
31
0.0
0
LINE
8
0
6
CONTINUOUS
10
-0.155731
20
-0.001621
30
0.0
11
-0.156145
21
-0.001500
31
0.0
0
LINE
8
0
6
CONTINUOUS
10
-0.104172
20
-0.014266
30
0.0
11
-0.107098
21
-0.013994
31
0.0
0
LINE
8
0
6
CONTINUOUS
10
-0.110011
20
-0.013618
30
0.0
11
-0.112912
21
-0.013136
31
0.0
0
LINE
8
0
6
CONTINUOUS
10
-0.085999
20
-0.066500
30
0.0
11
-0.085999
21
-0.064057
31
0.0
0
LINE
8
0
6
CONTINUOUS
10
-0.157075
20
-0.005163
30
0.0
11
-0.157429
21
-0.006565
31
0.0
0
LINE
8
0
6
CONTINUOUS
10
-0.114938
20
-0.022892
30
0.0
11
-0.114307
21
-0.024195
31
0.0
0
LINE
8
0
6
CONTINUOUS
10
-0.157429
20
-0.006565
30
0.0
11
-0.157729
21
-0.007754
31
0.0
0
LINE
8
0
6
CONTINUOUS
10
-0.115471
20
-0.021423
30
0.0
11
-0.116291
21
-0.019490
31
0.0
0
LINE
8
0
6
CONTINUOUS
10
-0.157729
20
-0.007754
30
0.0
11
-0.157929
21
-0.008548
31
0.0
0
LINE
8
0
6
CONTINUOUS
10
-0.158000
20
-0.008827
30
0.0
11
-0.157586
21
-0.008949
31
0.0
0
LINE
8
0
6
CONTINUOUS
10
-0.157515
20
-0.008670
30
0.0
11
-0.157929
21
-0.008548
31
0.0
0
LINE
8
0
6
CONTINUOUS
10
-0.114591
20
-0.022862
30
0.0
11
-0.113858
21
-0.024136
31
0.0
0
LINE
8
0
6
CONTINUOUS
10
-0.085999
20
-0.018607
30
0.0
11
-0.085999
21
-0.016524
31
0.0
0
LINE
8
0
6
CONTINUOUS
10
-0.085999
20
-0.020690
30
0.0
11
-0.085999
21
-0.018607
31
0.0
0
LINE
8
0
6
CONTINUOUS
10
-0.085999
20
-0.016524
30
0.0
11
-0.085999
21
-0.015077
31
0.0
0
LINE
8
0
6
CONTINUOUS
10
-0.115189
20
-0.015332
30
0.0
11
-0.115938
21
-0.015027
31
0.0
0
LINE
8
0
6
CONTINUOUS
10
-0.116621
20
-0.020616
30
0.0
11
-0.115747
21
-0.021455
31
0.0
0
LINE
8
0
6
CONTINUOUS
10
-0.085999
20
-0.022773
30
0.0
11
-0.085999
21
-0.020690
31
0.0
0
LINE
8
0
6
CONTINUOUS
10
-0.085999
20
-0.026769
30
0.0
11
-0.085999
21
-0.024856
31
0.0
0
LINE
8
0
6
CONTINUOUS
10
-0.114001
20
-0.064057
30
0.0
11
-0.114001
21
-0.066500
31
0.0
0
LINE
8
0
6
CONTINUOUS
10
-0.085999
20
-0.024856
30
0.0
11
-0.085999
21
-0.022773
31
0.0
0
LINE
8
0
6
CONTINUOUS
10
-0.116463
20
-0.020346
30
0.0
11
-0.116291
21
-0.019490
31
0.0
0
LINE
8
0
6
CONTINUOUS
10
-0.118992
20
-0.019494
30
0.0
11
-0.116621
21
-0.020616
31
0.0
0
LINE
8
0
6
CONTINUOUS
10
-0.112912
20
-0.013136
30
0.0
11
-0.115801
21
-0.012558
31
0.0
0
LINE
8
0
6
CONTINUOUS
10
-0.116330
20
-0.012702
30
0.0
11
-0.114426
21
-0.013239
31
0.0
0
LINE
8
0
6
CONTINUOUS
10
-0.115801
20
-0.012558
30
0.0
11
-0.118662
21
-0.011775
31
0.0
0
LINE
8
0
6
CONTINUOUS
10
-0.121757
20
-0.018739
30
0.0
11
-0.118992
21
-0.019494
31
0.0
0
LINE
8
0
6
CONTINUOUS
10
-0.121633
20
-0.018476
30
0.0
11
-0.118863
21
-0.019232
31
0.0
0
LINE
8
0
6
CONTINUOUS
10
-0.116330
20
-0.012702
30
0.0
11
-0.119158
21
-0.011929
31
0.0
0
LINE
8
0
6
CONTINUOUS
10
-0.114307
20
-0.024195
30
0.0
11
-0.114001
21
-0.025174
31
0.0
0
LINE
8
0
6
CONTINUOUS
10
-0.101236
20
-0.014441
30
0.0
11
-0.104172
21
-0.014266
31
0.0
0
LINE
8
0
6
CONTINUOUS
10
-0.113164
20
-0.014441
30
0.0
11
-0.106930
21
-0.014441
31
0.0
0
LINE
8
0
6
CONTINUOUS
10
-0.113858
20
-0.024136
30
0.0
11
-0.113437
21
-0.025015
31
0.0
0
LINE
8
0
6
CONTINUOUS
10
-0.114001
20
-0.025174
30
0.0
11
-0.114001
21
-0.026769
31
0.0
0
LINE
8
0
6
CONTINUOUS
10
-0.107098
20
-0.013994
30
0.0
11
-0.110011
21
-0.013618
31
0.0
0
LINE
8
0
6
CONTINUOUS
10
-0.115747
20
-0.021455
30
0.0
11
-0.114938
21
-0.022892
31
0.0
0
LINE
8
0
6
CONTINUOUS
10
-0.115371
20
-0.018454
30
0.0
11
-0.115446
21
-0.019913
31
0.0
0
LINE
8
0
6
CONTINUOUS
10
-0.115471
20
-0.021423
30
0.0
11
-0.114591
21
-0.022862
31
0.0
0
LINE
8
0
6
CONTINUOUS
10
-0.115446
20
-0.019913
30
0.0
11
-0.115471
21
-0.021423
31
0.0
0
LINE
8
0
6
CONTINUOUS
10
-0.115189
20
-0.015332
30
0.0
11
-0.114169
21
-0.015897
31
0.0
0
LINE
8
0
6
CONTINUOUS
10
-0.096416
20
-0.014441
30
0.0
11
-0.100000
21
-0.014441
31
0.0
0
LINE
8
0
6
CONTINUOUS
10
-0.100000
20
-0.014441
30
0.0
11
-0.103584
21
-0.014441
31
0.0
0
LINE
8
0
6
CONTINUOUS
10
-0.087848
20
-0.014441
30
0.0
11
-0.090088
21
-0.014441
31
0.0
0
LINE
8
0
6
CONTINUOUS
10
-0.086503
20
-0.014441
30
0.0
11
-0.087848
21
-0.014441
31
0.0
0
LINE
8
0
6
CONTINUOUS
10
-0.085999
20
-0.014441
30
0.0
11
-0.086503
21
-0.014441
31
0.0
0
LINE
8
0
6
CONTINUOUS
10
-0.085999
20
-0.015077
30
0.0
11
-0.085999
21
-0.014441
31
0.0
0
LINE
8
0
6
CONTINUOUS
10
-0.090088
20
-0.014441
30
0.0
11
-0.093056
21
-0.014441
31
0.0
0
LINE
8
0
6
CONTINUOUS
10
-0.106944
20
-0.014441
30
0.0
11
-0.109912
21
-0.014441
31
0.0
0
LINE
8
0
6
CONTINUOUS
10
-0.103584
20
-0.014441
30
0.0
11
-0.106944
21
-0.014441
31
0.0
0
LINE
8
0
6
CONTINUOUS
10
-0.109912
20
-0.014441
30
0.0
11
-0.112153
21
-0.014441
31
0.0
0
LINE
8
0
6
CONTINUOUS
10
-0.093056
20
-0.014441
30
0.0
11
-0.096416
21
-0.014441
31
0.0
0
LINE
8
0
6
CONTINUOUS
10
-0.117998
20
-0.013114
30
0.0
11
-0.120721
21
-0.012368
31
0.0
0
LINE
8
0
6
CONTINUOUS
10
-0.113079
20
-0.014441
30
0.0
11
-0.113523
21
-0.014441
31
0.0
0
LINE
8
0
6
CONTINUOUS
10
-0.112153
20
-0.014441
30
0.0
11
-0.113079
21
-0.014441
31
0.0
0
LINE
8
0
6
CONTINUOUS
10
-0.113523
20
-0.014441
30
0.0
11
-0.113164
21
-0.014441
31
0.0
0
LINE
8
0
6
CONTINUOUS
10
-0.114219
20
-0.014297
30
0.0
11
-0.115164
21
-0.013943
31
0.0
0
LINE
8
0
6
CONTINUOUS
10
-0.113523
20
-0.014441
30
0.0
11
-0.114219
21
-0.014297
31
0.0
0
LINE
8
0
6
CONTINUOUS
10
-0.115928
20
-0.013744
30
0.0
11
-0.115933
21
-0.014377
31
0.0
0
LINE
8
0
6
CONTINUOUS
10
-0.115928
20
-0.013744
30
0.0
11
-0.115164
21
-0.013943
31
0.0
0
LINE
8
0
6
CONTINUOUS
10
-0.156417
20
-0.002573
30
0.0
11
-0.156587
21
-0.003237
31
0.0
0
LINE
8
0
6
CONTINUOUS
10
-0.085999
20
-0.063557
30
0.0
11
-0.085999
21
-0.026769
31
0.0
0
LINE
8
0
6
CONTINUOUS
10
-0.114001
20
-0.026769
30
0.0
11
-0.114001
21
-0.063557
31
0.0
0
LINE
8
0
6
CONTINUOUS
10
-0.096916
20
-0.014441
30
0.0
11
-0.099529
21
-0.014441
31
0.0
0
LINE
8
0
6
CONTINUOUS
10
-0.093057
20
-0.014441
30
0.0
11
-0.096916
21
-0.014441
31
0.0
0
LINE
8
0
6
CONTINUOUS
10
-0.102117
20
-0.014441
30
0.0
11
-0.099525
21
-0.014441
31
0.0
0
LINE
8
0
6
CONTINUOUS
10
-0.096329
20
-0.014441
30
0.0
11
-0.102117
21
-0.014441
31
0.0
0
LINE
8
0
6
CONTINUOUS
10
-0.106930
20
-0.014441
30
0.0
11
-0.106346
21
-0.014441
31
0.0
0
LINE
8
0
6
CONTINUOUS
10
-0.158000
20
-0.008827
30
0.0
11
-0.157929
21
-0.008548
31
0.0
0
LINE
8
0
6
CONTINUOUS
10
-0.156330
20
-0.002229
30
0.0
11
-0.156417
21
-0.002573
31
0.0
0
LINE
8
0
6
CONTINUOUS
10
-0.120721
20
-0.012368
30
0.0
11
-0.156003
21
-0.002694
31
0.0
0
LINE
8
0
6
CONTINUOUS
10
-0.156719
20
-0.003761
30
0.0
11
-0.157075
21
-0.005163
31
0.0
0
LINE
8
0
6
CONTINUOUS
10
-0.156587
20
-0.003237
30
0.0
11
-0.156719
21
-0.003761
31
0.0
0
LINE
8
0
6
CONTINUOUS
10
-0.157586
20
-0.008949
30
0.0
11
-0.121757
21
-0.018739
31
0.0
0
LINE
8
0
6
CONTINUOUS
10
-0.157515
20
-0.008670
30
0.0
11
-0.121633
21
-0.018476
31
0.0
0
LINE
8
0
6
CONTINUOUS
10
-0.155801
20
-0.001900
30
0.0
11
-0.156216
21
-0.001779
31
0.0
0
LINE
8
0
6
CONTINUOUS
10
-0.156216
20
-0.001779
30
0.0
11
-0.156330
21
-0.002229
31
0.0
0
LINE
8
0
6
CONTINUOUS
10
-0.155801
20
-0.001900
30
0.0
11
-0.119158
21
-0.011929
31
0.0
0
LINE
8
0
6
CONTINUOUS
10
-0.118662
20
-0.011775
30
0.0
11
-0.155731
21
-0.001621
31
0.0
0
LINE
8
0
6
CONTINUOUS
10
-0.090101
20
-0.063682
30
0.0
11
-0.093076
21
-0.063682
31
0.0
0
LINE
8
0
6
CONTINUOUS
10
-0.090455
20
-0.063807
30
0.0
11
-0.093322
21
-0.063807
31
0.0
0
LINE
8
0
6
CONTINUOUS
10
-0.090101
20
-0.063932
30
0.0
11
-0.093076
21
-0.063932
31
0.0
0
LINE
8
0
6
CONTINUOUS
10
-0.106944
20
-0.063682
30
0.0
11
-0.109912
21
-0.063682
31
0.0
0
LINE
8
0
6
CONTINUOUS
10
-0.106699
20
-0.063807
30
0.0
11
-0.109559
21
-0.063807
31
0.0
0
LINE
8
0
6
CONTINUOUS
10
-0.106944
20
-0.063932
30
0.0
11
-0.109912
21
-0.063932
31
0.0
0
LINE
8
0
6
CONTINUOUS
10
-0.087889
20
-0.063682
30
0.0
11
-0.090101
21
-0.063682
31
0.0
0
LINE
8
0
6
CONTINUOUS
10
-0.088324
20
-0.063807
30
0.0
11
-0.090455
21
-0.063807
31
0.0
0
LINE
8
0
6
CONTINUOUS
10
-0.087889
20
-0.063932
30
0.0
11
-0.090101
21
-0.063932
31
0.0
0
LINE
8
0
6
CONTINUOUS
10
-0.103584
20
-0.063682
30
0.0
11
-0.106944
21
-0.063682
31
0.0
0
LINE
8
0
6
CONTINUOUS
10
-0.103456
20
-0.063807
30
0.0
11
-0.106699
21
-0.063807
31
0.0
0
LINE
8
0
6
CONTINUOUS
10
-0.103584
20
-0.063932
30
0.0
11
-0.106944
21
-0.063932
31
0.0
0
LINE
8
0
6
CONTINUOUS
10
-0.085999
20
-0.063682
30
0.0
11
-0.085999
21
-0.063557
31
0.0
0
LINE
8
0
6
CONTINUOUS
10
-0.086499
20
-0.063807
30
0.0
11
-0.085999
21
-0.063682
31
0.0
0
LINE
8
0
6
CONTINUOUS
10
-0.085999
20
-0.063682
30
0.0
11
-0.086515
21
-0.063682
31
0.0
0
LINE
8
0
6
CONTINUOUS
10
-0.085999
20
-0.063932
30
0.0
11
-0.086499
21
-0.063807
31
0.0
0
LINE
8
0
6
CONTINUOUS
10
-0.086499
20
-0.063807
30
0.0
11
-0.086998
21
-0.063807
31
0.0
0
LINE
8
0
6
CONTINUOUS
10
-0.085999
20
-0.064057
30
0.0
11
-0.085999
21
-0.063932
31
0.0
0
LINE
8
0
6
CONTINUOUS
10
-0.085999
20
-0.063932
30
0.0
11
-0.086516
21
-0.063932
31
0.0
0
LINE
8
0
6
CONTINUOUS
10
-0.100000
20
-0.063682
30
0.0
11
-0.103584
21
-0.063682
31
0.0
0
LINE
8
0
6
CONTINUOUS
10
-0.100000
20
-0.063807
30
0.0
11
-0.103456
21
-0.063807
31
0.0
0
LINE
8
0
6
CONTINUOUS
10
-0.100000
20
-0.063932
30
0.0
11
-0.103584
21
-0.063932
31
0.0
0
LINE
8
0
6
CONTINUOUS
10
-0.096433
20
-0.063682
30
0.0
11
-0.100000
21
-0.063682
31
0.0
0
LINE
8
0
6
CONTINUOUS
10
-0.096562
20
-0.063807
30
0.0
11
-0.100000
21
-0.063807
31
0.0
0
LINE
8
0
6
CONTINUOUS
10
-0.096433
20
-0.063932
30
0.0
11
-0.100000
21
-0.063932
31
0.0
0
LINE
8
0
6
CONTINUOUS
10
-0.086515
20
-0.063682
30
0.0
11
-0.087889
21
-0.063682
31
0.0
0
LINE
8
0
6
CONTINUOUS
10
-0.086998
20
-0.063807
30
0.0
11
-0.088324
21
-0.063807
31
0.0
0
LINE
8
0
6
CONTINUOUS
10
-0.086516
20
-0.063932
30
0.0
11
-0.087889
21
-0.063932
31
0.0
0
LINE
8
0
6
CONTINUOUS
10
-0.109912
20
-0.063682
30
0.0
11
-0.112153
21
-0.063682
31
0.0
0
LINE
8
0
6
CONTINUOUS
10
-0.109559
20
-0.063807
30
0.0
11
-0.111717
21
-0.063807
31
0.0
0
LINE
8
0
6
CONTINUOUS
10
-0.109912
20
-0.063932
30
0.0
11
-0.112153
21
-0.063932
31
0.0
0
LINE
8
0
6
CONTINUOUS
10
-0.112153
20
-0.063682
30
0.0
11
-0.113497
21
-0.063682
31
0.0
0
LINE
8
0
6
CONTINUOUS
10
-0.111717
20
-0.063807
30
0.0
11
-0.113013
21
-0.063807
31
0.0
0
LINE
8
0
6
CONTINUOUS
10
-0.112153
20
-0.063932
30
0.0
11
-0.113497
21
-0.063932
31
0.0
0
LINE
8
0
6
CONTINUOUS
10
-0.114001
20
-0.063557
30
0.0
11
-0.114001
21
-0.063682
31
0.0
0
LINE
8
0
6
CONTINUOUS
10
-0.114001
20
-0.063682
30
0.0
11
-0.113501
21
-0.063807
31
0.0
0
LINE
8
0
6
CONTINUOUS
10
-0.113497
20
-0.063682
30
0.0
11
-0.114001
21
-0.063682
31
0.0
0
LINE
8
0
6
CONTINUOUS
10
-0.113501
20
-0.063807
30
0.0
11
-0.114001
21
-0.063932
31
0.0
0
LINE
8
0
6
CONTINUOUS
10
-0.113013
20
-0.063807
30
0.0
11
-0.113501
21
-0.063807
31
0.0
0
LINE
8
0
6
CONTINUOUS
10
-0.114001
20
-0.063932
30
0.0
11
-0.114001
21
-0.064057
31
0.0
0
LINE
8
0
6
CONTINUOUS
10
-0.113497
20
-0.063932
30
0.0
11
-0.114001
21
-0.063932
31
0.0
0
LINE
8
0
6
CONTINUOUS
10
-0.093076
20
-0.063682
30
0.0
11
-0.096433
21
-0.063682
31
0.0
0
LINE
8
0
6
CONTINUOUS
10
-0.093322
20
-0.063807
30
0.0
11
-0.096562
21
-0.063807
31
0.0
0
LINE
8
0
6
CONTINUOUS
10
-0.093076
20
-0.063932
30
0.0
11
-0.096433
21
-0.063932
31
0.0
0
LINE
8
0
6
CONTINUOUS
10
0.085999
20
-0.064057
30
0.0
11
0.085999
21
-0.066500
31
0.0
0
LINE
8
0
6
CONTINUOUS
10
0.157429
20
-0.006565
30
0.0
11
0.157075
21
-0.005163
31
0.0
0
LINE
8
0
6
CONTINUOUS
10
0.157729
20
-0.007754
30
0.0
11
0.157429
21
-0.006565
31
0.0
0
LINE
8
0
6
CONTINUOUS
10
0.115747
20
-0.021455
30
0.0
11
0.116621
21
-0.020616
31
0.0
0
LINE
8
0
6
CONTINUOUS
10
0.157929
20
-0.008548
30
0.0
11
0.157729
21
-0.007754
31
0.0
0
LINE
8
0
6
CONTINUOUS
10
0.157929
20
-0.008548
30
0.0
11
0.157515
21
-0.008670
31
0.0
0
LINE
8
0
6
CONTINUOUS
10
0.157586
20
-0.008949
30
0.0
11
0.158000
21
-0.008827
31
0.0
0
LINE
8
0
6
CONTINUOUS
10
0.085999
20
-0.016524
30
0.0
11
0.085999
21
-0.018607
31
0.0
0
LINE
8
0
6
CONTINUOUS
10
0.115471
20
-0.021423
30
0.0
11
0.116291
21
-0.019490
31
0.0
0
LINE
8
0
6
CONTINUOUS
10
0.085999
20
-0.018607
30
0.0
11
0.085999
21
-0.020690
31
0.0
0
LINE
8
0
6
CONTINUOUS
10
0.112912
20
-0.013136
30
0.0
11
0.110011
21
-0.013618
31
0.0
0
LINE
8
0
6
CONTINUOUS
10
0.085999
20
-0.020690
30
0.0
11
0.085999
21
-0.022773
31
0.0
0
LINE
8
0
6
CONTINUOUS
10
0.085999
20
-0.024856
30
0.0
11
0.085999
21
-0.026769
31
0.0
0
LINE
8
0
6
CONTINUOUS
10
0.114001
20
-0.066500
30
0.0
11
0.114001
21
-0.064057
31
0.0
0
LINE
8
0
6
CONTINUOUS
10
0.106930
20
-0.014441
30
0.0
11
0.113164
21
-0.014441
31
0.0
0
LINE
8
0
6
CONTINUOUS
10
0.085999
20
-0.022773
30
0.0
11
0.085999
21
-0.024856
31
0.0
0
LINE
8
0
6
CONTINUOUS
10
0.085999
20
-0.015077
30
0.0
11
0.085999
21
-0.016524
31
0.0
0
LINE
8
0
6
CONTINUOUS
10
0.116291
20
-0.019490
30
0.0
11
0.116463
21
-0.020346
31
0.0
0
LINE
8
0
6
CONTINUOUS
10
0.116621
20
-0.020616
30
0.0
11
0.118992
21
-0.019494
31
0.0
0
LINE
8
0
6
CONTINUOUS
10
0.114447
20
-0.013253
30
0.0
11
0.116330
21
-0.012702
31
0.0
0
LINE
8
0
6
CONTINUOUS
10
0.115801
20
-0.012558
30
0.0
11
0.112912
21
-0.013136
31
0.0
0
LINE
8
0
6
CONTINUOUS
10
0.116330
20
-0.012702
30
0.0
11
0.119158
21
-0.011929
31
0.0
0
LINE
8
0
6
CONTINUOUS
10
0.118662
20
-0.011775
30
0.0
11
0.115801
21
-0.012558
31
0.0
0
LINE
8
0
6
CONTINUOUS
10
0.118992
20
-0.019494
30
0.0
11
0.121757
21
-0.018739
31
0.0
0
LINE
8
0
6
CONTINUOUS
10
0.118863
20
-0.019232
30
0.0
11
0.121633
21
-0.018476
31
0.0
0
LINE
8
0
6
CONTINUOUS
10
0.114001
20
-0.025174
30
0.0
11
0.114307
21
-0.024195
31
0.0
0
LINE
8
0
6
CONTINUOUS
10
0.113437
20
-0.025015
30
0.0
11
0.113858
21
-0.024136
31
0.0
0
LINE
8
0
6
CONTINUOUS
10
0.114001
20
-0.026769
30
0.0
11
0.114001
21
-0.025174
31
0.0
0
LINE
8
0
6
CONTINUOUS
10
0.113164
20
-0.014441
30
0.0
11
0.113523
21
-0.014441
31
0.0
0
LINE
8
0
6
CONTINUOUS
10
0.104172
20
-0.014266
30
0.0
11
0.101236
21
-0.014441
31
0.0
0
LINE
8
0
6
CONTINUOUS
10
0.096416
20
-0.014441
30
0.0
11
0.094310
21
-0.014441
31
0.0
0
LINE
8
0
6
CONTINUOUS
10
0.100000
20
-0.014441
30
0.0
11
0.096416
21
-0.014441
31
0.0
0
LINE
8
0
6
CONTINUOUS
10
0.115938
20
-0.015027
30
0.0
11
0.115189
21
-0.015332
31
0.0
0
LINE
8
0
6
CONTINUOUS
10
0.102119
20
-0.014441
30
0.0
11
0.096329
21
-0.014441
31
0.0
0
LINE
8
0
6
CONTINUOUS
10
0.099529
20
-0.014441
30
0.0
11
0.102119
21
-0.014441
31
0.0
0
LINE
8
0
6
CONTINUOUS
10
0.114307
20
-0.024195
30
0.0
11
0.114938
21
-0.022892
31
0.0
0
LINE
8
0
6
CONTINUOUS
10
0.114591
20
-0.022862
30
0.0
11
0.113858
21
-0.024136
31
0.0
0
LINE
8
0
6
CONTINUOUS
10
0.110011
20
-0.013618
30
0.0
11
0.107098
21
-0.013994
31
0.0
0
LINE
8
0
6
CONTINUOUS
10
0.114938
20
-0.022892
30
0.0
11
0.115747
21
-0.021455
31
0.0
0
LINE
8
0
6
CONTINUOUS
10
0.114591
20
-0.022862
30
0.0
11
0.115471
21
-0.021423
31
0.0
0
LINE
8
0
6
CONTINUOUS
10
0.157075
20
-0.005163
30
0.0
11
0.156719
21
-0.003761
31
0.0
0
LINE
8
0
6
CONTINUOUS
10
0.100000
20
-0.014441
30
0.0
11
0.096416
21
-0.014441
31
0.0
0
LINE
8
0
6
CONTINUOUS
10
0.103584
20
-0.014441
30
0.0
11
0.100000
21
-0.014441
31
0.0
0
LINE
8
0
6
CONTINUOUS
10
0.090088
20
-0.014441
30
0.0
11
0.087848
21
-0.014441
31
0.0
0
LINE
8
0
6
CONTINUOUS
10
0.087848
20
-0.014441
30
0.0
11
0.086503
21
-0.014441
31
0.0
0
LINE
8
0
6
CONTINUOUS
10
0.085999
20
-0.014441
30
0.0
11
0.085999
21
-0.015077
31
0.0
0
LINE
8
0
6
CONTINUOUS
10
0.086503
20
-0.014441
30
0.0
11
0.085999
21
-0.014441
31
0.0
0
LINE
8
0
6
CONTINUOUS
10
0.093056
20
-0.014441
30
0.0
11
0.090088
21
-0.014441
31
0.0
0
LINE
8
0
6
CONTINUOUS
10
0.109912
20
-0.014441
30
0.0
11
0.106944
21
-0.014441
31
0.0
0
LINE
8
0
6
CONTINUOUS
10
0.106944
20
-0.014441
30
0.0
11
0.103584
21
-0.014441
31
0.0
0
LINE
8
0
6
CONTINUOUS
10
0.112153
20
-0.014441
30
0.0
11
0.109912
21
-0.014441
31
0.0
0
LINE
8
0
6
CONTINUOUS
10
0.096416
20
-0.014441
30
0.0
11
0.093056
21
-0.014441
31
0.0
0
LINE
8
0
6
CONTINUOUS
10
0.117998
20
-0.013114
30
0.0
11
0.120721
21
-0.012368
31
0.0
0
LINE
8
0
6
CONTINUOUS
10
0.113523
20
-0.014441
30
0.0
11
0.113079
21
-0.014441
31
0.0
0
LINE
8
0
6
CONTINUOUS
10
0.113079
20
-0.014441
30
0.0
11
0.112153
21
-0.014441
31
0.0
0
LINE
8
0
6
CONTINUOUS
10
0.114219
20
-0.014297
30
0.0
11
0.113523
21
-0.014441
31
0.0
0
LINE
8
0
6
CONTINUOUS
10
0.115164
20
-0.013943
30
0.0
11
0.114219
21
-0.014297
31
0.0
0
LINE
8
0
6
CONTINUOUS
10
0.115933
20
-0.014377
30
0.0
11
0.115928
21
-0.013744
31
0.0
0
LINE
8
0
6
CONTINUOUS
10
0.115164
20
-0.013943
30
0.0
11
0.115928
21
-0.013744
31
0.0
0
LINE
8
0
6
CONTINUOUS
10
0.156417
20
-0.002573
30
0.0
11
0.156330
21
-0.002229
31
0.0
0
LINE
8
0
6
CONTINUOUS
10
0.085999
20
-0.026769
30
0.0
11
0.085999
21
-0.063557
31
0.0
0
LINE
8
0
6
CONTINUOUS
10
0.114001
20
-0.063557
30
0.0
11
0.114001
21
-0.026769
31
0.0
0
LINE
8
0
6
CONTINUOUS
10
0.107098
20
-0.013994
30
0.0
11
0.104172
21
-0.014266
31
0.0
0
LINE
8
0
6
CONTINUOUS
10
0.089475
20
-0.014441
30
0.0
11
0.088150
21
-0.014441
31
0.0
0
LINE
8
0
6
CONTINUOUS
10
0.091776
20
-0.014441
30
0.0
11
0.089475
21
-0.014441
31
0.0
0
LINE
8
0
6
CONTINUOUS
10
0.106346
20
-0.014441
30
0.0
11
0.106930
21
-0.014441
31
0.0
0
LINE
8
0
6
CONTINUOUS
10
0.119158
20
-0.011929
30
0.0
11
0.155801
21
-0.001900
31
0.0
0
LINE
8
0
6
CONTINUOUS
10
0.155731
20
-0.001621
30
0.0
11
0.118662
21
-0.011775
31
0.0
0
LINE
8
0
6
CONTINUOUS
10
0.157929
20
-0.008548
30
0.0
11
0.158000
21
-0.008827
31
0.0
0
LINE
8
0
6
CONTINUOUS
10
0.156145
20
-0.001500
30
0.0
11
0.155731
21
-0.001621
31
0.0
0
LINE
8
0
6
CONTINUOUS
10
0.156216
20
-0.001779
30
0.0
11
0.156145
21
-0.001500
31
0.0
0
LINE
8
0
6
CONTINUOUS
10
0.156719
20
-0.003761
30
0.0
11
0.156587
21
-0.003237
31
0.0
0
LINE
8
0
6
CONTINUOUS
10
0.120721
20
-0.012368
30
0.0
11
0.156003
21
-0.002694
31
0.0
0
LINE
8
0
6
CONTINUOUS
10
0.156587
20
-0.003237
30
0.0
11
0.156417
21
-0.002573
31
0.0
0
LINE
8
0
6
CONTINUOUS
10
0.156216
20
-0.001779
30
0.0
11
0.155801
21
-0.001900
31
0.0
0
LINE
8
0
6
CONTINUOUS
10
0.156330
20
-0.002229
30
0.0
11
0.156216
21
-0.001779
31
0.0
0
LINE
8
0
6
CONTINUOUS
10
0.121757
20
-0.018739
30
0.0
11
0.157586
21
-0.008949
31
0.0
0
LINE
8
0
6
CONTINUOUS
10
0.121633
20
-0.018476
30
0.0
11
0.157515
21
-0.008670
31
0.0
0
LINE
8
0
6
CONTINUOUS
10
0.093076
20
-0.063682
30
0.0
11
0.090101
21
-0.063682
31
0.0
0
LINE
8
0
6
CONTINUOUS
10
0.093322
20
-0.063807
30
0.0
11
0.090455
21
-0.063807
31
0.0
0
LINE
8
0
6
CONTINUOUS
10
0.093076
20
-0.063932
30
0.0
11
0.090101
21
-0.063932
31
0.0
0
LINE
8
0
6
CONTINUOUS
10
0.109912
20
-0.063682
30
0.0
11
0.106944
21
-0.063682
31
0.0
0
LINE
8
0
6
CONTINUOUS
10
0.109559
20
-0.063807
30
0.0
11
0.106699
21
-0.063807
31
0.0
0
LINE
8
0
6
CONTINUOUS
10
0.109912
20
-0.063932
30
0.0
11
0.106944
21
-0.063932
31
0.0
0
LINE
8
0
6
CONTINUOUS
10
0.090101
20
-0.063682
30
0.0
11
0.087889
21
-0.063682
31
0.0
0
LINE
8
0
6
CONTINUOUS
10
0.090455
20
-0.063807
30
0.0
11
0.088324
21
-0.063807
31
0.0
0
LINE
8
0
6
CONTINUOUS
10
0.090101
20
-0.063932
30
0.0
11
0.087889
21
-0.063932
31
0.0
0
LINE
8
0
6
CONTINUOUS
10
0.106944
20
-0.063682
30
0.0
11
0.103584
21
-0.063682
31
0.0
0
LINE
8
0
6
CONTINUOUS
10
0.106699
20
-0.063807
30
0.0
11
0.103456
21
-0.063807
31
0.0
0
LINE
8
0
6
CONTINUOUS
10
0.106944
20
-0.063932
30
0.0
11
0.103584
21
-0.063932
31
0.0
0
LINE
8
0
6
CONTINUOUS
10
0.085999
20
-0.063557
30
0.0
11
0.085999
21
-0.063682
31
0.0
0
LINE
8
0
6
CONTINUOUS
10
0.085999
20
-0.063682
30
0.0
11
0.086499
21
-0.063807
31
0.0
0
LINE
8
0
6
CONTINUOUS
10
0.086515
20
-0.063682
30
0.0
11
0.085999
21
-0.063682
31
0.0
0
LINE
8
0
6
CONTINUOUS
10
0.086499
20
-0.063807
30
0.0
11
0.085999
21
-0.063932
31
0.0
0
LINE
8
0
6
CONTINUOUS
10
0.086998
20
-0.063807
30
0.0
11
0.086499
21
-0.063807
31
0.0
0
LINE
8
0
6
CONTINUOUS
10
0.085999
20
-0.063932
30
0.0
11
0.085999
21
-0.064057
31
0.0
0
LINE
8
0
6
CONTINUOUS
10
0.086516
20
-0.063932
30
0.0
11
0.085999
21
-0.063932
31
0.0
0
LINE
8
0
6
CONTINUOUS
10
0.103584
20
-0.063682
30
0.0
11
0.100000
21
-0.063682
31
0.0
0
LINE
8
0
6
CONTINUOUS
10
0.103456
20
-0.063807
30
0.0
11
0.100000
21
-0.063807
31
0.0
0
LINE
8
0
6
CONTINUOUS
10
0.103584
20
-0.063932
30
0.0
11
0.100000
21
-0.063932
31
0.0
0
LINE
8
0
6
CONTINUOUS
10
0.100000
20
-0.063682
30
0.0
11
0.096433
21
-0.063682
31
0.0
0
LINE
8
0
6
CONTINUOUS
10
0.100000
20
-0.063807
30
0.0
11
0.096562
21
-0.063807
31
0.0
0
LINE
8
0
6
CONTINUOUS
10
0.100000
20
-0.063932
30
0.0
11
0.096433
21
-0.063932
31
0.0
0
LINE
8
0
6
CONTINUOUS
10
0.087889
20
-0.063682
30
0.0
11
0.086515
21
-0.063682
31
0.0
0
LINE
8
0
6
CONTINUOUS
10
0.088324
20
-0.063807
30
0.0
11
0.086998
21
-0.063807
31
0.0
0
LINE
8
0
6
CONTINUOUS
10
0.087889
20
-0.063932
30
0.0
11
0.086516
21
-0.063932
31
0.0
0
LINE
8
0
6
CONTINUOUS
10
0.112153
20
-0.063682
30
0.0
11
0.109912
21
-0.063682
31
0.0
0
LINE
8
0
6
CONTINUOUS
10
0.111717
20
-0.063807
30
0.0
11
0.109559
21
-0.063807
31
0.0
0
LINE
8
0
6
CONTINUOUS
10
0.112153
20
-0.063932
30
0.0
11
0.109912
21
-0.063932
31
0.0
0
LINE
8
0
6
CONTINUOUS
10
0.113497
20
-0.063682
30
0.0
11
0.112153
21
-0.063682
31
0.0
0
LINE
8
0
6
CONTINUOUS
10
0.113013
20
-0.063807
30
0.0
11
0.111717
21
-0.063807
31
0.0
0
LINE
8
0
6
CONTINUOUS
10
0.113497
20
-0.063932
30
0.0
11
0.112153
21
-0.063932
31
0.0
0
LINE
8
0
6
CONTINUOUS
10
0.114001
20
-0.063682
30
0.0
11
0.114001
21
-0.063557
31
0.0
0
LINE
8
0
6
CONTINUOUS
10
0.113501
20
-0.063807
30
0.0
11
0.114001
21
-0.063682
31
0.0
0
LINE
8
0
6
CONTINUOUS
10
0.114001
20
-0.063682
30
0.0
11
0.113497
21
-0.063682
31
0.0
0
LINE
8
0
6
CONTINUOUS
10
0.114001
20
-0.063932
30
0.0
11
0.113501
21
-0.063807
31
0.0
0
LINE
8
0
6
CONTINUOUS
10
0.113501
20
-0.063807
30
0.0
11
0.113013
21
-0.063807
31
0.0
0
LINE
8
0
6
CONTINUOUS
10
0.114001
20
-0.064057
30
0.0
11
0.114001
21
-0.063932
31
0.0
0
LINE
8
0
6
CONTINUOUS
10
0.114001
20
-0.063932
30
0.0
11
0.113497
21
-0.063932
31
0.0
0
LINE
8
0
6
CONTINUOUS
10
0.096433
20
-0.063682
30
0.0
11
0.093076
21
-0.063682
31
0.0
0
LINE
8
0
6
CONTINUOUS
10
0.096562
20
-0.063807
30
0.0
11
0.093322
21
-0.063807
31
0.0
0
LINE
8
0
6
CONTINUOUS
10
0.096433
20
-0.063932
30
0.0
11
0.093076
21
-0.063932
31
0.0
0
LINE
8
0
6
CONTINUOUS
10
0.128978
20
-0.072500
30
0.0
11
0.130000
21
-0.072500
31
0.0
0
LINE
8
0
6
CONTINUOUS
10
0.130000
20
-0.072500
30
0.0
11
0.130000
21
-0.071553
31
0.0
0
LINE
8
0
6
CONTINUOUS
10
0.125981
20
-0.072500
30
0.0
11
0.128978
21
-0.072500
31
0.0
0
LINE
8
0
6
CONTINUOUS
10
0.121213
20
-0.072500
30
0.0
11
0.125981
21
-0.072500
31
0.0
0
LINE
8
0
6
CONTINUOUS
10
0.115000
20
-0.072500
30
0.0
11
0.121213
21
-0.072500
31
0.0
0
LINE
8
0
6
CONTINUOUS
10
0.107765
20
-0.072500
30
0.0
11
0.115000
21
-0.072500
31
0.0
0
LINE
8
0
6
CONTINUOUS
10
0.100000
20
-0.072500
30
0.0
11
0.107765
21
-0.072500
31
0.0
0
LINE
8
0
6
CONTINUOUS
10
0.092235
20
-0.072500
30
0.0
11
0.100000
21
-0.072500
31
0.0
0
LINE
8
0
6
CONTINUOUS
10
0.085000
20
-0.072500
30
0.0
11
0.092235
21
-0.072500
31
0.0
0
LINE
8
0
6
CONTINUOUS
10
0.078787
20
-0.072500
30
0.0
11
0.085000
21
-0.072500
31
0.0
0
LINE
8
0
6
CONTINUOUS
10
0.074019
20
-0.072500
30
0.0
11
0.078787
21
-0.072500
31
0.0
0
LINE
8
0
6
CONTINUOUS
10
0.071022
20
-0.072500
30
0.0
11
0.074019
21
-0.072500
31
0.0
0
LINE
8
0
6
CONTINUOUS
10
0.070000
20
-0.072500
30
0.0
11
0.071022
21
-0.072500
31
0.0
0
LINE
8
0
6
CONTINUOUS
10
0.070000
20
-0.071553
30
0.0
11
0.070000
21
-0.072500
31
0.0
0
LINE
8
0
6
CONTINUOUS
10
0.070000
20
-0.067447
30
0.0
11
0.070000
21
-0.071553
31
0.0
0
LINE
8
0
6
CONTINUOUS
10
0.130000
20
-0.071553
30
0.0
11
0.130000
21
-0.067447
31
0.0
0
LINE
8
0
6
CONTINUOUS
10
0.130000
20
-0.067447
30
0.0
11
0.130000
21
-0.066500
31
0.0
0
LINE
8
0
6
CONTINUOUS
10
0.130000
20
-0.066500
30
0.0
11
0.128978
21
-0.066500
31
0.0
0
LINE
8
0
6
CONTINUOUS
10
0.128978
20
-0.066500
30
0.0
11
0.125981
21
-0.066500
31
0.0
0
LINE
8
0
6
CONTINUOUS
10
0.125981
20
-0.066500
30
0.0
11
0.121213
21
-0.066500
31
0.0
0
LINE
8
0
6
CONTINUOUS
10
0.121213
20
-0.066500
30
0.0
11
0.115000
21
-0.066500
31
0.0
0
LINE
8
0
6
CONTINUOUS
10
0.115000
20
-0.066500
30
0.0
11
0.107765
21
-0.066500
31
0.0
0
LINE
8
0
6
CONTINUOUS
10
0.107765
20
-0.066500
30
0.0
11
0.100000
21
-0.066500
31
0.0
0
LINE
8
0
6
CONTINUOUS
10
0.100000
20
-0.066500
30
0.0
11
0.092235
21
-0.066500
31
0.0
0
LINE
8
0
6
CONTINUOUS
10
0.092235
20
-0.066500
30
0.0
11
0.085000
21
-0.066500
31
0.0
0
LINE
8
0
6
CONTINUOUS
10
0.085000
20
-0.066500
30
0.0
11
0.078787
21
-0.066500
31
0.0
0
LINE
8
0
6
CONTINUOUS
10
0.078787
20
-0.066500
30
0.0
11
0.074019
21
-0.066500
31
0.0
0
LINE
8
0
6
CONTINUOUS
10
0.074019
20
-0.066500
30
0.0
11
0.071022
21
-0.066500
31
0.0
0
LINE
8
0
6
CONTINUOUS
10
0.070000
20
-0.066500
30
0.0
11
0.070000
21
-0.067447
31
0.0
0
LINE
8
0
6
CONTINUOUS
10
0.071022
20
-0.066500
30
0.0
11
0.070000
21
-0.066500
31
0.0
0
LINE
8
0
6
CONTINUOUS
10
-0.024000
20
-0.012004
30
0.0
11
-0.024000
21
-0.066500
31
0.0
0
LINE
8
0
6
CONTINUOUS
10
0.024000
20
-0.066500
30
0.0
11
0.024000
21
-0.012004
31
0.0
0
LINE
8
0
6
CONTINUOUS
10
0.014500
20
-0.010099
30
0.0
11
0.014500
21
0.014987
31
0.0
0
LINE
8
0
6
CONTINUOUS
10
-0.014500
20
0.014987
30
0.0
11
-0.014500
21
-0.010099
31
0.0
0
LINE
8
0
6
CONTINUOUS
10
-0.014500
20
0.025505
30
0.0
11
-0.014497
21
0.020246
31
0.0
0
LINE
8
0
6
CONTINUOUS
10
0.014497
20
0.020246
30
0.0
11
0.014500
21
0.025505
31
0.0
0
LINE
8
0
6
CONTINUOUS
10
-0.014500
20
0.035315
30
0.0
11
-0.014507
21
0.030410
31
0.0
0
LINE
8
0
6
CONTINUOUS
10
0.014507
20
0.030410
30
0.0
11
0.014500
21
0.035315
31
0.0
0
LINE
8
0
6
CONTINUOUS
10
-0.014500
20
0.043538
30
0.0
11
-0.014500
21
0.039427
31
0.0
0
LINE
8
0
6
CONTINUOUS
10
0.014500
20
0.039427
30
0.0
11
0.014500
21
0.043538
31
0.0
0
LINE
8
0
6
CONTINUOUS
10
-0.014500
20
0.049435
30
0.0
11
-0.014502
21
0.046486
31
0.0
0
LINE
8
0
6
CONTINUOUS
10
0.014502
20
0.046486
30
0.0
11
0.014500
21
0.049435
31
0.0
0
LINE
8
0
6
CONTINUOUS
10
-0.014500
20
0.052475
30
0.0
11
-0.014500
21
0.050955
31
0.0
0
LINE
8
0
6
CONTINUOUS
10
0.014500
20
0.050955
30
0.0
11
0.014500
21
0.052475
31
0.0
0
LINE
8
0
6
CONTINUOUS
10
-0.014500
20
0.052868
30
0.0
11
-0.014500
21
0.052475
31
0.0
0
LINE
8
0
6
CONTINUOUS
10
0.014500
20
0.052475
30
0.0
11
0.014500
21
0.052868
31
0.0
0
LINE
8
0
6
CONTINUOUS
10
-0.014500
20
0.057996
30
0.0
11
-0.014500
21
0.052868
31
0.0
0
LINE
8
0
6
CONTINUOUS
10
0.014500
20
0.052868
30
0.0
11
0.014500
21
0.057996
31
0.0
0
LINE
8
0
6
CONTINUOUS
10
-0.004481
20
0.071792
30
0.0
11
-0.008523
21
0.069737
31
0.0
0
LINE
8
0
6
CONTINUOUS
10
-0.008523
20
0.069737
30
0.0
11
-0.011731
21
0.066536
31
0.0
0
LINE
8
0
6
CONTINUOUS
10
-0.011731
20
0.066536
30
0.0
11
-0.013790
21
0.062503
31
0.0
0
LINE
8
0
6
CONTINUOUS
10
-0.013790
20
0.062503
30
0.0
11
-0.014500
21
0.058032
31
0.0
0
LINE
8
0
6
CONTINUOUS
10
-0.013790
20
0.053562
30
0.0
11
-0.014500
21
0.058032
31
0.0
0
LINE
8
0
6
CONTINUOUS
10
-0.011731
20
0.049529
30
0.0
11
-0.013790
21
0.053562
31
0.0
0
LINE
8
0
6
CONTINUOUS
10
-0.008523
20
0.046328
30
0.0
11
-0.011731
21
0.049529
31
0.0
0
LINE
8
0
6
CONTINUOUS
10
-0.004481
20
0.044273
30
0.0
11
-0.008523
21
0.046328
31
0.0
0
LINE
8
0
6
CONTINUOUS
10
-0.000000
20
0.043565
30
0.0
11
-0.004481
21
0.044273
31
0.0
0
LINE
8
0
6
CONTINUOUS
10
0.004481
20
0.044273
30
0.0
11
-0.000000
21
0.043565
31
0.0
0
LINE
8
0
6
CONTINUOUS
10
0.008523
20
0.046328
30
0.0
11
0.004481
21
0.044273
31
0.0
0
LINE
8
0
6
CONTINUOUS
10
0.011731
20
0.049529
30
0.0
11
0.008523
21
0.046328
31
0.0
0
LINE
8
0
6
CONTINUOUS
10
0.013790
20
0.053562
30
0.0
11
0.011731
21
0.049529
31
0.0
0
LINE
8
0
6
CONTINUOUS
10
0.014500
20
0.058032
30
0.0
11
0.013790
21
0.053562
31
0.0
0
LINE
8
0
6
CONTINUOUS
10
0.014500
20
0.058032
30
0.0
11
0.013790
21
0.062503
31
0.0
0
LINE
8
0
6
CONTINUOUS
10
0.013790
20
0.062503
30
0.0
11
0.011731
21
0.066536
31
0.0
0
LINE
8
0
6
CONTINUOUS
10
0.011731
20
0.066536
30
0.0
11
0.008523
21
0.069737
31
0.0
0
LINE
8
0
6
CONTINUOUS
10
0.008523
20
0.069737
30
0.0
11
0.004481
21
0.071792
31
0.0
0
LINE
8
0
6
CONTINUOUS
10
0.004481
20
0.071792
30
0.0
11
-0.000000
21
0.072500
31
0.0
0
LINE
8
0
6
CONTINUOUS
10
-0.000000
20
0.072500
30
0.0
11
-0.004481
21
0.071792
31
0.0
0
LINE
8
0
6
CONTINUOUS
10
-0.007858
20
0.032159
30
0.0
11
-0.004131
21
0.032517
31
0.0
0
LINE
8
0
6
CONTINUOUS
10
-0.010816
20
0.031603
30
0.0
11
-0.007858
21
0.032159
31
0.0
0
LINE
8
0
6
CONTINUOUS
10
-0.012714
20
0.030902
30
0.0
11
-0.010816
21
0.031603
31
0.0
0
LINE
8
0
6
CONTINUOUS
10
-0.013369
20
0.031067
30
0.0
11
-0.013369
21
0.030125
31
0.0
0
LINE
8
0
6
CONTINUOUS
10
-0.013369
20
0.030125
30
0.0
11
-0.012714
21
0.030902
31
0.0
0
LINE
8
0
6
CONTINUOUS
10
-0.013369
20
0.030125
30
0.0
11
-0.012714
21
0.029348
31
0.0
0
LINE
8
0
6
CONTINUOUS
10
-0.012714
20
0.029348
30
0.0
11
-0.010816
21
0.028648
31
0.0
0
LINE
8
0
6
CONTINUOUS
10
-0.010816
20
0.028648
30
0.0
11
-0.007858
21
0.028091
31
0.0
0
LINE
8
0
6
CONTINUOUS
10
-0.007858
20
0.028091
30
0.0
11
-0.004131
21
0.027734
31
0.0
0
LINE
8
0
6
CONTINUOUS
10
-0.004131
20
0.027734
30
0.0
11
-0.000000
21
0.027611
31
0.0
0
LINE
8
0
6
CONTINUOUS
10
-0.000000
20
0.027611
30
0.0
11
0.004131
21
0.027734
31
0.0
0
LINE
8
0
6
CONTINUOUS
10
0.004131
20
0.027734
30
0.0
11
0.007858
21
0.028091
31
0.0
0
LINE
8
0
6
CONTINUOUS
10
0.007858
20
0.028091
30
0.0
11
0.010816
21
0.028648
31
0.0
0
LINE
8
0
6
CONTINUOUS
10
0.010816
20
0.028648
30
0.0
11
0.012714
21
0.029349
31
0.0
0
LINE
8
0
6
CONTINUOUS
10
0.012714
20
0.029349
30
0.0
11
0.013369
21
0.030125
31
0.0
0
LINE
8
0
6
CONTINUOUS
10
0.013369
20
0.030125
30
0.0
11
0.013369
21
0.031067
31
0.0
0
LINE
8
0
6
CONTINUOUS
10
0.012714
20
0.030902
30
0.0
11
0.013369
21
0.030125
31
0.0
0
LINE
8
0
6
CONTINUOUS
10
0.010815
20
0.031603
30
0.0
11
0.012714
21
0.030902
31
0.0
0
LINE
8
0
6
CONTINUOUS
10
0.007858
20
0.032160
30
0.0
11
0.010815
21
0.031603
31
0.0
0
LINE
8
0
6
CONTINUOUS
10
0.004131
20
0.032517
30
0.0
11
0.007858
21
0.032160
31
0.0
0
LINE
8
0
6
CONTINUOUS
10
-0.000000
20
0.032640
30
0.0
11
0.004131
21
0.032517
31
0.0
0
LINE
8
0
6
CONTINUOUS
10
-0.004131
20
0.032517
30
0.0
11
-0.000000
21
0.032640
31
0.0
0
LINE
8
0
6
CONTINUOUS
10
0.013369
20
0.050868
30
0.0
11
0.012714
21
0.051645
31
0.0
0
LINE
8
0
6
CONTINUOUS
10
0.013369
20
0.031067
30
0.0
11
0.013369
21
0.050868
31
0.0
0
LINE
8
0
6
CONTINUOUS
10
-0.013369
20
0.050868
30
0.0
11
-0.013369
21
0.031067
31
0.0
0
LINE
8
0
6
CONTINUOUS
10
-0.012714
20
0.051645
30
0.0
11
-0.013369
21
0.050868
31
0.0
0
LINE
8
0
6
CONTINUOUS
10
-0.005977
20
0.031672
30
0.0
11
-0.003142
21
0.031944
31
0.0
0
LINE
8
0
6
CONTINUOUS
10
-0.008226
20
0.031249
30
0.0
11
-0.005977
21
0.031672
31
0.0
0
LINE
8
0
6
CONTINUOUS
10
-0.009670
20
0.030716
30
0.0
11
-0.008226
21
0.031249
31
0.0
0
LINE
8
0
6
CONTINUOUS
10
-0.010167
20
0.030125
30
0.0
11
-0.009670
21
0.030716
31
0.0
0
LINE
8
0
6
CONTINUOUS
10
0.009670
20
0.030716
30
0.0
11
0.010167
21
0.030125
31
0.0
0
LINE
8
0
6
CONTINUOUS
10
0.008226
20
0.031249
30
0.0
11
0.009670
21
0.030716
31
0.0
0
LINE
8
0
6
CONTINUOUS
10
0.005977
20
0.031672
30
0.0
11
0.008226
21
0.031249
31
0.0
0
LINE
8
0
6
CONTINUOUS
10
0.003142
20
0.031944
30
0.0
11
0.005977
21
0.031672
31
0.0
0
LINE
8
0
6
CONTINUOUS
10
-0.000000
20
0.032037
30
0.0
11
0.003142
21
0.031944
31
0.0
0
LINE
8
0
6
CONTINUOUS
10
-0.003142
20
0.031944
30
0.0
11
-0.000000
21
0.032037
31
0.0
0
LINE
8
0
6
CONTINUOUS
10
-0.008226
20
0.029002
30
0.0
11
-0.005977
21
0.028579
31
0.0
0
LINE
8
0
6
CONTINUOUS
10
0.003142
20
0.028307
30
0.0
11
0.005977
21
0.028579
31
0.0
0
LINE
8
0
6
CONTINUOUS
10
0.005977
20
0.028579
30
0.0
11
0.008226
21
0.029002
31
0.0
0
LINE
8
0
6
CONTINUOUS
10
-0.005977
20
0.028579
30
0.0
11
-0.003142
21
0.028307
31
0.0
0
LINE
8
0
6
CONTINUOUS
10
0.008226
20
0.029002
30
0.0
11
0.009670
21
0.029535
31
0.0
0
LINE
8
0
6
CONTINUOUS
10
-0.003142
20
0.028307
30
0.0
11
-0.000000
21
0.028214
31
0.0
0
LINE
8
0
6
CONTINUOUS
10
-0.010167
20
0.030125
30
0.0
11
-0.009670
21
0.029535
31
0.0
0
LINE
8
0
6
CONTINUOUS
10
0.009670
20
0.029535
30
0.0
11
0.010167
21
0.030125
31
0.0
0
LINE
8
0
6
CONTINUOUS
10
-0.000000
20
0.028214
30
0.0
11
0.003142
21
0.028307
31
0.0
0
LINE
8
0
6
CONTINUOUS
10
-0.009670
20
0.029535
30
0.0
11
-0.008226
21
0.029002
31
0.0
0
LINE
8
0
6
CONTINUOUS
10
-0.014500
20
-0.010099
30
0.0
11
-0.014500
21
-0.011004
31
0.0
0
LINE
8
0
6
CONTINUOUS
10
-0.013790
20
-0.011004
30
0.0
11
-0.014500
21
-0.011004
31
0.0
0
LINE
8
0
6
CONTINUOUS
10
-0.008523
20
-0.011004
30
0.0
11
-0.011731
21
-0.011004
31
0.0
0
LINE
8
0
6
CONTINUOUS
10
-0.011731
20
-0.011004
30
0.0
11
-0.013790
21
-0.011004
31
0.0
0
LINE
8
0
6
CONTINUOUS
10
-0.004481
20
-0.011004
30
0.0
11
-0.008523
21
-0.011004
31
0.0
0
LINE
8
0
6
CONTINUOUS
10
-0.000000
20
-0.011004
30
0.0
11
-0.004481
21
-0.011004
31
0.0
0
LINE
8
0
6
CONTINUOUS
10
0.004481
20
-0.011004
30
0.0
11
-0.000000
21
-0.011004
31
0.0
0
LINE
8
0
6
CONTINUOUS
10
0.008523
20
-0.011004
30
0.0
11
0.004481
21
-0.011004
31
0.0
0
LINE
8
0
6
CONTINUOUS
10
0.011731
20
-0.011004
30
0.0
11
0.008523
21
-0.011004
31
0.0
0
LINE
8
0
6
CONTINUOUS
10
0.013790
20
-0.011004
30
0.0
11
0.011731
21
-0.011004
31
0.0
0
LINE
8
0
6
CONTINUOUS
10
0.014500
20
-0.011004
30
0.0
11
0.014500
21
-0.010099
31
0.0
0
LINE
8
0
6
CONTINUOUS
10
0.014500
20
-0.011004
30
0.0
11
0.013790
21
-0.011004
31
0.0
0
LINE
8
0
6
CONTINUOUS
10
-0.024000
20
-0.011004
30
0.0
11
-0.024000
21
-0.012004
31
0.0
0
LINE
8
0
6
CONTINUOUS
10
-0.023182
20
-0.011004
30
0.0
11
-0.024000
21
-0.011004
31
0.0
0
LINE
8
0
6
CONTINUOUS
10
-0.020785
20
-0.011004
30
0.0
11
-0.023182
21
-0.011004
31
0.0
0
LINE
8
0
6
CONTINUOUS
10
-0.016971
20
-0.011004
30
0.0
11
-0.020785
21
-0.011004
31
0.0
0
LINE
8
0
6
CONTINUOUS
10
-0.012000
20
-0.011004
30
0.0
11
-0.016971
21
-0.011004
31
0.0
0
LINE
8
0
6
CONTINUOUS
10
-0.006212
20
-0.011004
30
0.0
11
-0.012000
21
-0.011004
31
0.0
0
LINE
8
0
6
CONTINUOUS
10
-0.000000
20
-0.011004
30
0.0
11
-0.006212
21
-0.011004
31
0.0
0
LINE
8
0
6
CONTINUOUS
10
0.006212
20
-0.011004
30
0.0
11
-0.000000
21
-0.011004
31
0.0
0
LINE
8
0
6
CONTINUOUS
10
0.012000
20
-0.011004
30
0.0
11
0.006212
21
-0.011004
31
0.0
0
LINE
8
0
6
CONTINUOUS
10
0.016971
20
-0.011004
30
0.0
11
0.012000
21
-0.011004
31
0.0
0
LINE
8
0
6
CONTINUOUS
10
0.020785
20
-0.011004
30
0.0
11
0.016971
21
-0.011004
31
0.0
0
LINE
8
0
6
CONTINUOUS
10
0.023182
20
-0.011004
30
0.0
11
0.020785
21
-0.011004
31
0.0
0
LINE
8
0
6
CONTINUOUS
10
0.024000
20
-0.011004
30
0.0
11
0.023182
21
-0.011004
31
0.0
0
LINE
8
0
6
CONTINUOUS
10
0.024000
20
-0.012004
30
0.0
11
0.024000
21
-0.011004
31
0.0
0
LINE
8
0
6
CONTINUOUS
10
-0.010167
20
0.030699
30
0.0
11
-0.009670
21
0.030108
31
0.0
0
LINE
8
0
6
CONTINUOUS
10
0.009670
20
0.030108
30
0.0
11
0.010167
21
0.030699
31
0.0
0
LINE
8
0
6
CONTINUOUS
10
-0.009670
20
0.030108
30
0.0
11
-0.008226
21
0.029575
31
0.0
0
LINE
8
0
6
CONTINUOUS
10
0.008226
20
0.029576
30
0.0
11
0.009670
21
0.030108
31
0.0
0
LINE
8
0
6
CONTINUOUS
10
-0.008226
20
0.029575
30
0.0
11
-0.005977
21
0.029153
31
0.0
0
LINE
8
0
6
CONTINUOUS
10
0.005977
20
0.029152
30
0.0
11
0.008226
21
0.029576
31
0.0
0
LINE
8
0
6
CONTINUOUS
10
-0.005977
20
0.029153
30
0.0
11
-0.003142
21
0.028881
31
0.0
0
LINE
8
0
6
CONTINUOUS
10
-0.003142
20
0.028881
30
0.0
11
-0.000000
21
0.028787
31
0.0
0
LINE
8
0
6
CONTINUOUS
10
0.003142
20
0.028881
30
0.0
11
0.005977
21
0.029152
31
0.0
0
LINE
8
0
6
CONTINUOUS
10
-0.000000
20
0.028787
30
0.0
11
0.003142
21
0.028881
31
0.0
0
LINE
8
0
6
CONTINUOUS
10
0.014500
20
0.025505
30
0.0
11
0.014507
21
0.030410
31
0.0
0
LINE
8
0
6
CONTINUOUS
10
-0.014507
20
0.030410
30
0.0
11
-0.014500
21
0.025505
31
0.0
0
LINE
8
0
6
CONTINUOUS
10
0.014500
20
0.035315
30
0.0
11
0.014500
21
0.039427
31
0.0
0
LINE
8
0
6
CONTINUOUS
10
-0.014500
20
0.039427
30
0.0
11
-0.014500
21
0.035315
31
0.0
0
LINE
8
0
6
CONTINUOUS
10
0.014500
20
0.014987
30
0.0
11
0.014497
21
0.020246
31
0.0
0
LINE
8
0
6
CONTINUOUS
10
-0.014497
20
0.020246
30
0.0
11
-0.014500
21
0.014987
31
0.0
0
LINE
8
0
6
CONTINUOUS
10
0.014500
20
0.043538
30
0.0
11
0.014502
21
0.046486
31
0.0
0
LINE
8
0
6
CONTINUOUS
10
-0.014502
20
0.046486
30
0.0
11
-0.014500
21
0.043538
31
0.0
0
LINE
8
0
6
CONTINUOUS
10
0.014500
20
0.049435
30
0.0
11
0.014500
21
0.050955
31
0.0
0
LINE
8
0
6
CONTINUOUS
10
-0.014500
20
0.050955
30
0.0
11
-0.014500
21
0.049435
31
0.0
0
LINE
8
0
6
CONTINUOUS
10
0.033807
20
-0.072500
30
0.0
11
0.035000
21
-0.072500
31
0.0
0
LINE
8
0
6
CONTINUOUS
10
0.035000
20
-0.072500
30
0.0
11
0.035000
21
-0.071553
31
0.0
0
LINE
8
0
6
CONTINUOUS
10
0.030311
20
-0.072500
30
0.0
11
0.033807
21
-0.072500
31
0.0
0
LINE
8
0
6
CONTINUOUS
10
0.024749
20
-0.072500
30
0.0
11
0.030311
21
-0.072500
31
0.0
0
LINE
8
0
6
CONTINUOUS
10
0.017500
20
-0.072500
30
0.0
11
0.024749
21
-0.072500
31
0.0
0
LINE
8
0
6
CONTINUOUS
10
0.009059
20
-0.072500
30
0.0
11
0.017500
21
-0.072500
31
0.0
0
LINE
8
0
6
CONTINUOUS
10
-0.000000
20
-0.072500
30
0.0
11
0.009059
21
-0.072500
31
0.0
0
LINE
8
0
6
CONTINUOUS
10
-0.009059
20
-0.072500
30
0.0
11
-0.000000
21
-0.072500
31
0.0
0
LINE
8
0
6
CONTINUOUS
10
-0.017500
20
-0.072500
30
0.0
11
-0.009059
21
-0.072500
31
0.0
0
LINE
8
0
6
CONTINUOUS
10
-0.024749
20
-0.072500
30
0.0
11
-0.017500
21
-0.072500
31
0.0
0
LINE
8
0
6
CONTINUOUS
10
-0.030311
20
-0.072500
30
0.0
11
-0.024749
21
-0.072500
31
0.0
0
LINE
8
0
6
CONTINUOUS
10
-0.033807
20
-0.072500
30
0.0
11
-0.030311
21
-0.072500
31
0.0
0
LINE
8
0
6
CONTINUOUS
10
-0.035000
20
-0.072500
30
0.0
11
-0.033807
21
-0.072500
31
0.0
0
LINE
8
0
6
CONTINUOUS
10
-0.035000
20
-0.071553
30
0.0
11
-0.035000
21
-0.072500
31
0.0
0
LINE
8
0
6
CONTINUOUS
10
-0.035000
20
-0.067447
30
0.0
11
-0.035000
21
-0.071553
31
0.0
0
LINE
8
0
6
CONTINUOUS
10
0.035000
20
-0.071553
30
0.0
11
0.035000
21
-0.067447
31
0.0
0
LINE
8
0
6
CONTINUOUS
10
0.035000
20
-0.067447
30
0.0
11
0.035000
21
-0.066500
31
0.0
0
LINE
8
0
6
CONTINUOUS
10
0.035000
20
-0.066500
30
0.0
11
0.033807
21
-0.066500
31
0.0
0
LINE
8
0
6
CONTINUOUS
10
0.033807
20
-0.066500
30
0.0
11
0.030311
21
-0.066500
31
0.0
0
LINE
8
0
6
CONTINUOUS
10
0.030311
20
-0.066500
30
0.0
11
0.024749
21
-0.066500
31
0.0
0
LINE
8
0
6
CONTINUOUS
10
0.024749
20
-0.066500
30
0.0
11
0.017500
21
-0.066500
31
0.0
0
LINE
8
0
6
CONTINUOUS
10
0.017500
20
-0.066500
30
0.0
11
0.009059
21
-0.066500
31
0.0
0
LINE
8
0
6
CONTINUOUS
10
0.009059
20
-0.066500
30
0.0
11
-0.000000
21
-0.066500
31
0.0
0
LINE
8
0
6
CONTINUOUS
10
-0.000000
20
-0.066500
30
0.0
11
-0.009059
21
-0.066500
31
0.0
0
LINE
8
0
6
CONTINUOUS
10
-0.009059
20
-0.066500
30
0.0
11
-0.017500
21
-0.066500
31
0.0
0
LINE
8
0
6
CONTINUOUS
10
-0.017500
20
-0.066500
30
0.0
11
-0.024749
21
-0.066500
31
0.0
0
LINE
8
0
6
CONTINUOUS
10
-0.024749
20
-0.066500
30
0.0
11
-0.030311
21
-0.066500
31
0.0
0
LINE
8
0
6
CONTINUOUS
10
-0.030311
20
-0.066500
30
0.0
11
-0.033807
21
-0.066500
31
0.0
0
LINE
8
0
6
CONTINUOUS
10
-0.035000
20
-0.066500
30
0.0
11
-0.035000
21
-0.067447
31
0.0
0
LINE
8
0
6
CONTINUOUS
10
-0.033807
20
-0.066500
30
0.0
11
-0.035000
21
-0.066500
31
0.0
0
ENDSEC
0
EOF
