999
Erzeugt mit innoplus bad 
0
SECTION
2
HEADER
9
$ACADVER
1
AC1009
9
$DWGCODEPAGE
3
ISO8859-1
0
ENDSEC
0
SECTION
2
TABLES
0
TABLE
2
LAYER
70
1
0
LAYER
2
0
70
0
62
7
6
CONTINUOUS
0
ENDTAB
0
ENDSEC
0
SECTION
2
ENTITIES
0
LINE
8
0
6
CONTINUOUS
10
-0.068356
20
-0.016816
30
0.0
11
-0.067044
21
-0.004483
31
0.0
0
LINE
8
0
6
CONTINUOUS
10
-0.035744
20
0.151048
30
0.0
11
-0.035673
21
0.163440
31
0.0
0
LINE
8
0
6
CONTINUOUS
10
-0.064210
20
0.149354
30
0.0
11
-0.067062
21
0.132322
31
0.0
0
LINE
8
0
6
CONTINUOUS
10
-0.057517
20
0.178890
30
0.0
11
-0.059670
21
0.171311
31
0.0
0
LINE
8
0
6
CONTINUOUS
10
-0.055629
20
0.173195
30
0.0
11
-0.057693
21
0.165904
31
0.0
0
LINE
8
0
6
CONTINUOUS
10
-0.061829
20
0.162376
30
0.0
11
-0.064210
21
0.149354
31
0.0
0
LINE
8
0
6
CONTINUOUS
10
-0.069905
20
-0.031274
30
0.0
11
-0.069250
21
-0.025183
31
0.0
0
LINE
8
0
6
CONTINUOUS
10
-0.085749
20
-0.028555
30
0.0
11
-0.086128
21
-0.032254
31
0.0
0
LINE
8
0
6
CONTINUOUS
10
-0.085816
20
-0.029595
30
0.0
11
-0.086167
21
-0.032823
31
0.0
0
LINE
8
0
6
CONTINUOUS
10
-0.062025
20
0.145084
30
0.0
11
-0.064765
21
0.128789
31
0.0
0
LINE
8
0
6
CONTINUOUS
10
-0.053315
20
0.182978
30
0.0
11
-0.054355
21
0.183888
31
0.0
0
LINE
8
0
6
CONTINUOUS
10
-0.045549
20
0.191002
30
0.0
11
-0.051358
21
0.189305
31
0.0
0
LINE
8
0
6
CONTINUOUS
10
-0.051358
20
0.189305
30
0.0
11
-0.050315
21
0.188264
31
0.0
0
LINE
8
0
6
CONTINUOUS
10
-0.045549
20
0.191002
30
0.0
11
-0.044491
21
0.190050
31
0.0
0
LINE
8
0
6
CONTINUOUS
10
-0.040237
20
0.188131
30
0.0
11
-0.045549
21
0.191002
31
0.0
0
LINE
8
0
6
CONTINUOUS
10
-0.039195
20
0.187091
30
0.0
11
-0.040237
21
0.188131
31
0.0
0
LINE
8
0
6
CONTINUOUS
10
-0.075670
20
0.065599
30
0.0
11
-0.075745
21
0.065000
31
0.0
0
LINE
8
0
6
CONTINUOUS
10
-0.076153
20
0.061757
30
0.0
11
-0.076848
21
0.056227
31
0.0
0
LINE
8
0
6
CONTINUOUS
10
-0.082411
20
-0.020422
30
0.0
11
-0.081038
21
-0.007511
31
0.0
0
LINE
8
0
6
CONTINUOUS
10
-0.082956
20
-0.002803
30
0.0
11
-0.084269
21
-0.015136
31
0.0
0
LINE
8
0
6
CONTINUOUS
10
-0.080850
20
0.018235
30
0.0
11
-0.082643
21
0.001153
31
0.0
0
LINE
8
0
6
CONTINUOUS
10
-0.061579
20
0.110441
30
0.0
11
-0.059240
21
0.126792
31
0.0
0
LINE
8
0
6
CONTINUOUS
10
-0.086128
20
-0.032254
30
0.0
11
-0.086267
21
-0.033679
31
0.0
0
LINE
8
0
6
CONTINUOUS
10
-0.036037
20
0.171867
30
0.0
11
-0.036656
21
0.178020
31
0.0
0
LINE
8
0
6
CONTINUOUS
10
-0.036054
20
0.137836
30
0.0
11
-0.035744
21
0.151048
31
0.0
0
LINE
8
0
6
CONTINUOUS
10
-0.084953
20
-0.020910
30
0.0
11
-0.085749
21
-0.028555
31
0.0
0
LINE
8
0
6
CONTINUOUS
10
-0.052866
20
0.187820
30
0.0
11
-0.055809
21
0.182526
31
0.0
0
LINE
8
0
6
CONTINUOUS
10
-0.051358
20
0.189305
30
0.0
11
-0.052866
21
0.187820
31
0.0
0
LINE
8
0
6
CONTINUOUS
10
-0.072218
20
0.094385
30
0.0
11
-0.072948
21
0.088130
31
0.0
0
LINE
8
0
6
CONTINUOUS
10
-0.070526
20
0.085414
30
0.0
11
-0.070501
21
0.085626
31
0.0
0
LINE
8
0
6
CONTINUOUS
10
-0.070120
20
0.088891
30
0.0
11
-0.069692
21
0.092556
31
0.0
0
LINE
8
0
6
CONTINUOUS
10
-0.044491
20
0.190050
30
0.0
11
-0.043698
21
0.186725
31
0.0
0
LINE
8
0
6
CONTINUOUS
10
-0.084269
20
-0.015136
30
0.0
11
-0.085162
21
-0.023503
31
0.0
0
LINE
8
0
6
CONTINUOUS
10
-0.052541
20
0.179696
30
0.0
11
-0.051923
21
0.173543
31
0.0
0
LINE
8
0
6
CONTINUOUS
10
-0.051631
20
0.152723
30
0.0
11
-0.051939
21
0.139511
31
0.0
0
LINE
8
0
6
CONTINUOUS
10
-0.037768
20
0.177449
30
0.0
11
-0.038397
21
0.183876
31
0.0
0
LINE
8
0
6
CONTINUOUS
10
-0.043046
20
0.180366
30
0.0
11
-0.043698
21
0.186725
31
0.0
0
LINE
8
0
6
CONTINUOUS
10
-0.049516
20
0.185048
30
0.0
11
-0.048889
21
0.178623
31
0.0
0
LINE
8
0
6
CONTINUOUS
10
-0.051923
20
0.173543
30
0.0
11
-0.051559
21
0.165116
31
0.0
0
LINE
8
0
6
CONTINUOUS
10
-0.039195
20
0.187091
30
0.0
11
-0.038397
21
0.183876
31
0.0
0
LINE
8
0
6
CONTINUOUS
10
-0.037429
20
0.181303
30
0.0
11
-0.039195
21
0.187091
31
0.0
0
LINE
8
0
6
CONTINUOUS
10
-0.036656
20
0.178020
30
0.0
11
-0.037429
21
0.181303
31
0.0
0
LINE
8
0
6
CONTINUOUS
10
-0.064064
20
0.091318
30
0.0
11
-0.064319
21
0.089140
31
0.0
0
LINE
8
0
6
CONTINUOUS
10
-0.064756
20
0.085400
30
0.0
11
-0.064765
21
0.085326
31
0.0
0
LINE
8
0
6
CONTINUOUS
10
-0.073341
20
-0.040775
30
0.0
11
-0.070355
21
-0.035358
31
0.0
0
LINE
8
0
6
CONTINUOUS
10
-0.070355
20
-0.035358
30
0.0
11
-0.070255
21
-0.034503
31
0.0
0
LINE
8
0
6
CONTINUOUS
10
-0.082643
20
0.001153
30
0.0
11
-0.084015
21
-0.011916
31
0.0
0
LINE
8
0
6
CONTINUOUS
10
-0.059753
20
0.157488
30
0.0
11
-0.062025
21
0.145084
31
0.0
0
LINE
8
0
6
CONTINUOUS
10
-0.056557
20
0.142723
30
0.0
11
-0.054321
21
0.154961
31
0.0
0
LINE
8
0
6
CONTINUOUS
10
-0.042660
20
0.171394
30
0.0
11
-0.042743
21
0.158280
31
0.0
0
LINE
8
0
6
CONTINUOUS
10
-0.037469
20
0.155746
30
0.0
11
-0.037379
21
0.168718
31
0.0
0
LINE
8
0
6
CONTINUOUS
10
-0.067062
20
0.132322
30
0.0
11
-0.069561
21
0.114849
31
0.0
0
LINE
8
0
6
CONTINUOUS
10
-0.067153
20
0.112054
30
0.0
11
-0.064765
21
0.128789
31
0.0
0
LINE
8
0
6
CONTINUOUS
10
-0.049516
20
0.185048
30
0.0
11
-0.050315
21
0.188264
31
0.0
0
LINE
8
0
6
CONTINUOUS
10
-0.053315
20
0.182978
30
0.0
11
-0.052541
21
0.179696
31
0.0
0
LINE
8
0
6
CONTINUOUS
10
-0.070255
20
-0.034503
30
0.0
11
-0.069905
21
-0.031274
31
0.0
0
LINE
8
0
6
CONTINUOUS
10
-0.072883
20
-0.036629
30
0.0
11
-0.072200
21
-0.030266
31
0.0
0
LINE
8
0
6
CONTINUOUS
10
-0.071273
20
-0.021598
30
0.0
11
-0.072200
21
-0.030266
31
0.0
0
LINE
8
0
6
CONTINUOUS
10
-0.069250
20
-0.025183
30
0.0
11
-0.068356
21
-0.016816
31
0.0
0
LINE
8
0
6
CONTINUOUS
10
-0.059670
20
0.171311
30
0.0
11
-0.061829
21
0.162376
31
0.0
0
LINE
8
0
6
CONTINUOUS
10
-0.057693
20
0.165904
30
0.0
11
-0.059753
21
0.157488
31
0.0
0
LINE
8
0
6
CONTINUOUS
10
-0.054321
20
0.154961
30
0.0
11
-0.052313
21
0.163123
31
0.0
0
LINE
8
0
6
CONTINUOUS
10
-0.056333
20
0.092709
30
0.0
11
-0.053675
21
0.113174
31
0.0
0
LINE
8
0
6
CONTINUOUS
10
-0.056033
20
0.110880
30
0.0
11
-0.058572
21
0.091384
31
0.0
0
LINE
8
0
6
CONTINUOUS
10
-0.069561
20
0.114849
30
0.0
11
-0.072218
21
0.094385
31
0.0
0
LINE
8
0
6
CONTINUOUS
10
-0.067153
20
0.112054
30
0.0
11
-0.069692
21
0.092556
31
0.0
0
LINE
8
0
6
CONTINUOUS
10
-0.064064
20
0.091318
30
0.0
11
-0.061579
21
0.110441
31
0.0
0
LINE
8
0
6
CONTINUOUS
10
-0.078015
20
-0.032010
30
0.0
11
-0.077063
21
-0.023102
31
0.0
0
LINE
8
0
6
CONTINUOUS
10
-0.082411
20
-0.020422
30
0.0
11
-0.083339
21
-0.029090
31
0.0
0
LINE
8
0
6
CONTINUOUS
10
-0.067044
20
-0.004483
30
0.0
11
-0.065645
21
0.008677
31
0.0
0
LINE
8
0
6
CONTINUOUS
10
-0.073226
20
-0.039790
30
0.0
11
-0.072883
21
-0.036629
31
0.0
0
LINE
8
0
6
CONTINUOUS
10
-0.078690
20
-0.038305
30
0.0
11
-0.078015
21
-0.032010
31
0.0
0
LINE
8
0
6
CONTINUOUS
10
-0.079046
20
-0.041575
30
0.0
11
-0.078690
21
-0.038305
31
0.0
0
LINE
8
0
6
CONTINUOUS
10
-0.084021
20
-0.035453
30
0.0
11
-0.084365
21
-0.038614
31
0.0
0
LINE
8
0
6
CONTINUOUS
10
-0.079008
20
0.035740
30
0.0
11
-0.080850
21
0.018235
31
0.0
0
LINE
8
0
6
CONTINUOUS
10
-0.056749
20
0.089139
30
0.0
11
-0.056333
21
0.092709
31
0.0
0
LINE
8
0
6
CONTINUOUS
10
-0.058572
20
0.091384
30
0.0
11
-0.058834
21
0.089139
31
0.0
0
LINE
8
0
6
CONTINUOUS
10
-0.059608
20
0.082507
30
0.0
11
-0.059626
21
0.082354
31
0.0
0
LINE
8
0
6
CONTINUOUS
10
-0.037796
20
0.141953
30
0.0
11
-0.037469
21
0.155746
31
0.0
0
LINE
8
0
6
CONTINUOUS
10
-0.055809
20
0.182526
30
0.0
11
-0.057517
21
0.178890
31
0.0
0
LINE
8
0
6
CONTINUOUS
10
-0.055629
20
0.173195
30
0.0
11
-0.053997
21
0.176631
31
0.0
0
LINE
8
0
6
CONTINUOUS
10
-0.053645
20
0.127616
30
0.0
11
-0.051970
21
0.137578
31
0.0
0
LINE
8
0
6
CONTINUOUS
10
-0.056557
20
0.142723
30
0.0
11
-0.059240
21
0.126792
31
0.0
0
LINE
8
0
6
CONTINUOUS
10
-0.051584
20
0.165707
30
0.0
11
-0.052313
21
0.163123
31
0.0
0
LINE
8
0
6
CONTINUOUS
10
-0.079151
20
-0.042472
30
0.0
11
-0.073341
21
-0.040775
31
0.0
0
LINE
8
0
6
CONTINUOUS
10
-0.073341
20
-0.040775
30
0.0
11
-0.073226
21
-0.039790
31
0.0
0
LINE
8
0
6
CONTINUOUS
10
-0.054355
20
0.183888
30
0.0
11
-0.055809
21
0.182526
31
0.0
0
LINE
8
0
6
CONTINUOUS
10
-0.053997
20
0.176631
30
0.0
11
-0.052575
21
0.178067
31
0.0
0
LINE
8
0
6
CONTINUOUS
10
-0.079151
20
-0.042472
30
0.0
11
-0.079046
21
-0.041575
31
0.0
0
LINE
8
0
6
CONTINUOUS
10
-0.084479
20
-0.039599
30
0.0
11
-0.079151
21
-0.042472
31
0.0
0
LINE
8
0
6
CONTINUOUS
10
-0.042660
20
0.171394
30
0.0
11
-0.043046
21
0.180366
31
0.0
0
LINE
8
0
6
CONTINUOUS
10
-0.048889
20
0.178623
30
0.0
11
-0.048499
21
0.169891
31
0.0
0
LINE
8
0
6
CONTINUOUS
10
-0.084015
20
-0.011916
30
0.0
11
-0.084953
21
-0.020910
31
0.0
0
LINE
8
0
6
CONTINUOUS
10
-0.048590
20
0.156918
30
0.0
11
-0.048499
21
0.169891
31
0.0
0
LINE
8
0
6
CONTINUOUS
10
-0.051559
20
0.165116
30
0.0
11
-0.051631
21
0.152723
31
0.0
0
LINE
8
0
6
CONTINUOUS
10
-0.075674
20
-0.010051
30
0.0
11
-0.077063
21
-0.023102
31
0.0
0
LINE
8
0
6
CONTINUOUS
10
-0.071273
20
-0.021598
30
0.0
11
-0.069899
21
-0.008687
31
0.0
0
LINE
8
0
6
CONTINUOUS
10
-0.084021
20
-0.035453
30
0.0
11
-0.083339
21
-0.029090
31
0.0
0
LINE
8
0
6
CONTINUOUS
10
-0.085162
20
-0.023503
30
0.0
11
-0.085816
21
-0.029595
31
0.0
0
LINE
8
0
6
CONTINUOUS
10
-0.037768
20
0.177449
30
0.0
11
-0.037379
21
0.168718
31
0.0
0
LINE
8
0
6
CONTINUOUS
10
-0.035673
20
0.163440
30
0.0
11
-0.036037
21
0.171867
31
0.0
0
LINE
8
0
6
CONTINUOUS
10
-0.084479
20
-0.039599
30
0.0
11
-0.084365
21
-0.038614
31
0.0
0
LINE
8
0
6
CONTINUOUS
10
-0.086267
20
-0.033679
30
0.0
11
-0.084479
21
-0.039599
31
0.0
0
LINE
8
0
6
CONTINUOUS
10
-0.086167
20
-0.032823
30
0.0
11
-0.086267
21
-0.033679
31
0.0
0
LINE
8
0
6
CONTINUOUS
10
-0.076848
20
0.056227
30
0.0
11
-0.079008
21
0.035740
31
0.0
0
LINE
8
0
6
CONTINUOUS
10
-0.048590
20
0.156918
30
0.0
11
-0.048916
21
0.143126
31
0.0
0
LINE
8
0
6
CONTINUOUS
10
-0.043083
20
0.144148
30
0.0
11
-0.042743
21
0.158280
31
0.0
0
LINE
8
0
6
CONTINUOUS
10
-0.053675
20
0.113174
30
0.0
11
-0.052190
21
0.123559
31
0.0
0
LINE
8
0
6
CONTINUOUS
10
-0.053645
20
0.127616
30
0.0
11
-0.056033
21
0.110880
31
0.0
0
LINE
8
0
6
CONTINUOUS
10
-0.069899
20
-0.008687
30
0.0
11
-0.068438
21
0.005051
31
0.0
0
LINE
8
0
6
CONTINUOUS
10
-0.081557
20
0.010357
30
0.0
11
-0.082956
21
-0.002803
31
0.0
0
LINE
8
0
6
CONTINUOUS
10
-0.075674
20
-0.010051
30
0.0
11
-0.074176
21
0.004026
31
0.0
0
LINE
8
0
6
CONTINUOUS
10
-0.079577
20
0.006227
30
0.0
11
-0.081038
21
-0.007511
31
0.0
0
LINE
8
0
6
CONTINUOUS
10
-0.078260
20
0.079515
30
0.0
11
-0.079047
21
0.079825
31
0.0
0
LINE
8
0
6
CONTINUOUS
10
-0.079047
20
0.079825
30
0.0
11
-0.079200
21
0.079426
31
0.0
0
LINE
8
0
6
CONTINUOUS
10
-0.067076
20
0.085926
30
0.0
11
-0.063288
21
0.085068
31
0.0
0
LINE
8
0
6
CONTINUOUS
10
-0.070046
20
0.088831
30
0.0
11
-0.074496
21
0.087264
31
0.0
0
LINE
8
0
6
CONTINUOUS
10
-0.065330
20
0.088778
30
0.0
11
-0.070046
21
0.088831
31
0.0
0
LINE
8
0
6
CONTINUOUS
10
-0.057313
20
0.084075
30
0.0
11
-0.060901
21
0.087127
31
0.0
0
LINE
8
0
6
CONTINUOUS
10
-0.053255
20
0.074138
30
0.0
11
-0.054593
21
0.080201
31
0.0
0
LINE
8
0
6
CONTINUOUS
10
-0.060024
20
0.083007
30
0.0
11
-0.057779
21
0.080311
31
0.0
0
LINE
8
0
6
CONTINUOUS
10
-0.074496
20
0.087264
30
0.0
11
-0.076750
21
0.085983
31
0.0
0
LINE
8
0
6
CONTINUOUS
10
-0.079946
20
0.083036
30
0.0
11
-0.079957
21
0.082699
31
0.0
0
LINE
8
0
6
CONTINUOUS
10
-0.076694
20
0.082861
30
0.0
11
-0.078385
21
0.082772
31
0.0
0
LINE
8
0
6
CONTINUOUS
10
-0.078178
20
0.082771
30
0.0
11
-0.076636
21
0.082864
31
0.0
0
LINE
8
0
6
CONTINUOUS
10
-0.078385
20
0.082772
30
0.0
11
-0.079536
21
0.082719
31
0.0
0
LINE
8
0
6
CONTINUOUS
10
-0.079957
20
0.082699
30
0.0
11
-0.079561
21
0.082687
31
0.0
0
LINE
8
0
6
CONTINUOUS
10
-0.079536
20
0.082719
30
0.0
11
-0.079957
21
0.082699
31
0.0
0
LINE
8
0
6
CONTINUOUS
10
-0.073363
20
0.084567
30
0.0
11
-0.070945
21
0.085587
31
0.0
0
LINE
8
0
6
CONTINUOUS
10
-0.060901
20
0.087127
30
0.0
11
-0.065330
21
0.088778
31
0.0
0
LINE
8
0
6
CONTINUOUS
10
-0.077866
20
0.082769
30
0.0
11
-0.076547
21
0.082870
31
0.0
0
LINE
8
0
6
CONTINUOUS
10
-0.079561
20
0.082687
30
0.0
11
-0.077866
21
0.082769
31
0.0
0
LINE
8
0
6
CONTINUOUS
10
-0.077116
20
0.085758
30
0.0
11
-0.078300
21
0.085678
31
0.0
0
LINE
8
0
6
CONTINUOUS
10
-0.078300
20
0.085678
30
0.0
11
-0.079451
21
0.085607
31
0.0
0
LINE
8
0
6
CONTINUOUS
10
-0.079451
20
0.085607
30
0.0
11
-0.079872
21
0.085581
31
0.0
0
LINE
8
0
6
CONTINUOUS
10
-0.079872
20
0.085581
30
0.0
11
-0.079881
21
0.085323
31
0.0
0
LINE
8
0
6
CONTINUOUS
10
-0.076750
20
0.085983
30
0.0
11
-0.077116
21
0.085758
31
0.0
0
LINE
8
0
6
CONTINUOUS
10
-0.079881
20
0.085323
30
0.0
11
-0.079946
21
0.083036
31
0.0
0
LINE
8
0
6
CONTINUOUS
10
-0.060110
20
0.083061
30
0.0
11
-0.060024
21
0.083007
31
0.0
0
LINE
8
0
6
CONTINUOUS
10
-0.054593
20
0.080201
30
0.0
11
-0.057313
21
0.084075
31
0.0
0
LINE
8
0
6
CONTINUOUS
10
-0.075928
20
0.083157
30
0.0
11
-0.074500
21
0.084088
31
0.0
0
LINE
8
0
6
CONTINUOUS
10
-0.076719
20
0.086169
30
0.0
11
-0.077657
21
0.085629
31
0.0
0
LINE
8
0
6
CONTINUOUS
10
-0.063288
20
0.063208
30
0.0
11
-0.067076
21
0.062351
31
0.0
0
LINE
8
0
6
CONTINUOUS
10
-0.074496
20
0.061012
30
0.0
11
-0.070046
21
0.059445
31
0.0
0
LINE
8
0
6
CONTINUOUS
10
-0.070046
20
0.059445
30
0.0
11
-0.065330
21
0.059498
31
0.0
0
LINE
8
0
6
CONTINUOUS
10
-0.060901
20
0.061149
30
0.0
11
-0.057313
21
0.064201
31
0.0
0
LINE
8
0
6
CONTINUOUS
10
-0.054593
20
0.068075
30
0.0
11
-0.053255
21
0.074138
31
0.0
0
LINE
8
0
6
CONTINUOUS
10
-0.059445
20
0.065964
30
0.0
11
-0.060024
21
0.065270
31
0.0
0
LINE
8
0
6
CONTINUOUS
10
-0.076750
20
0.062294
30
0.0
11
-0.074496
21
0.061012
31
0.0
0
LINE
8
0
6
CONTINUOUS
10
-0.079957
20
0.065577
30
0.0
11
-0.079946
21
0.065240
31
0.0
0
LINE
8
0
6
CONTINUOUS
10
-0.076636
20
0.065412
30
0.0
11
-0.078178
21
0.065506
31
0.0
0
LINE
8
0
6
CONTINUOUS
10
-0.078385
20
0.065504
30
0.0
11
-0.076694
21
0.065416
31
0.0
0
LINE
8
0
6
CONTINUOUS
10
-0.079536
20
0.065557
30
0.0
11
-0.078385
21
0.065504
31
0.0
0
LINE
8
0
6
CONTINUOUS
10
-0.079957
20
0.065577
30
0.0
11
-0.079536
21
0.065557
31
0.0
0
LINE
8
0
6
CONTINUOUS
10
-0.079561
20
0.065589
30
0.0
11
-0.079957
21
0.065577
31
0.0
0
LINE
8
0
6
CONTINUOUS
10
-0.070945
20
0.062689
30
0.0
11
-0.074500
21
0.064188
31
0.0
0
LINE
8
0
6
CONTINUOUS
10
-0.065330
20
0.059498
30
0.0
11
-0.060901
21
0.061149
31
0.0
0
LINE
8
0
6
CONTINUOUS
10
-0.076547
20
0.065406
30
0.0
11
-0.077866
21
0.065508
31
0.0
0
LINE
8
0
6
CONTINUOUS
10
-0.077866
20
0.065508
30
0.0
11
-0.079561
21
0.065589
31
0.0
0
LINE
8
0
6
CONTINUOUS
10
-0.078300
20
0.062599
30
0.0
11
-0.077116
21
0.062518
31
0.0
0
LINE
8
0
6
CONTINUOUS
10
-0.079451
20
0.062669
30
0.0
11
-0.078300
21
0.062599
31
0.0
0
LINE
8
0
6
CONTINUOUS
10
-0.079881
20
0.062953
30
0.0
11
-0.079872
21
0.062695
31
0.0
0
LINE
8
0
6
CONTINUOUS
10
-0.079872
20
0.062695
30
0.0
11
-0.079451
21
0.062669
31
0.0
0
LINE
8
0
6
CONTINUOUS
10
-0.077116
20
0.062518
30
0.0
11
-0.076750
21
0.062294
31
0.0
0
LINE
8
0
6
CONTINUOUS
10
-0.079946
20
0.065240
30
0.0
11
-0.079881
21
0.062953
31
0.0
0
LINE
8
0
6
CONTINUOUS
10
-0.060024
20
0.065270
30
0.0
11
-0.060110
21
0.065215
31
0.0
0
LINE
8
0
6
CONTINUOUS
10
-0.057313
20
0.064201
30
0.0
11
-0.054593
21
0.068075
31
0.0
0
LINE
8
0
6
CONTINUOUS
10
-0.074500
20
0.064188
30
0.0
11
-0.075928
21
0.065120
31
0.0
0
LINE
8
0
6
CONTINUOUS
10
-0.077657
20
0.062648
30
0.0
11
-0.076719
21
0.062107
31
0.0
0
LINE
8
0
6
CONTINUOUS
10
-0.078871
20
0.077917
30
0.0
11
-0.078718
21
0.078316
31
0.0
0
LINE
8
0
6
CONTINUOUS
10
-0.079659
20
0.078227
30
0.0
11
-0.078871
21
0.077917
31
0.0
0
LINE
8
0
6
CONTINUOUS
10
-0.079506
20
0.078627
30
0.0
11
-0.079659
21
0.078227
31
0.0
0
LINE
8
0
6
CONTINUOUS
10
-0.077190
20
0.065883
30
0.0
11
-0.076609
21
0.065261
31
0.0
0
LINE
8
0
6
CONTINUOUS
10
-0.075996
20
0.065851
30
0.0
11
-0.076577
21
0.066473
31
0.0
0
LINE
8
0
6
CONTINUOUS
10
-0.079506
20
0.069649
30
0.0
11
-0.079200
21
0.068850
31
0.0
0
LINE
8
0
6
CONTINUOUS
10
-0.080310
20
0.074567
30
0.0
11
-0.080310
21
0.073709
31
0.0
0
LINE
8
0
6
CONTINUOUS
10
-0.076577
20
0.081803
30
0.0
11
-0.075996
21
0.082425
31
0.0
0
LINE
8
0
6
CONTINUOUS
10
-0.076609
20
0.083015
30
0.0
11
-0.077190
21
0.082393
31
0.0
0
LINE
8
0
6
CONTINUOUS
10
-0.062777
20
0.034817
30
0.0
11
-0.061657
21
0.045333
31
0.0
0
LINE
8
0
6
CONTINUOUS
10
-0.059445
20
0.065964
30
0.0
11
-0.059429
21
0.066119
31
0.0
0
LINE
8
0
6
CONTINUOUS
10
-0.063968
20
0.023635
30
0.0
11
-0.062777
21
0.034817
31
0.0
0
LINE
8
0
6
CONTINUOUS
10
-0.078689
20
0.036497
30
0.0
11
-0.079879
21
0.025314
31
0.0
0
LINE
8
0
6
CONTINUOUS
10
-0.060700
20
0.054278
30
0.0
11
-0.060179
21
0.059137
31
0.0
0
LINE
8
0
6
CONTINUOUS
10
-0.052106
20
0.102661
30
0.0
11
-0.051650
21
0.093649
31
0.0
0
LINE
8
0
6
CONTINUOUS
10
-0.079879
20
0.025314
30
0.0
11
-0.081557
21
0.010357
31
0.0
0
LINE
8
0
6
CONTINUOUS
10
-0.066796
20
0.019681
30
0.0
11
-0.065620
21
0.030743
31
0.0
0
LINE
8
0
6
CONTINUOUS
10
-0.036220
20
0.100986
30
0.0
11
-0.036385
21
0.111564
31
0.0
0
LINE
8
0
6
CONTINUOUS
10
-0.075659
20
0.042217
30
0.0
11
-0.074731
21
0.050901
31
0.0
0
LINE
8
0
6
CONTINUOUS
10
-0.076611
20
0.055957
30
0.0
11
-0.077567
21
0.047013
31
0.0
0
LINE
8
0
6
CONTINUOUS
10
-0.049048
20
0.106945
30
0.0
11
-0.048599
21
0.098194
31
0.0
0
LINE
8
0
6
CONTINUOUS
10
-0.051939
20
0.139511
30
0.0
11
-0.052183
21
0.124474
31
0.0
0
LINE
8
0
6
CONTINUOUS
10
-0.041712
20
0.089137
30
0.0
11
-0.042148
21
0.092442
31
0.0
0
LINE
8
0
6
CONTINUOUS
10
-0.072548
20
0.018535
30
0.0
11
-0.071383
21
0.029478
31
0.0
0
LINE
8
0
6
CONTINUOUS
10
-0.076757
20
0.031919
30
0.0
11
-0.077935
21
0.020857
31
0.0
0
LINE
8
0
6
CONTINUOUS
10
-0.063593
20
0.049725
30
0.0
11
-0.062822
21
0.056915
31
0.0
0
LINE
8
0
6
CONTINUOUS
10
-0.047987
20
0.090938
30
0.0
11
-0.048599
21
0.098194
31
0.0
0
LINE
8
0
6
CONTINUOUS
10
-0.051650
20
0.093649
30
0.0
11
-0.051283
21
0.089138
31
0.0
0
LINE
8
0
6
CONTINUOUS
10
-0.049048
20
0.106945
30
0.0
11
-0.049226
21
0.117304
31
0.0
0
LINE
8
0
6
CONTINUOUS
10
-0.052270
20
0.113240
30
0.0
11
-0.052106
21
0.102661
31
0.0
0
LINE
8
0
6
CONTINUOUS
10
-0.036385
20
0.111564
30
0.0
11
-0.036297
21
0.122799
31
0.0
0
LINE
8
0
6
CONTINUOUS
10
-0.070296
20
0.039667
30
0.0
11
-0.071383
21
0.029478
31
0.0
0
LINE
8
0
6
CONTINUOUS
10
-0.065620
20
0.030743
30
0.0
11
-0.064521
21
0.041041
31
0.0
0
LINE
8
0
6
CONTINUOUS
10
-0.069369
20
0.048340
30
0.0
11
-0.070296
21
0.039667
31
0.0
0
LINE
8
0
6
CONTINUOUS
10
-0.042761
20
0.099577
30
0.0
11
-0.042148
21
0.092442
31
0.0
0
LINE
8
0
6
CONTINUOUS
10
-0.052183
20
0.124474
30
0.0
11
-0.052270
21
0.113240
31
0.0
0
LINE
8
0
6
CONTINUOUS
10
-0.077935
20
0.020857
30
0.0
11
-0.079577
21
0.006227
31
0.0
0
LINE
8
0
6
CONTINUOUS
10
-0.035534
20
0.089136
30
0.0
11
-0.035764
21
0.091974
31
0.0
0
LINE
8
0
6
CONTINUOUS
10
-0.037478
20
0.097022
30
0.0
11
-0.036868
21
0.089765
31
0.0
0
LINE
8
0
6
CONTINUOUS
10
-0.068205
20
0.059178
30
0.0
11
-0.068611
21
0.055411
31
0.0
0
LINE
8
0
6
CONTINUOUS
10
-0.062822
20
0.056915
30
0.0
11
-0.062583
21
0.059137
31
0.0
0
LINE
8
0
6
CONTINUOUS
10
-0.049140
20
0.128419
30
0.0
11
-0.049226
21
0.117304
31
0.0
0
LINE
8
0
6
CONTINUOUS
10
-0.076757
20
0.031919
30
0.0
11
-0.075659
21
0.042217
31
0.0
0
LINE
8
0
6
CONTINUOUS
10
-0.077567
20
0.047013
30
0.0
11
-0.078689
21
0.036497
31
0.0
0
LINE
8
0
6
CONTINUOUS
10
-0.035764
20
0.091974
30
0.0
11
-0.036220
21
0.100986
31
0.0
0
LINE
8
0
6
CONTINUOUS
10
-0.038107
20
0.116131
30
0.0
11
-0.038020
21
0.127246
31
0.0
0
LINE
8
0
6
CONTINUOUS
10
-0.043306
20
0.129561
30
0.0
11
-0.043390
21
0.118566
31
0.0
0
LINE
8
0
6
CONTINUOUS
10
-0.075999
20
0.061662
30
0.0
11
-0.076611
21
0.055957
31
0.0
0
LINE
8
0
6
CONTINUOUS
10
-0.047753
20
0.089138
30
0.0
11
-0.047987
21
0.090938
31
0.0
0
LINE
8
0
6
CONTINUOUS
10
-0.069369
20
0.048340
30
0.0
11
-0.068611
21
0.055411
31
0.0
0
LINE
8
0
6
CONTINUOUS
10
-0.073960
20
0.058091
30
0.0
11
-0.074731
21
0.050901
31
0.0
0
LINE
8
0
6
CONTINUOUS
10
-0.073960
20
0.058091
30
0.0
11
-0.073705
21
0.060460
31
0.0
0
LINE
8
0
6
CONTINUOUS
10
-0.075586
20
0.065514
30
0.0
11
-0.075675
21
0.064688
31
0.0
0
LINE
8
0
6
CONTINUOUS
10
-0.063593
20
0.049725
30
0.0
11
-0.064521
21
0.041041
31
0.0
0
LINE
8
0
6
CONTINUOUS
10
-0.061657
20
0.045333
30
0.0
11
-0.060700
21
0.054278
31
0.0
0
LINE
8
0
6
CONTINUOUS
10
-0.037478
20
0.097022
30
0.0
11
-0.037929
21
0.105771
31
0.0
0
LINE
8
0
6
CONTINUOUS
10
-0.043206
20
0.108317
30
0.0
11
-0.042761
21
0.099577
31
0.0
0
LINE
8
0
6
CONTINUOUS
10
-0.037929
20
0.105771
30
0.0
11
-0.038107
21
0.116131
31
0.0
0
LINE
8
0
6
CONTINUOUS
10
-0.043390
20
0.118566
30
0.0
11
-0.043206
21
0.108317
31
0.0
0
LINE
8
0
6
CONTINUOUS
10
-0.072548
20
0.018535
30
0.0
11
-0.074176
21
0.004026
31
0.0
0
LINE
8
0
6
CONTINUOUS
10
-0.036868
20
0.089765
30
0.0
11
-0.036786
21
0.089136
31
0.0
0
LINE
8
0
6
CONTINUOUS
10
-0.036297
20
0.122799
30
0.0
11
-0.036054
21
0.137836
31
0.0
0
LINE
8
0
6
CONTINUOUS
10
-0.037796
20
0.141953
30
0.0
11
-0.038020
21
0.127246
31
0.0
0
LINE
8
0
6
CONTINUOUS
10
-0.066796
20
0.019681
30
0.0
11
-0.068438
21
0.005051
31
0.0
0
LINE
8
0
6
CONTINUOUS
10
-0.065645
20
0.008677
30
0.0
11
-0.063968
21
0.023635
31
0.0
0
LINE
8
0
6
CONTINUOUS
10
-0.043306
20
0.129561
30
0.0
11
-0.043083
21
0.144148
31
0.0
0
LINE
8
0
6
CONTINUOUS
10
-0.048916
20
0.143126
30
0.0
11
-0.049140
21
0.128419
31
0.0
0
LINE
8
0
6
CONTINUOUS
10
-0.079659
20
0.070049
30
0.0
11
-0.079506
21
0.069649
31
0.0
0
LINE
8
0
6
CONTINUOUS
10
-0.078871
20
0.070359
30
0.0
11
-0.079659
21
0.070049
31
0.0
0
LINE
8
0
6
CONTINUOUS
10
-0.078718
20
0.069960
30
0.0
11
-0.078871
21
0.070359
31
0.0
0
LINE
8
0
6
CONTINUOUS
10
-0.079506
20
0.069649
30
0.0
11
-0.078718
21
0.069960
31
0.0
0
LINE
8
0
6
CONTINUOUS
10
-0.064019
20
0.089140
30
0.0
11
-0.067756
21
0.089147
31
0.0
0
LINE
8
0
6
CONTINUOUS
10
-0.067756
20
0.089147
30
0.0
11
-0.071459
21
0.088747
31
0.0
0
LINE
8
0
6
CONTINUOUS
10
-0.074767
20
0.087377
30
0.0
11
-0.076719
21
0.086169
31
0.0
0
LINE
8
0
6
CONTINUOUS
10
-0.071459
20
0.088747
30
0.0
11
-0.074767
21
0.087377
31
0.0
0
LINE
8
0
6
CONTINUOUS
10
-0.014723
20
0.089134
30
0.0
11
-0.064019
21
0.089140
31
0.0
0
LINE
8
0
6
CONTINUOUS
10
-0.067756
20
0.059129
30
0.0
11
-0.064019
21
0.059137
31
0.0
0
LINE
8
0
6
CONTINUOUS
10
-0.071459
20
0.059530
30
0.0
11
-0.067756
21
0.059129
31
0.0
0
LINE
8
0
6
CONTINUOUS
10
-0.076719
20
0.062107
30
0.0
11
-0.074767
21
0.060900
31
0.0
0
LINE
8
0
6
CONTINUOUS
10
-0.074767
20
0.060900
30
0.0
11
-0.071459
21
0.059530
31
0.0
0
LINE
8
0
6
CONTINUOUS
10
-0.064019
20
0.059137
30
0.0
11
-0.017258
21
0.059142
31
0.0
0
LINE
8
0
6
CONTINUOUS
10
-0.076609
20
0.065261
30
0.0
11
-0.076318
21
0.064950
31
0.0
0
LINE
8
0
6
CONTINUOUS
10
-0.075996
20
0.065851
30
0.0
11
-0.076609
21
0.065261
31
0.0
0
LINE
8
0
6
CONTINUOUS
10
-0.075705
20
0.065540
30
0.0
11
-0.075996
21
0.065851
31
0.0
0
LINE
8
0
6
CONTINUOUS
10
-0.076318
20
0.064950
30
0.0
11
-0.075705
21
0.065540
31
0.0
0
LINE
8
0
6
CONTINUOUS
10
-0.078413
20
0.079115
30
0.0
11
-0.079200
21
0.079426
31
0.0
0
LINE
8
0
6
CONTINUOUS
10
-0.079506
20
0.078627
30
0.0
11
-0.078718
21
0.078316
31
0.0
0
LINE
8
0
6
CONTINUOUS
10
-0.079200
20
0.079426
30
0.0
11
-0.079506
21
0.078627
31
0.0
0
LINE
8
0
6
CONTINUOUS
10
-0.075705
20
0.082736
30
0.0
11
-0.076318
21
0.083326
31
0.0
0
LINE
8
0
6
CONTINUOUS
10
-0.075996
20
0.082425
30
0.0
11
-0.075705
21
0.082736
31
0.0
0
LINE
8
0
6
CONTINUOUS
10
-0.076609
20
0.083015
30
0.0
11
-0.075996
21
0.082425
31
0.0
0
LINE
8
0
6
CONTINUOUS
10
-0.076318
20
0.083326
30
0.0
11
-0.076609
21
0.083015
31
0.0
0
LINE
8
0
6
CONTINUOUS
10
-0.077480
20
0.066194
30
0.0
11
-0.077190
21
0.065883
31
0.0
0
LINE
8
0
6
CONTINUOUS
10
-0.076867
20
0.066784
30
0.0
11
-0.077480
21
0.066194
31
0.0
0
LINE
8
0
6
CONTINUOUS
10
-0.076577
20
0.066473
30
0.0
11
-0.076867
21
0.066784
31
0.0
0
LINE
8
0
6
CONTINUOUS
10
-0.077190
20
0.065883
30
0.0
11
-0.076577
21
0.066473
31
0.0
0
LINE
8
0
6
CONTINUOUS
10
-0.079200
20
0.068850
30
0.0
11
-0.079047
21
0.068451
31
0.0
0
LINE
8
0
6
CONTINUOUS
10
-0.078413
20
0.069161
30
0.0
11
-0.079200
21
0.068850
31
0.0
0
LINE
8
0
6
CONTINUOUS
10
-0.079047
20
0.068451
30
0.0
11
-0.078260
21
0.068761
31
0.0
0
LINE
8
0
6
CONTINUOUS
10
-0.079465
20
0.074995
30
0.0
11
-0.080310
21
0.074995
31
0.0
0
LINE
8
0
6
CONTINUOUS
10
-0.080310
20
0.074567
30
0.0
11
-0.079465
21
0.074567
31
0.0
0
LINE
8
0
6
CONTINUOUS
10
-0.080310
20
0.074995
30
0.0
11
-0.080310
21
0.074567
31
0.0
0
LINE
8
0
6
CONTINUOUS
10
-0.079465
20
0.073709
30
0.0
11
-0.080310
21
0.073709
31
0.0
0
LINE
8
0
6
CONTINUOUS
10
-0.080310
20
0.073281
30
0.0
11
-0.079465
21
0.073281
31
0.0
0
LINE
8
0
6
CONTINUOUS
10
-0.080310
20
0.073709
30
0.0
11
-0.080310
21
0.073281
31
0.0
0
LINE
8
0
6
CONTINUOUS
10
-0.076577
20
0.081803
30
0.0
11
-0.077190
21
0.082393
31
0.0
0
LINE
8
0
6
CONTINUOUS
10
-0.076867
20
0.081492
30
0.0
11
-0.076577
21
0.081803
31
0.0
0
LINE
8
0
6
CONTINUOUS
10
-0.077480
20
0.082082
30
0.0
11
-0.076867
21
0.081492
31
0.0
0
LINE
8
0
6
CONTINUOUS
10
-0.077190
20
0.082393
30
0.0
11
-0.077480
21
0.082082
31
0.0
0
LINE
8
0
6
CONTINUOUS
10
-0.057410
20
0.068138
30
0.0
11
-0.055810
21
0.074138
31
0.0
0
LINE
8
0
6
CONTINUOUS
10
-0.061810
20
0.084538
30
0.0
11
-0.067810
21
0.086138
31
0.0
0
LINE
8
0
6
CONTINUOUS
10
-0.057410
20
0.080138
30
0.0
11
-0.061810
21
0.084538
31
0.0
0
LINE
8
0
6
CONTINUOUS
10
-0.067810
20
0.062138
30
0.0
11
-0.061810
21
0.063738
31
0.0
0
LINE
8
0
6
CONTINUOUS
10
-0.055810
20
0.074138
30
0.0
11
-0.057410
21
0.080138
31
0.0
0
LINE
8
0
6
CONTINUOUS
10
-0.067810
20
0.086138
30
0.0
11
-0.073810
21
0.084538
31
0.0
0
LINE
8
0
6
CONTINUOUS
10
-0.079810
20
0.074138
30
0.0
11
-0.078210
21
0.068138
31
0.0
0
LINE
8
0
6
CONTINUOUS
10
-0.073810
20
0.063738
30
0.0
11
-0.067810
21
0.062138
31
0.0
0
LINE
8
0
6
CONTINUOUS
10
-0.078210
20
0.068138
30
0.0
11
-0.073810
21
0.063738
31
0.0
0
LINE
8
0
6
CONTINUOUS
10
-0.061810
20
0.063738
30
0.0
11
-0.057410
21
0.068138
31
0.0
0
LINE
8
0
6
CONTINUOUS
10
-0.078210
20
0.080138
30
0.0
11
-0.079810
21
0.074138
31
0.0
0
LINE
8
0
6
CONTINUOUS
10
-0.073810
20
0.084538
30
0.0
11
-0.078210
21
0.080138
31
0.0
0
LINE
8
0
6
CONTINUOUS
10
-0.052151
20
0.105570
30
0.0
11
-0.055469
21
0.099363
31
0.0
0
LINE
8
0
6
CONTINUOUS
10
-0.033435
20
0.125689
30
0.0
11
-0.036288
21
0.123347
31
0.0
0
LINE
8
0
6
CONTINUOUS
10
-0.022716
20
0.131419
30
0.0
11
-0.033435
21
0.125689
31
0.0
0
LINE
8
0
6
CONTINUOUS
10
-0.011085
20
0.134947
30
0.0
11
-0.022716
21
0.131419
31
0.0
0
LINE
8
0
6
CONTINUOUS
10
0.001011
20
0.136138
30
0.0
11
-0.011085
21
0.134947
31
0.0
0
LINE
8
0
6
CONTINUOUS
10
0.013106
20
0.134947
30
0.0
11
0.001011
21
0.136138
31
0.0
0
LINE
8
0
6
CONTINUOUS
10
0.024737
20
0.131419
30
0.0
11
0.013106
21
0.134947
31
0.0
0
LINE
8
0
6
CONTINUOUS
10
0.035456
20
0.125689
30
0.0
11
0.024737
21
0.131419
31
0.0
0
LINE
8
0
6
CONTINUOUS
10
0.044851
20
0.117979
30
0.0
11
0.035456
21
0.125689
31
0.0
0
LINE
8
0
6
CONTINUOUS
10
0.052562
20
0.108584
30
0.0
11
0.044851
21
0.117979
31
0.0
0
LINE
8
0
6
CONTINUOUS
10
0.058291
20
0.097865
30
0.0
11
0.052562
21
0.108584
31
0.0
0
LINE
8
0
6
CONTINUOUS
10
0.058663
20
0.096638
30
0.0
11
0.058291
21
0.097865
31
0.0
0
LINE
8
0
6
CONTINUOUS
10
0.058291
20
0.050412
30
0.0
11
0.058663
21
0.051638
31
0.0
0
LINE
8
0
6
CONTINUOUS
10
0.052562
20
0.039693
30
0.0
11
0.058291
21
0.050412
31
0.0
0
LINE
8
0
6
CONTINUOUS
10
0.044851
20
0.030297
30
0.0
11
0.052562
21
0.039693
31
0.0
0
LINE
8
0
6
CONTINUOUS
10
0.035456
20
0.022587
30
0.0
11
0.044851
21
0.030297
31
0.0
0
LINE
8
0
6
CONTINUOUS
10
0.024737
20
0.016858
30
0.0
11
0.035456
21
0.022587
31
0.0
0
LINE
8
0
6
CONTINUOUS
10
0.018830
20
0.015066
30
0.0
11
0.024737
21
0.016858
31
0.0
0
LINE
8
0
6
CONTINUOUS
10
-0.022716
20
0.016858
30
0.0
11
-0.016843
21
0.015076
31
0.0
0
LINE
8
0
6
CONTINUOUS
10
-0.033435
20
0.022587
30
0.0
11
-0.022716
21
0.016858
31
0.0
0
LINE
8
0
6
CONTINUOUS
10
-0.042830
20
0.030298
30
0.0
11
-0.033435
21
0.022587
31
0.0
0
LINE
8
0
6
CONTINUOUS
10
-0.050540
20
0.039693
30
0.0
11
-0.042830
21
0.030298
31
0.0
0
LINE
8
0
6
CONTINUOUS
10
-0.056270
20
0.050412
30
0.0
11
-0.050540
21
0.039693
31
0.0
0
LINE
8
0
6
CONTINUOUS
10
-0.058917
20
0.059137
30
0.0
11
-0.056270
21
0.050412
31
0.0
0
LINE
8
0
6
CONTINUOUS
10
0.046259
20
0.096138
30
0.0
11
0.012904
21
0.096138
31
0.0
0
LINE
8
0
6
CONTINUOUS
10
0.023472
20
0.074138
30
0.0
11
0.024840
21
0.074138
31
0.0
0
LINE
8
0
6
CONTINUOUS
10
0.023763
20
0.080936
30
0.0
11
0.022395
21
0.080936
31
0.0
0
LINE
8
0
6
CONTINUOUS
10
0.023763
20
0.067340
30
0.0
11
0.022395
21
0.067340
31
0.0
0
LINE
8
0
6
CONTINUOUS
10
0.024840
20
0.074138
30
0.0
11
0.023763
21
0.067340
31
0.0
0
LINE
8
0
6
CONTINUOUS
10
0.020638
20
0.061207
30
0.0
11
0.019246
21
0.059815
31
0.0
0
LINE
8
0
6
CONTINUOUS
10
0.020638
20
0.087069
30
0.0
11
0.023763
21
0.080936
31
0.0
0
LINE
8
0
6
CONTINUOUS
10
0.010355
20
0.096138
30
0.0
11
0.005548
21
0.096138
31
0.0
0
LINE
8
0
6
CONTINUOUS
10
0.023763
20
0.067340
30
0.0
11
0.020638
21
0.061207
31
0.0
0
LINE
8
0
6
CONTINUOUS
10
0.027761
20
0.067340
30
0.0
11
0.023763
21
0.067340
31
0.0
0
LINE
8
0
6
CONTINUOUS
10
0.024840
20
0.074138
30
0.0
11
0.028837
21
0.074138
31
0.0
0
LINE
8
0
6
CONTINUOUS
10
0.023763
20
0.080936
30
0.0
11
0.024840
21
0.074138
31
0.0
0
LINE
8
0
6
CONTINUOUS
10
0.027761
20
0.080936
30
0.0
11
0.023763
21
0.080936
31
0.0
0
LINE
8
0
6
CONTINUOUS
10
0.015771
20
0.091936
30
0.0
11
0.020638
21
0.087069
31
0.0
0
LINE
8
0
6
CONTINUOUS
10
0.005548
20
0.096138
30
0.0
11
0.002092
21
0.096138
31
0.0
0
LINE
8
0
6
CONTINUOUS
10
0.044056
20
0.056340
30
0.0
11
0.042862
21
0.061207
31
0.0
0
LINE
8
0
6
CONTINUOUS
10
0.046259
20
0.052138
30
0.0
11
0.047228
21
0.052138
31
0.0
0
LINE
8
0
6
CONTINUOUS
10
0.047228
20
0.052138
30
0.0
11
0.045561
21
0.053215
31
0.0
0
LINE
8
0
6
CONTINUOUS
10
0.044056
20
0.091936
30
0.0
11
0.045561
21
0.095061
31
0.0
0
LINE
8
0
6
CONTINUOUS
10
0.042862
20
0.061207
30
0.0
11
0.042096
21
0.067340
31
0.0
0
LINE
8
0
6
CONTINUOUS
10
0.041832
20
0.074138
30
0.0
11
0.042096
21
0.080936
31
0.0
0
LINE
8
0
6
CONTINUOUS
10
0.045561
20
0.053215
30
0.0
11
0.044056
21
0.056340
31
0.0
0
LINE
8
0
6
CONTINUOUS
10
0.047228
20
0.096138
30
0.0
11
0.046259
21
0.096138
31
0.0
0
LINE
8
0
6
CONTINUOUS
10
0.045561
20
0.095061
30
0.0
11
0.047228
21
0.096138
31
0.0
0
LINE
8
0
6
CONTINUOUS
10
0.042096
20
0.067340
30
0.0
11
0.041832
21
0.074138
31
0.0
0
LINE
8
0
6
CONTINUOUS
10
0.042862
20
0.087069
30
0.0
11
0.044056
21
0.091936
31
0.0
0
LINE
8
0
6
CONTINUOUS
10
0.042096
20
0.080936
30
0.0
11
0.042862
21
0.087069
31
0.0
0
LINE
8
0
6
CONTINUOUS
10
0.019118
20
0.052138
30
0.0
11
0.046259
21
0.052138
31
0.0
0
LINE
8
0
6
CONTINUOUS
10
0.024636
20
0.061207
30
0.0
11
0.019769
21
0.056340
31
0.0
0
LINE
8
0
6
CONTINUOUS
10
0.027761
20
0.067340
30
0.0
11
0.024636
21
0.061207
31
0.0
0
LINE
8
0
6
CONTINUOUS
10
0.027761
20
0.080936
30
0.0
11
0.028837
21
0.074138
31
0.0
0
LINE
8
0
6
CONTINUOUS
10
0.019769
20
0.091936
30
0.0
11
0.024636
21
0.087069
31
0.0
0
LINE
8
0
6
CONTINUOUS
10
0.012904
20
0.096138
30
0.0
11
0.010355
21
0.096138
31
0.0
0
LINE
8
0
6
CONTINUOUS
10
0.024636
20
0.087069
30
0.0
11
0.027761
21
0.080936
31
0.0
0
LINE
8
0
6
CONTINUOUS
10
0.028837
20
0.074138
30
0.0
11
0.027761
21
0.067340
31
0.0
0
LINE
8
0
6
CONTINUOUS
10
0.002092
20
0.096138
30
0.0
11
0.001011
21
0.096138
31
0.0
0
LINE
8
0
6
CONTINUOUS
10
0.076552
20
0.076309
30
0.0
11
0.075450
21
0.078201
31
0.0
0
LINE
8
0
6
CONTINUOUS
10
0.070989
20
0.079811
30
0.0
11
0.070924
21
0.079811
31
0.0
0
LINE
8
0
6
CONTINUOUS
10
0.073321
20
0.079379
30
0.0
11
0.070989
21
0.079811
31
0.0
0
LINE
8
0
6
CONTINUOUS
10
0.063352
20
0.077011
30
0.0
11
0.066020
21
0.078149
31
0.0
0
LINE
8
0
6
CONTINUOUS
10
0.074061
20
0.096638
30
0.0
11
0.070824
21
0.096638
31
0.0
0
LINE
8
0
6
CONTINUOUS
10
0.070824
20
0.096638
30
0.0
11
0.067587
21
0.096638
31
0.0
0
LINE
8
0
6
CONTINUOUS
10
0.077299
20
0.096638
30
0.0
11
0.074061
21
0.096638
31
0.0
0
LINE
8
0
6
CONTINUOUS
10
0.067587
20
0.096638
30
0.0
11
0.064350
21
0.096638
31
0.0
0
LINE
8
0
6
CONTINUOUS
10
0.064350
20
0.096638
30
0.0
11
0.061378
21
0.096638
31
0.0
0
LINE
8
0
6
CONTINUOUS
10
0.066020
20
0.078149
30
0.0
11
0.064619
21
0.076309
31
0.0
0
LINE
8
0
6
CONTINUOUS
10
0.070442
20
0.080132
30
0.0
11
0.070892
21
0.079728
31
0.0
0
LINE
8
0
6
CONTINUOUS
10
0.073229
20
0.079319
30
0.0
11
0.072965
21
0.079829
31
0.0
0
LINE
8
0
6
CONTINUOUS
10
0.074312
20
0.078763
30
0.0
11
0.073321
21
0.079379
31
0.0
0
LINE
8
0
6
CONTINUOUS
10
0.076554
20
0.076309
30
0.0
11
0.075893
21
0.077250
31
0.0
0
LINE
8
0
6
CONTINUOUS
10
0.058602
20
0.080139
30
0.0
11
0.059796
21
0.079238
31
0.0
0
LINE
8
0
6
CONTINUOUS
10
0.070235
20
0.080351
30
0.0
11
0.070442
21
0.080132
31
0.0
0
LINE
8
0
6
CONTINUOUS
10
0.061475
20
0.078074
30
0.0
11
0.059796
21
0.079238
31
0.0
0
LINE
8
0
6
CONTINUOUS
10
0.070235
20
0.080351
30
0.0
11
0.069608
21
0.081049
31
0.0
0
LINE
8
0
6
CONTINUOUS
10
0.061475
20
0.078074
30
0.0
11
0.063352
21
0.077011
31
0.0
0
LINE
8
0
6
CONTINUOUS
10
0.077011
20
0.074138
30
0.0
11
0.076548
21
0.076309
31
0.0
0
LINE
8
0
6
CONTINUOUS
10
0.074317
20
0.078720
30
0.0
11
0.073262
21
0.079379
31
0.0
0
LINE
8
0
6
CONTINUOUS
10
0.076548
20
0.076309
30
0.0
11
0.075890
21
0.077229
31
0.0
0
LINE
8
0
6
CONTINUOUS
10
0.073262
20
0.079379
30
0.0
11
0.070938
21
0.079811
31
0.0
0
LINE
8
0
6
CONTINUOUS
10
0.070924
20
0.079811
30
0.0
11
0.068599
21
0.079379
31
0.0
0
LINE
8
0
6
CONTINUOUS
10
0.070938
20
0.079811
30
0.0
11
0.068614
21
0.079379
31
0.0
0
LINE
8
0
6
CONTINUOUS
10
0.068599
20
0.079379
30
0.0
11
0.066629
21
0.078149
31
0.0
0
LINE
8
0
6
CONTINUOUS
10
0.068614
20
0.079379
30
0.0
11
0.066643
21
0.078149
31
0.0
0
LINE
8
0
6
CONTINUOUS
10
0.066629
20
0.078149
30
0.0
11
0.065313
21
0.076309
31
0.0
0
LINE
8
0
6
CONTINUOUS
10
0.066643
20
0.078149
30
0.0
11
0.065327
21
0.076309
31
0.0
0
LINE
8
0
6
CONTINUOUS
10
0.065313
20
0.076309
30
0.0
11
0.064850
21
0.074138
31
0.0
0
LINE
8
0
6
CONTINUOUS
10
0.065327
20
0.076309
30
0.0
11
0.064864
21
0.074138
31
0.0
0
LINE
8
0
6
CONTINUOUS
10
0.082003
20
0.095828
30
0.0
11
0.080536
21
0.096638
31
0.0
0
LINE
8
0
6
CONTINUOUS
10
0.080536
20
0.096638
30
0.0
11
0.079547
21
0.096638
31
0.0
0
LINE
8
0
6
CONTINUOUS
10
0.079069
20
0.095828
30
0.0
11
0.080536
21
0.096638
31
0.0
0
LINE
8
0
6
CONTINUOUS
10
0.085511
20
0.085298
30
0.0
11
0.084594
21
0.090068
31
0.0
0
LINE
8
0
6
CONTINUOUS
10
0.086061
20
0.079898
30
0.0
11
0.085511
21
0.085298
31
0.0
0
LINE
8
0
6
CONTINUOUS
10
0.086267
20
0.074138
30
0.0
11
0.086061
21
0.079898
31
0.0
0
LINE
8
0
6
CONTINUOUS
10
0.084594
20
0.090068
30
0.0
11
0.083379
21
0.093668
31
0.0
0
LINE
8
0
6
CONTINUOUS
10
0.077693
20
0.093668
30
0.0
11
0.076478
21
0.090068
31
0.0
0
LINE
8
0
6
CONTINUOUS
10
0.079069
20
0.095828
30
0.0
11
0.077693
21
0.093668
31
0.0
0
LINE
8
0
6
CONTINUOUS
10
0.076478
20
0.090068
30
0.0
11
0.075561
21
0.085298
31
0.0
0
LINE
8
0
6
CONTINUOUS
10
0.083379
20
0.093668
30
0.0
11
0.082003
21
0.095828
31
0.0
0
LINE
8
0
6
CONTINUOUS
10
0.075097
20
0.078781
30
0.0
11
0.075153
21
0.078173
31
0.0
0
LINE
8
0
6
CONTINUOUS
10
0.075000
20
0.081254
30
0.0
11
0.075182
21
0.082264
31
0.0
0
LINE
8
0
6
CONTINUOUS
10
0.075182
20
0.082264
30
0.0
11
0.075561
21
0.085298
31
0.0
0
LINE
8
0
6
CONTINUOUS
10
0.075041
20
0.080026
30
0.0
11
0.075000
21
0.081254
31
0.0
0
LINE
8
0
6
CONTINUOUS
10
0.075080
20
0.079106
30
0.0
11
0.075041
21
0.080026
31
0.0
0
LINE
8
0
6
CONTINUOUS
10
0.074237
20
0.081471
30
0.0
11
0.072114
21
0.081920
31
0.0
0
LINE
8
0
6
CONTINUOUS
10
0.075080
20
0.079106
30
0.0
11
0.075097
21
0.078781
31
0.0
0
LINE
8
0
6
CONTINUOUS
10
0.075232
20
0.078191
30
0.0
11
0.074312
21
0.078763
31
0.0
0
LINE
8
0
6
CONTINUOUS
10
0.075893
20
0.077250
30
0.0
11
0.075232
21
0.078191
31
0.0
0
LINE
8
0
6
CONTINUOUS
10
0.075232
20
0.078191
30
0.0
11
0.075218
21
0.078149
31
0.0
0
LINE
8
0
6
CONTINUOUS
10
0.079547
20
0.096638
30
0.0
11
0.077299
21
0.096638
31
0.0
0
LINE
8
0
6
CONTINUOUS
10
0.075232
20
0.078149
30
0.0
11
0.074317
21
0.078720
31
0.0
0
LINE
8
0
6
CONTINUOUS
10
0.075890
20
0.077229
30
0.0
11
0.075232
21
0.078149
31
0.0
0
LINE
8
0
6
CONTINUOUS
10
0.061378
20
0.096638
30
0.0
11
0.049883
21
0.096638
31
0.0
0
LINE
8
0
6
CONTINUOUS
10
0.075450
20
0.070076
30
0.0
11
0.076552
21
0.071967
31
0.0
0
LINE
8
0
6
CONTINUOUS
10
0.070989
20
0.068466
30
0.0
11
0.073321
21
0.068897
31
0.0
0
LINE
8
0
6
CONTINUOUS
10
0.070924
20
0.068466
30
0.0
11
0.070989
21
0.068466
31
0.0
0
LINE
8
0
6
CONTINUOUS
10
0.064135
20
0.074138
30
0.0
11
0.063188
21
0.074138
31
0.0
0
LINE
8
0
6
CONTINUOUS
10
0.063352
20
0.071266
30
0.0
11
0.066020
21
0.070127
31
0.0
0
LINE
8
0
6
CONTINUOUS
10
0.070824
20
0.051638
30
0.0
11
0.074061
21
0.051638
31
0.0
0
LINE
8
0
6
CONTINUOUS
10
0.067587
20
0.051638
30
0.0
11
0.070824
21
0.051638
31
0.0
0
LINE
8
0
6
CONTINUOUS
10
0.074061
20
0.051638
30
0.0
11
0.077299
21
0.051638
31
0.0
0
LINE
8
0
6
CONTINUOUS
10
0.077663
20
0.074138
30
0.0
11
0.077246
21
0.074138
31
0.0
0
LINE
8
0
6
CONTINUOUS
10
0.064350
20
0.051638
30
0.0
11
0.067587
21
0.051638
31
0.0
0
LINE
8
0
6
CONTINUOUS
10
0.061378
20
0.051638
30
0.0
11
0.064350
21
0.051638
31
0.0
0
LINE
8
0
6
CONTINUOUS
10
0.064619
20
0.071967
30
0.0
11
0.066020
21
0.070127
31
0.0
0
LINE
8
0
6
CONTINUOUS
10
0.064909
20
0.074138
30
0.0
11
0.064135
21
0.074138
31
0.0
0
LINE
8
0
6
CONTINUOUS
10
0.072965
20
0.068447
30
0.0
11
0.073229
21
0.068957
31
0.0
0
LINE
8
0
6
CONTINUOUS
10
0.070892
20
0.068549
30
0.0
11
0.070442
21
0.068144
31
0.0
0
LINE
8
0
6
CONTINUOUS
10
0.077246
20
0.074138
30
0.0
11
0.076994
21
0.074138
31
0.0
0
LINE
8
0
6
CONTINUOUS
10
0.073321
20
0.068897
30
0.0
11
0.074312
21
0.069513
31
0.0
0
LINE
8
0
6
CONTINUOUS
10
0.075893
20
0.071026
30
0.0
11
0.076554
21
0.071967
31
0.0
0
LINE
8
0
6
CONTINUOUS
10
0.059796
20
0.069039
30
0.0
11
0.058602
21
0.068138
31
0.0
0
LINE
8
0
6
CONTINUOUS
10
0.070442
20
0.068144
30
0.0
11
0.070235
21
0.067926
31
0.0
0
LINE
8
0
6
CONTINUOUS
10
0.059796
20
0.069039
30
0.0
11
0.061475
21
0.070202
31
0.0
0
LINE
8
0
6
CONTINUOUS
10
0.078241
20
0.074138
30
0.0
11
0.077663
21
0.074138
31
0.0
0
LINE
8
0
6
CONTINUOUS
10
0.069608
20
0.067227
30
0.0
11
0.070235
21
0.067926
31
0.0
0
LINE
8
0
6
CONTINUOUS
10
0.063352
20
0.071266
30
0.0
11
0.061475
21
0.070202
31
0.0
0
LINE
8
0
6
CONTINUOUS
10
0.076548
20
0.071967
30
0.0
11
0.077011
21
0.074138
31
0.0
0
LINE
8
0
6
CONTINUOUS
10
0.073262
20
0.068897
30
0.0
11
0.074317
21
0.069556
31
0.0
0
LINE
8
0
6
CONTINUOUS
10
0.075890
20
0.071047
30
0.0
11
0.076548
21
0.071967
31
0.0
0
LINE
8
0
6
CONTINUOUS
10
0.070938
20
0.068466
30
0.0
11
0.073262
21
0.068897
31
0.0
0
LINE
8
0
6
CONTINUOUS
10
0.068599
20
0.068897
30
0.0
11
0.070924
21
0.068466
31
0.0
0
LINE
8
0
6
CONTINUOUS
10
0.068614
20
0.068897
30
0.0
11
0.070938
21
0.068466
31
0.0
0
LINE
8
0
6
CONTINUOUS
10
0.066629
20
0.070127
30
0.0
11
0.068599
21
0.068897
31
0.0
0
LINE
8
0
6
CONTINUOUS
10
0.066643
20
0.070127
30
0.0
11
0.068614
21
0.068897
31
0.0
0
LINE
8
0
6
CONTINUOUS
10
0.065313
20
0.071967
30
0.0
11
0.066629
21
0.070127
31
0.0
0
LINE
8
0
6
CONTINUOUS
10
0.065327
20
0.071967
30
0.0
11
0.066643
21
0.070127
31
0.0
0
LINE
8
0
6
CONTINUOUS
10
0.064850
20
0.074138
30
0.0
11
0.065313
21
0.071967
31
0.0
0
LINE
8
0
6
CONTINUOUS
10
0.064864
20
0.074138
30
0.0
11
0.065327
21
0.071967
31
0.0
0
LINE
8
0
6
CONTINUOUS
10
0.080536
20
0.051638
30
0.0
11
0.082003
21
0.052448
31
0.0
0
LINE
8
0
6
CONTINUOUS
10
0.080536
20
0.051638
30
0.0
11
0.079069
21
0.052448
31
0.0
0
LINE
8
0
6
CONTINUOUS
10
0.079547
20
0.051638
30
0.0
11
0.080536
21
0.051638
31
0.0
0
LINE
8
0
6
CONTINUOUS
10
0.084594
20
0.058208
30
0.0
11
0.085511
21
0.062978
31
0.0
0
LINE
8
0
6
CONTINUOUS
10
0.085511
20
0.062978
30
0.0
11
0.086061
21
0.068378
31
0.0
0
LINE
8
0
6
CONTINUOUS
10
0.086061
20
0.068378
30
0.0
11
0.086267
21
0.074138
31
0.0
0
LINE
8
0
6
CONTINUOUS
10
0.083379
20
0.054608
30
0.0
11
0.084594
21
0.058208
31
0.0
0
LINE
8
0
6
CONTINUOUS
10
0.076478
20
0.058208
30
0.0
11
0.077693
21
0.054608
31
0.0
0
LINE
8
0
6
CONTINUOUS
10
0.077693
20
0.054608
30
0.0
11
0.079069
21
0.052448
31
0.0
0
LINE
8
0
6
CONTINUOUS
10
0.075561
20
0.062978
30
0.0
11
0.076478
21
0.058208
31
0.0
0
LINE
8
0
6
CONTINUOUS
10
0.082003
20
0.052448
30
0.0
11
0.083379
21
0.054608
31
0.0
0
LINE
8
0
6
CONTINUOUS
10
0.075153
20
0.070104
30
0.0
11
0.075097
21
0.069495
31
0.0
0
LINE
8
0
6
CONTINUOUS
10
0.075182
20
0.066013
30
0.0
11
0.075000
21
0.067022
31
0.0
0
LINE
8
0
6
CONTINUOUS
10
0.075561
20
0.062978
30
0.0
11
0.075182
21
0.066013
31
0.0
0
LINE
8
0
6
CONTINUOUS
10
0.075000
20
0.067022
30
0.0
11
0.075041
21
0.068251
31
0.0
0
LINE
8
0
6
CONTINUOUS
10
0.075041
20
0.068251
30
0.0
11
0.075080
21
0.069170
31
0.0
0
LINE
8
0
6
CONTINUOUS
10
0.072114
20
0.066356
30
0.0
11
0.074237
21
0.066805
31
0.0
0
LINE
8
0
6
CONTINUOUS
10
0.075097
20
0.069495
30
0.0
11
0.075080
21
0.069170
31
0.0
0
LINE
8
0
6
CONTINUOUS
10
0.074312
20
0.069513
30
0.0
11
0.075232
21
0.070085
31
0.0
0
LINE
8
0
6
CONTINUOUS
10
0.075218
20
0.070127
30
0.0
11
0.075232
21
0.070085
31
0.0
0
LINE
8
0
6
CONTINUOUS
10
0.075232
20
0.070085
30
0.0
11
0.075893
21
0.071026
31
0.0
0
LINE
8
0
6
CONTINUOUS
10
0.077299
20
0.051638
30
0.0
11
0.079547
21
0.051638
31
0.0
0
LINE
8
0
6
CONTINUOUS
10
0.074317
20
0.069556
30
0.0
11
0.075232
21
0.070127
31
0.0
0
LINE
8
0
6
CONTINUOUS
10
0.075232
20
0.070127
30
0.0
11
0.075890
21
0.071047
31
0.0
0
LINE
8
0
6
CONTINUOUS
10
0.049883
20
0.051638
30
0.0
11
0.061378
21
0.051638
31
0.0
0
LINE
8
0
6
CONTINUOUS
10
0.079171
20
0.074138
30
0.0
11
0.078241
21
0.074138
31
0.0
0
LINE
8
0
6
CONTINUOUS
10
-0.017886
20
0.073314
30
0.0
11
-0.017544
21
0.068307
31
0.0
0
LINE
8
0
6
CONTINUOUS
10
0.019514
20
0.068307
30
0.0
11
0.019847
21
0.073314
31
0.0
0
LINE
8
0
6
CONTINUOUS
10
-0.017544
20
0.068307
30
0.0
11
-0.017272
21
0.059971
31
0.0
0
LINE
8
0
6
CONTINUOUS
10
0.019249
20
0.059971
30
0.0
11
0.019514
21
0.068307
31
0.0
0
LINE
8
0
6
CONTINUOUS
10
-0.017272
20
0.059971
30
0.0
11
-0.017087
21
0.049144
31
0.0
0
LINE
8
0
6
CONTINUOUS
10
0.019068
20
0.049143
30
0.0
11
0.019249
21
0.059971
31
0.0
0
LINE
8
0
6
CONTINUOUS
10
-0.017087
20
0.049144
30
0.0
11
-0.016995
21
0.036850
31
0.0
0
LINE
8
0
6
CONTINUOUS
10
0.018978
20
0.036850
30
0.0
11
0.019068
21
0.049143
31
0.0
0
LINE
8
0
6
CONTINUOUS
10
-0.016953
20
0.030817
30
0.0
11
-0.015418
21
-0.188879
31
0.0
0
LINE
8
0
6
CONTINUOUS
10
0.018937
20
0.030817
30
0.0
11
0.018978
21
0.036850
31
0.0
0
LINE
8
0
6
CONTINUOUS
10
-0.016995
20
0.036850
30
0.0
11
-0.016953
21
0.030817
31
0.0
0
LINE
8
0
6
CONTINUOUS
10
-0.008646
20
-0.189282
30
0.0
11
-0.004066
21
-0.189147
31
0.0
0
LINE
8
0
6
CONTINUOUS
10
-0.012280
20
-0.189492
30
0.0
11
-0.008646
21
-0.189282
31
0.0
0
LINE
8
0
6
CONTINUOUS
10
-0.014614
20
-0.189757
30
0.0
11
-0.012280
21
-0.189492
31
0.0
0
LINE
8
0
6
CONTINUOUS
10
-0.015418
20
-0.188879
30
0.0
11
-0.015418
21
-0.190051
31
0.0
0
LINE
8
0
6
CONTINUOUS
10
-0.015418
20
-0.190051
30
0.0
11
-0.014614
21
-0.189757
31
0.0
0
LINE
8
0
6
CONTINUOUS
10
-0.015418
20
-0.190051
30
0.0
11
-0.014614
21
-0.190345
31
0.0
0
LINE
8
0
6
CONTINUOUS
10
-0.014614
20
-0.190345
30
0.0
11
-0.012280
21
-0.190610
31
0.0
0
LINE
8
0
6
CONTINUOUS
10
-0.012280
20
-0.190610
30
0.0
11
-0.008646
21
-0.190821
31
0.0
0
LINE
8
0
6
CONTINUOUS
10
-0.008646
20
-0.190821
30
0.0
11
-0.004066
21
-0.190956
31
0.0
0
LINE
8
0
6
CONTINUOUS
10
-0.004066
20
-0.190956
30
0.0
11
0.001011
21
-0.191002
31
0.0
0
LINE
8
0
6
CONTINUOUS
10
0.001011
20
-0.191002
30
0.0
11
0.006087
21
-0.190956
31
0.0
0
LINE
8
0
6
CONTINUOUS
10
0.006087
20
-0.190956
30
0.0
11
0.010667
21
-0.190821
31
0.0
0
LINE
8
0
6
CONTINUOUS
10
0.010667
20
-0.190821
30
0.0
11
0.014302
21
-0.190610
31
0.0
0
LINE
8
0
6
CONTINUOUS
10
0.014302
20
-0.190610
30
0.0
11
0.016635
21
-0.190345
31
0.0
0
LINE
8
0
6
CONTINUOUS
10
0.016635
20
-0.190345
30
0.0
11
0.017439
21
-0.190051
31
0.0
0
LINE
8
0
6
CONTINUOUS
10
0.017439
20
-0.190051
30
0.0
11
0.017439
21
-0.188879
31
0.0
0
LINE
8
0
6
CONTINUOUS
10
0.016635
20
-0.189757
30
0.0
11
0.017439
21
-0.190051
31
0.0
0
LINE
8
0
6
CONTINUOUS
10
0.014302
20
-0.189492
30
0.0
11
0.016635
21
-0.189757
31
0.0
0
LINE
8
0
6
CONTINUOUS
10
0.010667
20
-0.189282
30
0.0
11
0.014302
21
-0.189492
31
0.0
0
LINE
8
0
6
CONTINUOUS
10
0.006087
20
-0.189147
30
0.0
11
0.010667
21
-0.189282
31
0.0
0
LINE
8
0
6
CONTINUOUS
10
0.001011
20
-0.189100
30
0.0
11
0.006087
21
-0.189147
31
0.0
0
LINE
8
0
6
CONTINUOUS
10
-0.004066
20
-0.189147
30
0.0
11
0.001011
21
-0.189100
31
0.0
0
LINE
8
0
6
CONTINUOUS
10
0.017439
20
-0.188879
30
0.0
11
0.018937
21
0.030817
31
0.0
0
LINE
8
0
6
CONTINUOUS
10
0.001011
20
0.096138
30
0.0
11
-0.005788
21
0.095061
31
0.0
0
LINE
8
0
6
CONTINUOUS
10
-0.011921
20
0.091937
30
0.0
11
-0.014723
21
0.089134
31
0.0
0
LINE
8
0
6
CONTINUOUS
10
-0.005788
20
0.095061
30
0.0
11
-0.011921
21
0.091937
31
0.0
0
LINE
8
0
6
CONTINUOUS
10
0.046546
20
0.093668
30
0.0
11
0.045331
21
0.090068
31
0.0
0
LINE
8
0
6
CONTINUOUS
10
0.047921
20
0.095828
30
0.0
11
0.046546
21
0.093668
31
0.0
0
LINE
8
0
6
CONTINUOUS
10
0.049883
20
0.096638
30
0.0
11
0.049389
21
0.096638
31
0.0
0
LINE
8
0
6
CONTINUOUS
10
0.049389
20
0.096638
30
0.0
11
0.047921
21
0.095828
31
0.0
0
LINE
8
0
6
CONTINUOUS
10
0.045331
20
0.090068
30
0.0
11
0.044414
21
0.085298
31
0.0
0
LINE
8
0
6
CONTINUOUS
10
0.044414
20
0.085298
30
0.0
11
0.043863
21
0.079898
31
0.0
0
LINE
8
0
6
CONTINUOUS
10
0.043863
20
0.079898
30
0.0
11
0.043657
21
0.074138
31
0.0
0
LINE
8
0
6
CONTINUOUS
10
0.045331
20
0.058208
30
0.0
11
0.046546
21
0.054608
31
0.0
0
LINE
8
0
6
CONTINUOUS
10
0.046546
20
0.054608
30
0.0
11
0.047921
21
0.052448
31
0.0
0
LINE
8
0
6
CONTINUOUS
10
0.047921
20
0.052448
30
0.0
11
0.049389
21
0.051638
31
0.0
0
LINE
8
0
6
CONTINUOUS
10
0.049389
20
0.051638
30
0.0
11
0.049883
21
0.051638
31
0.0
0
LINE
8
0
6
CONTINUOUS
10
0.044414
20
0.062978
30
0.0
11
0.045331
21
0.058208
31
0.0
0
LINE
8
0
6
CONTINUOUS
10
0.043863
20
0.068378
30
0.0
11
0.044414
21
0.062978
31
0.0
0
LINE
8
0
6
CONTINUOUS
10
0.043657
20
0.074138
30
0.0
11
0.043863
21
0.068378
31
0.0
0
LINE
8
0
6
CONTINUOUS
10
-0.017805
20
0.064047
30
0.0
11
-0.018933
21
0.066266
31
0.0
0
LINE
8
0
6
CONTINUOUS
10
-0.018933
20
0.066266
30
0.0
11
-0.019553
21
0.067485
31
0.0
0
LINE
8
0
6
CONTINUOUS
10
-0.020531
20
0.074665
30
0.0
11
-0.020195
21
0.076788
31
0.0
0
LINE
8
0
6
CONTINUOUS
10
-0.019553
20
0.067485
30
0.0
11
-0.019628
21
0.067981
31
0.0
0
LINE
8
0
6
CONTINUOUS
10
-0.016144
20
0.087219
30
0.0
11
-0.014498
21
0.088863
31
0.0
0
LINE
8
0
6
CONTINUOUS
10
-0.020182
20
0.071488
30
0.0
11
-0.020600
21
0.074138
31
0.0
0
LINE
8
0
6
CONTINUOUS
10
-0.019628
20
0.067981
30
0.0
11
-0.019754
21
0.068780
31
0.0
0
LINE
8
0
6
CONTINUOUS
10
-0.019754
20
0.068780
30
0.0
11
-0.020182
21
0.071488
31
0.0
0
ENDSEC
0
EOF
