999
Erzeugt mit innoplus bad 
0
SECTION
2
HEADER
9
$ACADVER
1
AC1009
9
$DWGCODEPAGE
3
ISO8859-1
0
ENDSEC
0
SECTION
2
TABLES
0
TABLE
2
LAYER
70
1
0
LAYER
2
0
70
0
62
7
6
CONTINUOUS
0
ENDTAB
0
ENDSEC
0
SECTION
2
ENTITIES
0
LINE
8
0
6
CONTINUOUS
10
0.038700
20
-0.054402
30
0.0
11
0.038700
21
-0.085597
31
0.0
0
LINE
8
0
6
CONTINUOUS
10
0.056230
20
-0.034534
30
0.0
11
0.056230
21
-0.034413
31
0.0
0
LINE
8
0
6
CONTINUOUS
10
0.054051
20
-0.037920
30
0.0
11
0.054051
21
-0.037798
31
0.0
0
LINE
8
0
6
CONTINUOUS
10
0.054488
20
-0.049055
30
0.0
11
0.055196
21
-0.047123
31
0.0
0
LINE
8
0
6
CONTINUOUS
10
0.066701
20
-0.048323
30
0.0
11
0.066701
21
-0.046240
31
0.0
0
LINE
8
0
6
CONTINUOUS
10
0.066701
20
-0.050406
30
0.0
11
0.066701
21
-0.048323
31
0.0
0
LINE
8
0
6
CONTINUOUS
10
0.058944
20
-0.042074
30
0.0
11
0.059326
21
-0.042074
31
0.0
0
LINE
8
0
6
CONTINUOUS
10
0.065534
20
-0.042074
30
0.0
11
0.058944
21
-0.042074
31
0.0
0
LINE
8
0
6
CONTINUOUS
10
0.066701
20
-0.046240
30
0.0
11
0.066701
21
-0.044157
31
0.0
0
LINE
8
0
6
CONTINUOUS
10
0.066701
20
-0.052489
30
0.0
11
0.066701
21
-0.050406
31
0.0
0
LINE
8
0
6
CONTINUOUS
10
0.066701
20
-0.054402
30
0.0
11
0.066701
21
-0.052489
31
0.0
0
LINE
8
0
6
CONTINUOUS
10
0.058819
20
-0.042074
30
0.0
11
0.056230
21
-0.042074
31
0.0
0
LINE
8
0
6
CONTINUOUS
10
0.054051
20
-0.047979
30
0.0
11
0.055196
21
-0.047123
31
0.0
0
LINE
8
0
6
CONTINUOUS
10
0.056230
20
-0.044244
30
0.0
11
0.056230
21
-0.043402
31
0.0
0
LINE
8
0
6
CONTINUOUS
10
0.056230
20
-0.043402
30
0.0
11
0.056230
21
-0.042858
31
0.0
0
LINE
8
0
6
CONTINUOUS
10
0.054051
20
-0.046315
30
0.0
11
0.054051
21
-0.046864
31
0.0
0
LINE
8
0
6
CONTINUOUS
10
0.055873
20
-0.051769
30
0.0
11
0.056434
21
-0.052648
31
0.0
0
LINE
8
0
6
CONTINUOUS
10
0.049171
20
-0.042074
30
0.0
11
0.047077
21
-0.042074
31
0.0
0
LINE
8
0
6
CONTINUOUS
10
0.049171
20
-0.034413
30
0.0
11
0.049171
21
-0.034534
31
0.0
0
LINE
8
0
6
CONTINUOUS
10
0.050913
20
-0.049055
30
0.0
11
0.050204
21
-0.047123
31
0.0
0
LINE
8
0
6
CONTINUOUS
10
0.051350
20
-0.037798
30
0.0
11
0.051350
21
-0.037920
31
0.0
0
LINE
8
0
6
CONTINUOUS
10
0.052700
20
-0.038198
30
0.0
11
0.052700
21
-0.038077
31
0.0
0
LINE
8
0
6
CONTINUOUS
10
0.049527
20
-0.051769
30
0.0
11
0.050251
21
-0.050495
31
0.0
0
LINE
8
0
6
CONTINUOUS
10
0.038700
20
-0.046240
30
0.0
11
0.038700
21
-0.048323
31
0.0
0
LINE
8
0
6
CONTINUOUS
10
0.038700
20
-0.048323
30
0.0
11
0.038700
21
-0.050406
31
0.0
0
LINE
8
0
6
CONTINUOUS
10
0.038700
20
-0.044157
30
0.0
11
0.038700
21
-0.046240
31
0.0
0
LINE
8
0
6
CONTINUOUS
10
0.052700
20
-0.049088
30
0.0
11
0.052700
21
-0.048249
31
0.0
0
LINE
8
0
6
CONTINUOUS
10
0.038700
20
-0.050406
30
0.0
11
0.038700
21
-0.052489
31
0.0
0
LINE
8
0
6
CONTINUOUS
10
0.038700
20
-0.052489
30
0.0
11
0.038700
21
-0.054402
31
0.0
0
LINE
8
0
6
CONTINUOUS
10
0.038700
20
-0.042710
30
0.0
11
0.038700
21
-0.044157
31
0.0
0
LINE
8
0
6
CONTINUOUS
10
0.050204
20
-0.047123
30
0.0
11
0.051350
21
-0.047979
31
0.0
0
LINE
8
0
6
CONTINUOUS
10
0.052700
20
-0.048249
30
0.0
11
0.052700
21
-0.047126
31
0.0
0
LINE
8
0
6
CONTINUOUS
10
0.049171
20
-0.043402
30
0.0
11
0.049171
21
-0.044244
31
0.0
0
LINE
8
0
6
CONTINUOUS
10
0.049171
20
-0.042858
30
0.0
11
0.049171
21
-0.043402
31
0.0
0
LINE
8
0
6
CONTINUOUS
10
0.052700
20
-0.047126
30
0.0
11
0.052700
21
-0.046578
31
0.0
0
LINE
8
0
6
CONTINUOUS
10
0.051350
20
-0.046864
30
0.0
11
0.051350
21
-0.046315
31
0.0
0
LINE
8
0
6
CONTINUOUS
10
0.048966
20
-0.052648
30
0.0
11
0.049527
21
-0.051769
31
0.0
0
LINE
8
0
6
CONTINUOUS
10
0.064216
20
-0.042074
30
0.0
11
0.058819
21
-0.042074
31
0.0
0
LINE
8
0
6
CONTINUOUS
10
0.047077
20
-0.042074
30
0.0
11
0.041210
21
-0.042074
31
0.0
0
LINE
8
0
6
CONTINUOUS
10
0.055873
20
-0.051769
30
0.0
11
0.055149
21
-0.050495
31
0.0
0
LINE
8
0
6
CONTINUOUS
10
0.054488
20
-0.049055
30
0.0
11
0.055149
21
-0.050495
31
0.0
0
LINE
8
0
6
CONTINUOUS
10
0.049995
20
-0.047546
30
0.0
11
0.049318
21
-0.046086
31
0.0
0
LINE
8
0
6
CONTINUOUS
10
0.050913
20
-0.049055
30
0.0
11
0.049995
21
-0.047546
31
0.0
0
LINE
8
0
6
CONTINUOUS
10
0.050251
20
-0.050495
30
0.0
11
0.050913
21
-0.049055
31
0.0
0
LINE
8
0
6
CONTINUOUS
10
0.048468
20
-0.043530
30
0.0
11
0.049135
21
-0.042965
31
0.0
0
LINE
8
0
6
CONTINUOUS
10
0.066701
20
-0.042074
30
0.0
11
0.066197
21
-0.042074
31
0.0
0
LINE
8
0
6
CONTINUOUS
10
0.066701
20
-0.042710
30
0.0
11
0.066701
21
-0.042074
31
0.0
0
LINE
8
0
6
CONTINUOUS
10
0.064853
20
-0.042074
30
0.0
11
0.062613
21
-0.042074
31
0.0
0
LINE
8
0
6
CONTINUOUS
10
0.066197
20
-0.042074
30
0.0
11
0.064853
21
-0.042074
31
0.0
0
LINE
8
0
6
CONTINUOUS
10
0.062613
20
-0.042074
30
0.0
11
0.059645
21
-0.042074
31
0.0
0
LINE
8
0
6
CONTINUOUS
10
0.057756
20
-0.042074
30
0.0
11
0.057128
21
-0.042074
31
0.0
0
LINE
8
0
6
CONTINUOUS
10
0.059645
20
-0.042074
30
0.0
11
0.057756
21
-0.042074
31
0.0
0
LINE
8
0
6
CONTINUOUS
10
0.038700
20
-0.042074
30
0.0
11
0.038700
21
-0.042710
31
0.0
0
LINE
8
0
6
CONTINUOUS
10
0.039204
20
-0.042074
30
0.0
11
0.038700
21
-0.042074
31
0.0
0
LINE
8
0
6
CONTINUOUS
10
0.042788
20
-0.042074
30
0.0
11
0.040548
21
-0.042074
31
0.0
0
LINE
8
0
6
CONTINUOUS
10
0.040548
20
-0.042074
30
0.0
11
0.039204
21
-0.042074
31
0.0
0
LINE
8
0
6
CONTINUOUS
10
0.045756
20
-0.042074
30
0.0
11
0.042788
21
-0.042074
31
0.0
0
LINE
8
0
6
CONTINUOUS
10
0.048272
20
-0.042074
30
0.0
11
0.047644
21
-0.042074
31
0.0
0
LINE
8
0
6
CONTINUOUS
10
0.047644
20
-0.042074
30
0.0
11
0.045756
21
-0.042074
31
0.0
0
LINE
8
0
6
CONTINUOUS
10
0.057128
20
-0.042074
30
0.0
11
0.056382
21
-0.041930
31
0.0
0
LINE
8
0
6
CONTINUOUS
10
0.049019
20
-0.041930
30
0.0
11
0.048272
21
-0.042074
31
0.0
0
LINE
8
0
6
CONTINUOUS
10
0.066701
20
-0.044157
30
0.0
11
0.066701
21
-0.042710
31
0.0
0
LINE
8
0
6
CONTINUOUS
10
0.066701
20
-0.085597
30
0.0
11
0.066701
21
-0.054402
31
0.0
0
LINE
8
0
6
CONTINUOUS
10
0.038700
20
-0.086097
30
0.0
11
0.038700
21
-0.087750
31
0.0
0
LINE
8
0
6
CONTINUOUS
10
0.049171
20
-0.042074
30
0.0
11
0.046075
21
-0.042074
31
0.0
0
LINE
8
0
6
CONTINUOUS
10
0.054051
20
-0.031029
30
0.0
11
0.052700
21
-0.030750
31
0.0
0
LINE
8
0
6
CONTINUOUS
10
0.056230
20
-0.034413
30
0.0
11
0.055961
21
-0.033011
31
0.0
0
LINE
8
0
6
CONTINUOUS
10
0.055961
20
-0.035815
30
0.0
11
0.056230
21
-0.034413
31
0.0
0
LINE
8
0
6
CONTINUOUS
10
0.055196
20
-0.037004
30
0.0
11
0.055961
21
-0.035815
31
0.0
0
LINE
8
0
6
CONTINUOUS
10
0.054051
20
-0.037798
30
0.0
11
0.055196
21
-0.037004
31
0.0
0
LINE
8
0
6
CONTINUOUS
10
0.052700
20
-0.038077
30
0.0
11
0.054051
21
-0.037798
31
0.0
0
LINE
8
0
6
CONTINUOUS
10
0.052700
20
-0.030750
30
0.0
11
0.051350
21
-0.031029
31
0.0
0
LINE
8
0
6
CONTINUOUS
10
0.049439
20
-0.033011
30
0.0
11
0.049171
21
-0.034413
31
0.0
0
LINE
8
0
6
CONTINUOUS
10
0.049171
20
-0.034413
30
0.0
11
0.049439
21
-0.035815
31
0.0
0
LINE
8
0
6
CONTINUOUS
10
0.049439
20
-0.035815
30
0.0
11
0.050204
21
-0.037004
31
0.0
0
LINE
8
0
6
CONTINUOUS
10
0.050204
20
-0.037004
30
0.0
11
0.051350
21
-0.037798
31
0.0
0
LINE
8
0
6
CONTINUOUS
10
0.051350
20
-0.037798
30
0.0
11
0.052700
21
-0.038077
31
0.0
0
LINE
8
0
6
CONTINUOUS
10
0.055624
20
-0.032487
30
0.0
11
0.055196
21
-0.031823
31
0.0
0
LINE
8
0
6
CONTINUOUS
10
0.055196
20
-0.031823
30
0.0
11
0.054700
21
-0.031479
31
0.0
0
LINE
8
0
6
CONTINUOUS
10
0.050204
20
-0.031823
30
0.0
11
0.049776
21
-0.032487
31
0.0
0
LINE
8
0
6
CONTINUOUS
10
0.050700
20
-0.031479
30
0.0
11
0.050204
21
-0.031823
31
0.0
0
LINE
8
0
6
CONTINUOUS
10
0.055961
20
-0.033011
30
0.0
11
0.055624
21
-0.032487
31
0.0
0
LINE
8
0
6
CONTINUOUS
10
0.054700
20
-0.031479
30
0.0
11
0.054051
21
-0.031029
31
0.0
0
LINE
8
0
6
CONTINUOUS
10
0.051350
20
-0.031029
30
0.0
11
0.050700
21
-0.031479
31
0.0
0
LINE
8
0
6
CONTINUOUS
10
0.049776
20
-0.032487
30
0.0
11
0.049439
21
-0.033011
31
0.0
0
LINE
8
0
6
CONTINUOUS
10
0.051350
20
-0.046315
30
0.0
11
0.051350
21
-0.037920
31
0.0
0
LINE
8
0
6
CONTINUOUS
10
0.049171
20
-0.034534
30
0.0
11
0.049171
21
-0.042858
31
0.0
0
LINE
8
0
6
CONTINUOUS
10
0.052700
20
-0.038198
30
0.0
11
0.052700
21
-0.046578
31
0.0
0
LINE
8
0
6
CONTINUOUS
10
0.054051
20
-0.037920
30
0.0
11
0.054051
21
-0.046315
31
0.0
0
LINE
8
0
6
CONTINUOUS
10
0.056230
20
-0.042858
30
0.0
11
0.056230
21
-0.034534
31
0.0
0
LINE
8
0
6
CONTINUOUS
10
0.066701
20
-0.087750
30
0.0
11
0.066701
21
-0.086097
31
0.0
0
LINE
8
0
6
CONTINUOUS
10
0.064853
20
-0.085722
30
0.0
11
0.062613
21
-0.085722
31
0.0
0
LINE
8
0
6
CONTINUOUS
10
0.064417
20
-0.085847
30
0.0
11
0.062259
21
-0.085847
31
0.0
0
LINE
8
0
6
CONTINUOUS
10
0.064853
20
-0.085972
30
0.0
11
0.062613
21
-0.085972
31
0.0
0
LINE
8
0
6
CONTINUOUS
10
0.066197
20
-0.085722
30
0.0
11
0.064853
21
-0.085722
31
0.0
0
LINE
8
0
6
CONTINUOUS
10
0.065714
20
-0.085847
30
0.0
11
0.064417
21
-0.085847
31
0.0
0
LINE
8
0
6
CONTINUOUS
10
0.066197
20
-0.085972
30
0.0
11
0.064853
21
-0.085972
31
0.0
0
LINE
8
0
6
CONTINUOUS
10
0.066701
20
-0.085722
30
0.0
11
0.066701
21
-0.085597
31
0.0
0
LINE
8
0
6
CONTINUOUS
10
0.066701
20
-0.085722
30
0.0
11
0.066197
21
-0.085722
31
0.0
0
LINE
8
0
6
CONTINUOUS
10
0.066201
20
-0.085847
30
0.0
11
0.066700
21
-0.085722
31
0.0
0
LINE
8
0
6
CONTINUOUS
10
0.066201
20
-0.085847
30
0.0
11
0.065714
21
-0.085847
31
0.0
0
LINE
8
0
6
CONTINUOUS
10
0.066701
20
-0.085972
30
0.0
11
0.066201
21
-0.085847
31
0.0
0
LINE
8
0
6
CONTINUOUS
10
0.066701
20
-0.085972
30
0.0
11
0.066197
21
-0.085972
31
0.0
0
LINE
8
0
6
CONTINUOUS
10
0.066701
20
-0.086097
30
0.0
11
0.066701
21
-0.085972
31
0.0
0
LINE
8
0
6
CONTINUOUS
10
0.062613
20
-0.085722
30
0.0
11
0.059645
21
-0.085722
31
0.0
0
LINE
8
0
6
CONTINUOUS
10
0.062259
20
-0.085847
30
0.0
11
0.059399
21
-0.085847
31
0.0
0
LINE
8
0
6
CONTINUOUS
10
0.062613
20
-0.085972
30
0.0
11
0.059645
21
-0.085972
31
0.0
0
LINE
8
0
6
CONTINUOUS
10
0.059645
20
-0.085722
30
0.0
11
0.056284
21
-0.085722
31
0.0
0
LINE
8
0
6
CONTINUOUS
10
0.059399
20
-0.085847
30
0.0
11
0.056156
21
-0.085847
31
0.0
0
LINE
8
0
6
CONTINUOUS
10
0.059645
20
-0.085972
30
0.0
11
0.056284
21
-0.085972
31
0.0
0
LINE
8
0
6
CONTINUOUS
10
0.056284
20
-0.085722
30
0.0
11
0.052700
21
-0.085722
31
0.0
0
LINE
8
0
6
CONTINUOUS
10
0.056156
20
-0.085847
30
0.0
11
0.052700
21
-0.085847
31
0.0
0
LINE
8
0
6
CONTINUOUS
10
0.056284
20
-0.085972
30
0.0
11
0.052700
21
-0.085972
31
0.0
0
LINE
8
0
6
CONTINUOUS
10
0.042788
20
-0.085722
30
0.0
11
0.040548
21
-0.085722
31
0.0
0
LINE
8
0
6
CONTINUOUS
10
0.043141
20
-0.085847
30
0.0
11
0.040983
21
-0.085847
31
0.0
0
LINE
8
0
6
CONTINUOUS
10
0.042788
20
-0.085972
30
0.0
11
0.040548
21
-0.085972
31
0.0
0
LINE
8
0
6
CONTINUOUS
10
0.040548
20
-0.085722
30
0.0
11
0.039204
21
-0.085722
31
0.0
0
LINE
8
0
6
CONTINUOUS
10
0.040983
20
-0.085847
30
0.0
11
0.039687
21
-0.085847
31
0.0
0
LINE
8
0
6
CONTINUOUS
10
0.040548
20
-0.085972
30
0.0
11
0.039204
21
-0.085972
31
0.0
0
LINE
8
0
6
CONTINUOUS
10
0.038700
20
-0.085597
30
0.0
11
0.038700
21
-0.085722
31
0.0
0
LINE
8
0
6
CONTINUOUS
10
0.039204
20
-0.085722
30
0.0
11
0.038700
21
-0.085722
31
0.0
0
LINE
8
0
6
CONTINUOUS
10
0.038700
20
-0.085722
30
0.0
11
0.039200
21
-0.085847
31
0.0
0
LINE
8
0
6
CONTINUOUS
10
0.039687
20
-0.085847
30
0.0
11
0.039200
21
-0.085847
31
0.0
0
LINE
8
0
6
CONTINUOUS
10
0.039200
20
-0.085847
30
0.0
11
0.038700
21
-0.085972
31
0.0
0
LINE
8
0
6
CONTINUOUS
10
0.039204
20
-0.085972
30
0.0
11
0.038700
21
-0.085972
31
0.0
0
LINE
8
0
6
CONTINUOUS
10
0.038700
20
-0.085972
30
0.0
11
0.038700
21
-0.086097
31
0.0
0
LINE
8
0
6
CONTINUOUS
10
0.045756
20
-0.085722
30
0.0
11
0.042788
21
-0.085722
31
0.0
0
LINE
8
0
6
CONTINUOUS
10
0.046002
20
-0.085847
30
0.0
11
0.043141
21
-0.085847
31
0.0
0
LINE
8
0
6
CONTINUOUS
10
0.045756
20
-0.085972
30
0.0
11
0.042788
21
-0.085972
31
0.0
0
LINE
8
0
6
CONTINUOUS
10
0.049116
20
-0.085722
30
0.0
11
0.045756
21
-0.085722
31
0.0
0
LINE
8
0
6
CONTINUOUS
10
0.049245
20
-0.085847
30
0.0
11
0.046002
21
-0.085847
31
0.0
0
LINE
8
0
6
CONTINUOUS
10
0.049116
20
-0.085972
30
0.0
11
0.045756
21
-0.085972
31
0.0
0
LINE
8
0
6
CONTINUOUS
10
0.052700
20
-0.085722
30
0.0
11
0.049116
21
-0.085722
31
0.0
0
LINE
8
0
6
CONTINUOUS
10
0.052700
20
-0.085847
30
0.0
11
0.049245
21
-0.085847
31
0.0
0
LINE
8
0
6
CONTINUOUS
10
0.052700
20
-0.085972
30
0.0
11
0.049116
21
-0.085972
31
0.0
0
LINE
8
0
6
CONTINUOUS
10
0.066700
20
-0.085972
30
0.0
11
0.066700
21
-0.085722
31
0.0
0
LINE
8
0
6
CONTINUOUS
10
0.066700
20
-0.042074
30
0.0
11
0.066700
21
0.038720
31
0.0
0
LINE
8
0
6
CONTINUOUS
10
0.038700
20
0.038720
30
0.0
11
0.038700
21
-0.042074
31
0.0
0
LINE
8
0
6
CONTINUOUS
10
0.038700
20
-0.085722
30
0.0
11
0.038700
21
-0.085972
31
0.0
0
LINE
8
0
6
CONTINUOUS
10
0.038564
20
0.044727
30
0.0
11
0.038771
21
0.041746
31
0.0
0
LINE
8
0
6
CONTINUOUS
10
0.066412
20
0.045954
30
0.0
11
0.065307
21
0.053023
31
0.0
0
LINE
8
0
6
CONTINUOUS
10
0.036654
20
0.050424
30
0.0
11
0.037835
21
0.047658
31
0.0
0
LINE
8
0
6
CONTINUOUS
10
0.063037
20
0.059881
30
0.0
11
0.059738
21
0.066271
31
0.0
0
LINE
8
0
6
CONTINUOUS
10
0.033141
20
0.055300
30
0.0
11
0.035052
21
0.052973
31
0.0
0
LINE
8
0
6
CONTINUOUS
10
0.055469
20
0.072067
30
0.0
11
0.050494
21
0.077274
31
0.0
0
LINE
8
0
6
CONTINUOUS
10
0.028342
20
0.058915
30
0.0
11
0.030898
21
0.057315
31
0.0
0
LINE
8
0
6
CONTINUOUS
10
0.044786
20
0.081682
30
0.0
11
0.038406
21
0.085044
31
0.0
0
LINE
8
0
6
CONTINUOUS
10
0.022687
20
0.060947
30
0.0
11
0.025581
21
0.060140
31
0.0
0
LINE
8
0
6
CONTINUOUS
10
0.031603
20
0.087410
30
0.0
11
0.024558
21
0.088884
31
0.0
0
LINE
8
0
6
CONTINUOUS
10
0.015636
20
0.061326
30
0.0
11
0.022687
21
0.060947
31
0.0
0
LINE
8
0
6
CONTINUOUS
10
0.024558
20
0.088884
30
0.0
11
0.016211
21
0.089264
31
0.0
0
LINE
8
0
6
CONTINUOUS
10
-0.090300
20
0.066277
30
0.0
11
-0.086919
21
0.066119
31
0.0
0
LINE
8
0
6
CONTINUOUS
10
-0.059952
20
0.064859
30
0.0
11
0.015636
21
0.061326
31
0.0
0
LINE
8
0
6
CONTINUOUS
10
0.016211
20
0.089264
30
0.0
11
-0.088679
21
0.094215
31
0.0
0
LINE
8
0
6
CONTINUOUS
10
-0.089881
20
0.090764
30
0.0
11
-0.089774
21
0.092605
31
0.0
0
LINE
8
0
6
CONTINUOUS
10
-0.091300
20
0.066313
30
0.0
11
-0.090300
21
0.066277
31
0.0
0
LINE
8
0
6
CONTINUOUS
10
-0.091260
20
0.066996
30
0.0
11
-0.091300
21
0.066313
31
0.0
0
LINE
8
0
6
CONTINUOUS
10
-0.091145
20
0.068980
30
0.0
11
-0.091260
21
0.066996
31
0.0
0
LINE
8
0
6
CONTINUOUS
10
-0.090966
20
0.072071
30
0.0
11
-0.091145
21
0.068980
31
0.0
0
LINE
8
0
6
CONTINUOUS
10
-0.090740
20
0.075965
30
0.0
11
-0.090966
21
0.072071
31
0.0
0
LINE
8
0
6
CONTINUOUS
10
-0.090489
20
0.080281
30
0.0
11
-0.090740
21
0.075965
31
0.0
0
LINE
8
0
6
CONTINUOUS
10
-0.090239
20
0.084598
30
0.0
11
-0.090489
21
0.080281
31
0.0
0
LINE
8
0
6
CONTINUOUS
10
-0.090013
20
0.088492
30
0.0
11
-0.090239
21
0.084598
31
0.0
0
LINE
8
0
6
CONTINUOUS
10
-0.089833
20
0.091582
30
0.0
11
-0.090013
21
0.088492
31
0.0
0
LINE
8
0
6
CONTINUOUS
10
-0.089718
20
0.093566
30
0.0
11
-0.089833
21
0.091582
31
0.0
0
LINE
8
0
6
CONTINUOUS
10
-0.088679
20
0.094215
30
0.0
11
-0.089679
21
0.094250
31
0.0
0
LINE
8
0
6
CONTINUOUS
10
-0.089679
20
0.094250
30
0.0
11
-0.089718
21
0.093566
31
0.0
0
LINE
8
0
6
CONTINUOUS
10
-0.061613
20
0.056075
30
0.0
11
-0.061455
21
0.057017
31
0.0
0
LINE
8
0
6
CONTINUOUS
10
-0.062255
20
0.056198
30
0.0
11
-0.061613
21
0.056075
31
0.0
0
LINE
8
0
6
CONTINUOUS
10
-0.064119
20
0.056556
30
0.0
11
-0.062255
21
0.056198
31
0.0
0
LINE
8
0
6
CONTINUOUS
10
-0.067022
20
0.057112
30
0.0
11
-0.064119
21
0.056556
31
0.0
0
LINE
8
0
6
CONTINUOUS
10
-0.070680
20
0.057813
30
0.0
11
-0.067022
21
0.057112
31
0.0
0
LINE
8
0
6
CONTINUOUS
10
-0.074735
20
0.058590
30
0.0
11
-0.070680
21
0.057813
31
0.0
0
LINE
8
0
6
CONTINUOUS
10
-0.078790
20
0.059367
30
0.0
11
-0.074735
21
0.058590
31
0.0
0
LINE
8
0
6
CONTINUOUS
10
-0.082449
20
0.060067
30
0.0
11
-0.078790
21
0.059367
31
0.0
0
LINE
8
0
6
CONTINUOUS
10
-0.085352
20
0.060624
30
0.0
11
-0.082449
21
0.060067
31
0.0
0
LINE
8
0
6
CONTINUOUS
10
-0.087216
20
0.060981
30
0.0
11
-0.085352
21
0.060624
31
0.0
0
LINE
8
0
6
CONTINUOUS
10
-0.087699
20
0.062046
30
0.0
11
-0.087858
21
0.061104
31
0.0
0
LINE
8
0
6
CONTINUOUS
10
-0.087858
20
0.061104
30
0.0
11
-0.087216
21
0.060981
31
0.0
0
LINE
8
0
6
CONTINUOUS
10
-0.061455
20
0.057017
30
0.0
11
-0.059952
21
0.064859
31
0.0
0
LINE
8
0
6
CONTINUOUS
10
-0.086919
20
0.066120
30
0.0
11
-0.087699
21
0.062046
31
0.0
0
LINE
8
0
6
CONTINUOUS
10
-0.089881
20
0.090764
30
0.0
11
-0.089774
21
0.092605
31
0.0
0
LINE
8
0
6
CONTINUOUS
10
0.066700
20
0.038720
30
0.0
11
0.066412
21
0.045954
31
0.0
0
LINE
8
0
6
CONTINUOUS
10
0.038771
20
0.041746
30
0.0
11
0.038700
21
0.038720
31
0.0
0
LINE
8
0
6
CONTINUOUS
10
0.050494
20
0.077274
30
0.0
11
0.044786
21
0.081682
31
0.0
0
LINE
8
0
6
CONTINUOUS
10
0.030898
20
0.057315
30
0.0
11
0.033141
21
0.055300
31
0.0
0
LINE
8
0
6
CONTINUOUS
10
0.065307
20
0.053023
30
0.0
11
0.063037
21
0.059881
31
0.0
0
LINE
8
0
6
CONTINUOUS
10
0.037835
20
0.047658
30
0.0
11
0.038564
21
0.044727
31
0.0
0
LINE
8
0
6
CONTINUOUS
10
0.038406
20
0.085044
30
0.0
11
0.031603
21
0.087410
31
0.0
0
LINE
8
0
6
CONTINUOUS
10
0.025581
20
0.060140
30
0.0
11
0.028342
21
0.058915
31
0.0
0
LINE
8
0
6
CONTINUOUS
10
0.059738
20
0.066271
30
0.0
11
0.055469
21
0.072067
31
0.0
0
LINE
8
0
6
CONTINUOUS
10
0.035052
20
0.052973
30
0.0
11
0.036654
21
0.050424
31
0.0
0
LINE
8
0
6
CONTINUOUS
10
0.078700
20
-0.093750
30
0.0
11
0.078700
21
-0.093276
31
0.0
0
LINE
8
0
6
CONTINUOUS
10
0.077814
20
-0.093750
30
0.0
11
0.078700
21
-0.093750
31
0.0
0
LINE
8
0
6
CONTINUOUS
10
0.075217
20
-0.093750
30
0.0
11
0.077814
21
-0.093750
31
0.0
0
LINE
8
0
6
CONTINUOUS
10
0.071085
20
-0.093750
30
0.0
11
0.075217
21
-0.093750
31
0.0
0
LINE
8
0
6
CONTINUOUS
10
0.065700
20
-0.093750
30
0.0
11
0.071085
21
-0.093750
31
0.0
0
LINE
8
0
6
CONTINUOUS
10
0.052700
20
-0.093750
30
0.0
11
0.059430
21
-0.093750
31
0.0
0
LINE
8
0
6
CONTINUOUS
10
0.039700
20
-0.093750
30
0.0
11
0.045971
21
-0.093750
31
0.0
0
LINE
8
0
6
CONTINUOUS
10
0.034316
20
-0.093750
30
0.0
11
0.039700
21
-0.093750
31
0.0
0
LINE
8
0
6
CONTINUOUS
10
0.030184
20
-0.093750
30
0.0
11
0.034316
21
-0.093750
31
0.0
0
LINE
8
0
6
CONTINUOUS
10
0.027586
20
-0.093750
30
0.0
11
0.030184
21
-0.093750
31
0.0
0
LINE
8
0
6
CONTINUOUS
10
0.026700
20
-0.093750
30
0.0
11
0.027586
21
-0.093750
31
0.0
0
LINE
8
0
6
CONTINUOUS
10
0.026700
20
-0.093276
30
0.0
11
0.026700
21
-0.093750
31
0.0
0
LINE
8
0
6
CONTINUOUS
10
0.026700
20
-0.088224
30
0.0
11
0.026700
21
-0.093276
31
0.0
0
LINE
8
0
6
CONTINUOUS
10
0.078700
20
-0.093276
30
0.0
11
0.078700
21
-0.088224
31
0.0
0
LINE
8
0
6
CONTINUOUS
10
0.078700
20
-0.087750
30
0.0
11
0.077814
21
-0.087750
31
0.0
0
LINE
8
0
6
CONTINUOUS
10
0.078700
20
-0.088224
30
0.0
11
0.078700
21
-0.087750
31
0.0
0
LINE
8
0
6
CONTINUOUS
10
0.077814
20
-0.087750
30
0.0
11
0.075217
21
-0.087750
31
0.0
0
LINE
8
0
6
CONTINUOUS
10
0.075217
20
-0.087750
30
0.0
11
0.071085
21
-0.087750
31
0.0
0
LINE
8
0
6
CONTINUOUS
10
0.071085
20
-0.087750
30
0.0
11
0.065700
21
-0.087750
31
0.0
0
LINE
8
0
6
CONTINUOUS
10
0.065700
20
-0.087750
30
0.0
11
0.059430
21
-0.087750
31
0.0
0
LINE
8
0
6
CONTINUOUS
10
0.059430
20
-0.087750
30
0.0
11
0.052700
21
-0.087750
31
0.0
0
LINE
8
0
6
CONTINUOUS
10
0.052700
20
-0.087750
30
0.0
11
0.045971
21
-0.087750
31
0.0
0
LINE
8
0
6
CONTINUOUS
10
0.045971
20
-0.087750
30
0.0
11
0.039700
21
-0.087750
31
0.0
0
LINE
8
0
6
CONTINUOUS
10
0.039700
20
-0.087750
30
0.0
11
0.034316
21
-0.087750
31
0.0
0
LINE
8
0
6
CONTINUOUS
10
0.034316
20
-0.087750
30
0.0
11
0.030184
21
-0.087750
31
0.0
0
LINE
8
0
6
CONTINUOUS
10
0.030184
20
-0.087750
30
0.0
11
0.027586
21
-0.087750
31
0.0
0
LINE
8
0
6
CONTINUOUS
10
0.026700
20
-0.087750
30
0.0
11
0.026700
21
-0.088224
31
0.0
0
LINE
8
0
6
CONTINUOUS
10
0.027586
20
-0.087750
30
0.0
11
0.026700
21
-0.087750
31
0.0
0
LINE
8
0
6
CONTINUOUS
10
0.059430
20
-0.093750
30
0.0
11
0.065700
21
-0.093750
31
0.0
0
LINE
8
0
6
CONTINUOUS
10
0.045971
20
-0.093750
30
0.0
11
0.052700
21
-0.093750
31
0.0
0
LINE
8
0
6
CONTINUOUS
10
0.078700
20
-0.087750
30
0.0
11
0.077814
21
-0.087750
31
0.0
0
LINE
8
0
6
CONTINUOUS
10
0.077814
20
-0.087750
30
0.0
11
0.075217
21
-0.087750
31
0.0
0
LINE
8
0
6
CONTINUOUS
10
0.075217
20
-0.087750
30
0.0
11
0.071085
21
-0.087750
31
0.0
0
LINE
8
0
6
CONTINUOUS
10
0.071085
20
-0.087750
30
0.0
11
0.066701
21
-0.087750
31
0.0
0
LINE
8
0
6
CONTINUOUS
10
0.038700
20
-0.087750
30
0.0
11
0.034316
21
-0.087750
31
0.0
0
LINE
8
0
6
CONTINUOUS
10
0.034316
20
-0.087750
30
0.0
11
0.030184
21
-0.087750
31
0.0
0
LINE
8
0
6
CONTINUOUS
10
0.030184
20
-0.087750
30
0.0
11
0.027586
21
-0.087750
31
0.0
0
LINE
8
0
6
CONTINUOUS
10
0.027586
20
-0.087750
30
0.0
11
0.026700
21
-0.087750
31
0.0
0
LINE
8
0
6
CONTINUOUS
10
0.078700
20
-0.094250
30
0.0
11
0.078700
21
-0.093776
31
0.0
0
LINE
8
0
6
CONTINUOUS
10
0.077814
20
-0.094250
30
0.0
11
0.078700
21
-0.094250
31
0.0
0
LINE
8
0
6
CONTINUOUS
10
0.075217
20
-0.094250
30
0.0
11
0.077814
21
-0.094250
31
0.0
0
LINE
8
0
6
CONTINUOUS
10
0.071085
20
-0.094250
30
0.0
11
0.075217
21
-0.094250
31
0.0
0
LINE
8
0
6
CONTINUOUS
10
0.065700
20
-0.094250
30
0.0
11
0.071085
21
-0.094250
31
0.0
0
LINE
8
0
6
CONTINUOUS
10
0.052700
20
-0.094250
30
0.0
11
0.059430
21
-0.094250
31
0.0
0
LINE
8
0
6
CONTINUOUS
10
0.039700
20
-0.094250
30
0.0
11
0.045971
21
-0.094250
31
0.0
0
LINE
8
0
6
CONTINUOUS
10
0.034316
20
-0.094250
30
0.0
11
0.039700
21
-0.094250
31
0.0
0
LINE
8
0
6
CONTINUOUS
10
0.030184
20
-0.094250
30
0.0
11
0.034316
21
-0.094250
31
0.0
0
LINE
8
0
6
CONTINUOUS
10
0.027586
20
-0.094250
30
0.0
11
0.030184
21
-0.094250
31
0.0
0
LINE
8
0
6
CONTINUOUS
10
0.026700
20
-0.094250
30
0.0
11
0.027586
21
-0.094250
31
0.0
0
LINE
8
0
6
CONTINUOUS
10
0.026700
20
-0.093776
30
0.0
11
0.026700
21
-0.094250
31
0.0
0
LINE
8
0
6
CONTINUOUS
10
0.059430
20
-0.094250
30
0.0
11
0.065700
21
-0.094250
31
0.0
0
LINE
8
0
6
CONTINUOUS
10
0.045971
20
-0.094250
30
0.0
11
0.052700
21
-0.094250
31
0.0
0
LINE
8
0
6
CONTINUOUS
10
0.077349
20
-0.046778
30
0.0
11
0.077765
21
-0.046167
31
0.0
0
LINE
8
0
6
CONTINUOUS
10
0.076822
20
-0.043119
30
0.0
11
0.075567
21
-0.044146
31
0.0
0
LINE
8
0
6
CONTINUOUS
10
0.088198
20
-0.042973
30
0.0
11
0.081627
21
-0.043936
31
0.0
0
LINE
8
0
6
CONTINUOUS
10
0.081501
20
-0.044133
30
0.0
11
0.088240
21
-0.043230
31
0.0
0
LINE
8
0
6
CONTINUOUS
10
0.091300
20
-0.042520
30
0.0
11
0.090265
21
-0.042733
31
0.0
0
LINE
8
0
6
CONTINUOUS
10
0.090961
20
-0.042916
30
0.0
11
0.091300
21
-0.042520
31
0.0
0
LINE
8
0
6
CONTINUOUS
10
0.081388
20
-0.043376
30
0.0
11
0.088162
21
-0.042899
31
0.0
0
LINE
8
0
6
CONTINUOUS
10
0.075567
20
-0.044146
30
0.0
11
0.074652
21
-0.045240
31
0.0
0
LINE
8
0
6
CONTINUOUS
10
0.076980
20
-0.047422
30
0.0
11
0.077349
21
-0.046778
31
0.0
0
LINE
8
0
6
CONTINUOUS
10
0.078282
20
-0.045632
30
0.0
11
0.078926
21
-0.045271
31
0.0
0
LINE
8
0
6
CONTINUOUS
10
0.078537
20
-0.044806
30
0.0
11
0.077875
21
-0.045264
31
0.0
0
LINE
8
0
6
CONTINUOUS
10
0.087976
20
-0.040964
30
0.0
11
0.081487
21
-0.041244
31
0.0
0
LINE
8
0
6
CONTINUOUS
10
0.076971
20
-0.046536
30
0.0
11
0.077300
21
-0.045800
31
0.0
0
LINE
8
0
6
CONTINUOUS
10
0.078642
20
-0.042019
30
0.0
11
0.076822
21
-0.043119
31
0.0
0
LINE
8
0
6
CONTINUOUS
10
0.076687
20
-0.047276
30
0.0
11
0.076971
21
-0.046536
31
0.0
0
LINE
8
0
6
CONTINUOUS
10
0.077875
20
-0.045264
30
0.0
11
0.077300
21
-0.045800
31
0.0
0
LINE
8
0
6
CONTINUOUS
10
0.077765
20
-0.046167
30
0.0
11
0.078282
21
-0.045632
31
0.0
0
LINE
8
0
6
CONTINUOUS
10
0.074652
20
-0.045240
30
0.0
11
0.073870
21
-0.046403
31
0.0
0
LINE
8
0
6
CONTINUOUS
10
0.078399
20
-0.043899
30
0.0
11
0.081388
21
-0.043376
31
0.0
0
LINE
8
0
6
CONTINUOUS
10
0.075610
20
-0.044261
30
0.0
11
0.074751
21
-0.045481
31
0.0
0
LINE
8
0
6
CONTINUOUS
10
0.074751
20
-0.045481
30
0.0
11
0.074003
21
-0.046447
31
0.0
0
LINE
8
0
6
CONTINUOUS
10
0.078267
20
-0.042641
30
0.0
11
0.081254
21
-0.041775
31
0.0
0
LINE
8
0
6
CONTINUOUS
10
0.090017
20
-0.040718
30
0.0
11
0.087976
21
-0.040964
31
0.0
0
LINE
8
0
6
CONTINUOUS
10
0.091300
20
-0.042520
30
0.0
11
0.091223
21
-0.041507
31
0.0
0
LINE
8
0
6
CONTINUOUS
10
0.091104
20
-0.042544
30
0.0
11
0.091300
21
-0.042520
31
0.0
0
LINE
8
0
6
CONTINUOUS
10
0.090192
20
-0.042654
30
0.0
11
0.090779
21
-0.042583
31
0.0
0
LINE
8
0
6
CONTINUOUS
10
0.090089
20
-0.041204
30
0.0
11
0.090752
21
-0.041124
31
0.0
0
LINE
8
0
6
CONTINUOUS
10
0.090961
20
-0.042916
30
0.0
11
0.090265
21
-0.042733
31
0.0
0
LINE
8
0
6
CONTINUOUS
10
0.088240
20
-0.043230
30
0.0
11
0.090961
21
-0.042916
31
0.0
0
LINE
8
0
6
CONTINUOUS
10
0.091116
20
-0.040585
30
0.0
11
0.090017
21
-0.040718
31
0.0
0
LINE
8
0
6
CONTINUOUS
10
0.091116
20
-0.040585
30
0.0
11
0.090835
21
-0.040985
31
0.0
0
LINE
8
0
6
CONTINUOUS
10
0.091223
20
-0.041507
30
0.0
11
0.091116
21
-0.040585
31
0.0
0
LINE
8
0
6
CONTINUOUS
10
0.088048
20
-0.041450
30
0.0
11
0.090089
21
-0.041204
31
0.0
0
LINE
8
0
6
CONTINUOUS
10
0.090192
20
-0.042654
30
0.0
11
0.088162
21
-0.042899
31
0.0
0
LINE
8
0
6
CONTINUOUS
10
0.090779
20
-0.042583
30
0.0
11
0.091104
21
-0.042544
31
0.0
0
LINE
8
0
6
CONTINUOUS
10
0.078926
20
-0.045271
30
0.0
11
0.081501
21
-0.044133
31
0.0
0
LINE
8
0
6
CONTINUOUS
10
0.081627
20
-0.043936
30
0.0
11
0.078537
21
-0.044806
31
0.0
0
LINE
8
0
6
CONTINUOUS
10
0.090835
20
-0.040985
30
0.0
11
0.090752
21
-0.041124
31
0.0
0
LINE
8
0
6
CONTINUOUS
10
0.081487
20
-0.041244
30
0.0
11
0.078642
21
-0.042019
31
0.0
0
LINE
8
0
6
CONTINUOUS
10
0.078310
20
-0.042336
30
0.0
11
0.081233
21
-0.041566
31
0.0
0
LINE
8
0
6
CONTINUOUS
10
0.076086
20
-0.047065
30
0.0
11
0.069707
21
-0.087750
31
0.0
0
LINE
8
0
6
CONTINUOUS
10
0.070687
20
-0.087750
30
0.0
11
0.076980
21
-0.047422
31
0.0
0
LINE
8
0
6
CONTINUOUS
10
0.076687
20
-0.047276
30
0.0
11
0.070418
21
-0.087750
31
0.0
0
LINE
8
0
6
CONTINUOUS
10
0.067064
20
-0.087750
30
0.0
11
0.074003
21
-0.046447
31
0.0
0
LINE
8
0
6
CONTINUOUS
10
0.073870
20
-0.046403
30
0.0
11
0.066810
21
-0.087750
31
0.0
0
LINE
8
0
6
CONTINUOUS
10
0.068695
20
-0.087750
30
0.0
11
0.074880
21
-0.046667
31
0.0
0
LINE
8
0
6
CONTINUOUS
10
-0.065425
20
0.070886
30
0.0
11
-0.064511
21
0.070333
31
0.0
0
LINE
8
0
6
CONTINUOUS
10
-0.083462
20
0.068633
30
0.0
11
-0.080362
21
0.071075
31
0.0
0
LINE
8
0
6
CONTINUOUS
10
-0.080362
20
0.071075
30
0.0
11
-0.079254
21
0.071534
31
0.0
0
LINE
8
0
6
CONTINUOUS
10
-0.062394
20
0.067647
30
0.0
11
-0.064511
21
0.070333
31
0.0
0
LINE
8
0
6
CONTINUOUS
10
-0.065425
20
0.070886
30
0.0
11
-0.067655
21
0.073717
31
0.0
0
LINE
8
0
6
CONTINUOUS
10
-0.075988
20
0.074107
30
0.0
11
-0.071941
21
0.075095
31
0.0
0
LINE
8
0
6
CONTINUOUS
10
-0.071941
20
0.075095
30
0.0
11
-0.071533
21
0.075419
31
0.0
0
LINE
8
0
6
CONTINUOUS
10
-0.060488
20
0.065539
30
0.0
11
-0.060582
21
0.065574
31
0.0
0
LINE
8
0
6
CONTINUOUS
10
-0.079254
20
0.071534
30
0.0
11
-0.075988
21
0.074107
31
0.0
0
LINE
8
0
6
CONTINUOUS
10
-0.071255
20
0.075063
30
0.0
11
-0.067655
21
0.073717
31
0.0
0
LINE
8
0
6
CONTINUOUS
10
-0.071255
20
0.075063
30
0.0
11
-0.071533
21
0.075419
31
0.0
0
LINE
8
0
6
CONTINUOUS
10
-0.059952
20
0.064859
30
0.0
11
-0.060488
21
0.065539
31
0.0
0
ENDSEC
0
EOF
