999
Erzeugt mit innoplus bad 
0
SECTION
2
HEADER
9
$ACADVER
1
AC1009
9
$DWGCODEPAGE
3
ISO8859-1
0
ENDSEC
0
SECTION
2
TABLES
0
TABLE
2
LAYER
70
1
0
LAYER
2
0
70
0
62
7
6
CONTINUOUS
0
ENDTAB
0
ENDSEC
0
SECTION
2
ENTITIES
0
LINE
8
0
6
CONTINUOUS
10
0.152149
20
-0.030750
30
0.0
11
0.151735
21
-0.030871
31
0.0
0
LINE
8
0
6
CONTINUOUS
10
0.152220
20
-0.031029
30
0.0
11
0.152149
21
-0.030750
31
0.0
0
LINE
8
0
6
CONTINUOUS
10
0.107098
20
-0.041627
30
0.0
11
0.104172
21
-0.041898
31
0.0
0
LINE
8
0
6
CONTINUOUS
10
0.112912
20
-0.040769
30
0.0
11
0.110010
21
-0.041251
31
0.0
0
LINE
8
0
6
CONTINUOUS
10
0.085999
20
-0.086097
30
0.0
11
0.085999
21
-0.087750
31
0.0
0
LINE
8
0
6
CONTINUOUS
10
0.153434
20
-0.035815
30
0.0
11
0.153079
21
-0.034413
31
0.0
0
LINE
8
0
6
CONTINUOUS
10
0.114307
20
-0.051828
30
0.0
11
0.114938
21
-0.050525
31
0.0
0
LINE
8
0
6
CONTINUOUS
10
0.153733
20
-0.037004
30
0.0
11
0.153434
21
-0.035815
31
0.0
0
LINE
8
0
6
CONTINUOUS
10
0.115471
20
-0.049055
30
0.0
11
0.116291
21
-0.047123
31
0.0
0
LINE
8
0
6
CONTINUOUS
10
0.153934
20
-0.037798
30
0.0
11
0.153733
21
-0.037004
31
0.0
0
LINE
8
0
6
CONTINUOUS
10
0.153934
20
-0.037798
30
0.0
11
0.153519
21
-0.037920
31
0.0
0
LINE
8
0
6
CONTINUOUS
10
0.153590
20
-0.038198
30
0.0
11
0.154004
21
-0.038077
31
0.0
0
LINE
8
0
6
CONTINUOUS
10
0.113858
20
-0.051769
30
0.0
11
0.114591
21
-0.050495
31
0.0
0
LINE
8
0
6
CONTINUOUS
10
0.085999
20
-0.044157
30
0.0
11
0.085999
21
-0.046240
31
0.0
0
LINE
8
0
6
CONTINUOUS
10
0.085999
20
-0.046240
30
0.0
11
0.085999
21
-0.048323
31
0.0
0
LINE
8
0
6
CONTINUOUS
10
0.093056
20
-0.042074
30
0.0
11
0.091776
21
-0.042074
31
0.0
0
LINE
8
0
6
CONTINUOUS
10
0.091776
20
-0.042074
30
0.0
11
0.089475
21
-0.042074
31
0.0
0
LINE
8
0
6
CONTINUOUS
10
0.085999
20
-0.042710
30
0.0
11
0.085999
21
-0.044157
31
0.0
0
LINE
8
0
6
CONTINUOUS
10
0.091783
20
-0.042074
30
0.0
11
0.089786
21
-0.042074
31
0.0
0
LINE
8
0
6
CONTINUOUS
10
0.094316
20
-0.042074
30
0.0
11
0.091783
21
-0.042074
31
0.0
0
LINE
8
0
6
CONTINUOUS
10
0.091421
20
-0.042074
30
0.0
11
0.094316
21
-0.042074
31
0.0
0
LINE
8
0
6
CONTINUOUS
10
0.115938
20
-0.042660
30
0.0
11
0.115189
21
-0.042965
31
0.0
0
LINE
8
0
6
CONTINUOUS
10
0.115747
20
-0.049088
30
0.0
11
0.116621
21
-0.048249
31
0.0
0
LINE
8
0
6
CONTINUOUS
10
0.085999
20
-0.048323
30
0.0
11
0.085999
21
-0.050406
31
0.0
0
LINE
8
0
6
CONTINUOUS
10
0.085999
20
-0.052489
30
0.0
11
0.085999
21
-0.054402
31
0.0
0
LINE
8
0
6
CONTINUOUS
10
0.114001
20
-0.087750
30
0.0
11
0.114001
21
-0.086097
31
0.0
0
LINE
8
0
6
CONTINUOUS
10
0.085999
20
-0.050406
30
0.0
11
0.085999
21
-0.052489
31
0.0
0
LINE
8
0
6
CONTINUOUS
10
0.116291
20
-0.047123
30
0.0
11
0.116463
21
-0.047979
31
0.0
0
LINE
8
0
6
CONTINUOUS
10
0.116621
20
-0.048249
30
0.0
11
0.118992
21
-0.047126
31
0.0
0
LINE
8
0
6
CONTINUOUS
10
0.114426
20
-0.040872
30
0.0
11
0.116330
21
-0.040335
31
0.0
0
LINE
8
0
6
CONTINUOUS
10
0.115801
20
-0.040191
30
0.0
11
0.112912
21
-0.040769
31
0.0
0
LINE
8
0
6
CONTINUOUS
10
0.118008
20
-0.039618
30
0.0
11
0.115801
21
-0.040191
31
0.0
0
LINE
8
0
6
CONTINUOUS
10
0.118992
20
-0.047126
30
0.0
11
0.121114
21
-0.046578
31
0.0
0
LINE
8
0
6
CONTINUOUS
10
0.118863
20
-0.046864
30
0.0
11
0.120989
21
-0.046315
31
0.0
0
LINE
8
0
6
CONTINUOUS
10
0.118508
20
-0.039771
30
0.0
11
0.116330
21
-0.040335
31
0.0
0
LINE
8
0
6
CONTINUOUS
10
0.114001
20
-0.052807
30
0.0
11
0.114307
21
-0.051828
31
0.0
0
LINE
8
0
6
CONTINUOUS
10
0.104172
20
-0.041898
30
0.0
11
0.101236
21
-0.042074
31
0.0
0
LINE
8
0
6
CONTINUOUS
10
0.113437
20
-0.052648
30
0.0
11
0.113858
21
-0.051769
31
0.0
0
LINE
8
0
6
CONTINUOUS
10
0.114001
20
-0.054402
30
0.0
11
0.114001
21
-0.052807
31
0.0
0
LINE
8
0
6
CONTINUOUS
10
0.099529
20
-0.042074
30
0.0
11
0.094693
21
-0.042074
31
0.0
0
LINE
8
0
6
CONTINUOUS
10
0.102119
20
-0.042074
30
0.0
11
0.099529
21
-0.042074
31
0.0
0
LINE
8
0
6
CONTINUOUS
10
0.110010
20
-0.041251
30
0.0
11
0.107098
21
-0.041627
31
0.0
0
LINE
8
0
6
CONTINUOUS
10
0.114938
20
-0.050525
30
0.0
11
0.115747
21
-0.049088
31
0.0
0
LINE
8
0
6
CONTINUOUS
10
0.115446
20
-0.047546
30
0.0
11
0.115371
21
-0.046086
31
0.0
0
LINE
8
0
6
CONTINUOUS
10
0.115471
20
-0.049055
30
0.0
11
0.115446
21
-0.047546
31
0.0
0
LINE
8
0
6
CONTINUOUS
10
0.114591
20
-0.050495
30
0.0
11
0.115471
21
-0.049055
31
0.0
0
LINE
8
0
6
CONTINUOUS
10
0.114169
20
-0.043530
30
0.0
11
0.115189
21
-0.042965
31
0.0
0
LINE
8
0
6
CONTINUOUS
10
0.100000
20
-0.042074
30
0.0
11
0.096416
21
-0.042074
31
0.0
0
LINE
8
0
6
CONTINUOUS
10
0.103584
20
-0.042074
30
0.0
11
0.100000
21
-0.042074
31
0.0
0
LINE
8
0
6
CONTINUOUS
10
0.090088
20
-0.042074
30
0.0
11
0.087848
21
-0.042074
31
0.0
0
LINE
8
0
6
CONTINUOUS
10
0.087848
20
-0.042074
30
0.0
11
0.086503
21
-0.042074
31
0.0
0
LINE
8
0
6
CONTINUOUS
10
0.085999
20
-0.042074
30
0.0
11
0.085999
21
-0.042710
31
0.0
0
LINE
8
0
6
CONTINUOUS
10
0.085999
20
-0.042074
30
0.0
11
0.086503
21
-0.042074
31
0.0
0
LINE
8
0
6
CONTINUOUS
10
0.086514
20
-0.042074
30
0.0
11
0.085999
21
-0.042074
31
0.0
0
LINE
8
0
6
CONTINUOUS
10
0.093056
20
-0.042074
30
0.0
11
0.090088
21
-0.042074
31
0.0
0
LINE
8
0
6
CONTINUOUS
10
0.109912
20
-0.042074
30
0.0
11
0.106944
21
-0.042074
31
0.0
0
LINE
8
0
6
CONTINUOUS
10
0.106944
20
-0.042074
30
0.0
11
0.103584
21
-0.042074
31
0.0
0
LINE
8
0
6
CONTINUOUS
10
0.112153
20
-0.042074
30
0.0
11
0.109912
21
-0.042074
31
0.0
0
LINE
8
0
6
CONTINUOUS
10
0.096416
20
-0.042074
30
0.0
11
0.093056
21
-0.042074
31
0.0
0
LINE
8
0
6
CONTINUOUS
10
0.120083
20
-0.040206
30
0.0
11
0.117998
21
-0.040747
31
0.0
0
LINE
8
0
6
CONTINUOUS
10
0.113523
20
-0.042074
30
0.0
11
0.113079
21
-0.042074
31
0.0
0
LINE
8
0
6
CONTINUOUS
10
0.113079
20
-0.042074
30
0.0
11
0.112153
21
-0.042074
31
0.0
0
LINE
8
0
6
CONTINUOUS
10
0.115164
20
-0.041576
30
0.0
11
0.114219
21
-0.041930
31
0.0
0
LINE
8
0
6
CONTINUOUS
10
0.114219
20
-0.041930
30
0.0
11
0.113523
21
-0.042074
31
0.0
0
LINE
8
0
6
CONTINUOUS
10
0.115933
20
-0.042010
30
0.0
11
0.115928
21
-0.041377
31
0.0
0
LINE
8
0
6
CONTINUOUS
10
0.115164
20
-0.041576
30
0.0
11
0.115928
21
-0.041377
31
0.0
0
LINE
8
0
6
CONTINUOUS
10
0.152591
20
-0.032487
30
0.0
11
0.152422
21
-0.031823
31
0.0
0
LINE
8
0
6
CONTINUOUS
10
0.085999
20
-0.054402
30
0.0
11
0.085999
21
-0.085597
31
0.0
0
LINE
8
0
6
CONTINUOUS
10
0.114001
20
-0.085597
30
0.0
11
0.114001
21
-0.054402
31
0.0
0
LINE
8
0
6
CONTINUOUS
10
0.096911
20
-0.042074
30
0.0
11
0.093057
21
-0.042074
31
0.0
0
LINE
8
0
6
CONTINUOUS
10
0.093057
20
-0.042074
30
0.0
11
0.091421
21
-0.042074
31
0.0
0
LINE
8
0
6
CONTINUOUS
10
0.089475
20
-0.042074
30
0.0
11
0.088150
21
-0.042074
31
0.0
0
LINE
8
0
6
CONTINUOUS
10
0.088150
20
-0.042074
30
0.0
11
0.086514
21
-0.042074
31
0.0
0
LINE
8
0
6
CONTINUOUS
10
0.153934
20
-0.037798
30
0.0
11
0.154004
21
-0.038077
31
0.0
0
LINE
8
0
6
CONTINUOUS
10
0.152422
20
-0.031823
30
0.0
11
0.152335
21
-0.031479
31
0.0
0
LINE
8
0
6
CONTINUOUS
10
0.152007
20
-0.031944
30
0.0
11
0.120083
21
-0.040206
31
0.0
0
LINE
8
0
6
CONTINUOUS
10
0.153079
20
-0.034413
30
0.0
11
0.152724
21
-0.033011
31
0.0
0
LINE
8
0
6
CONTINUOUS
10
0.152724
20
-0.033011
30
0.0
11
0.152591
21
-0.032487
31
0.0
0
LINE
8
0
6
CONTINUOUS
10
0.121114
20
-0.046578
30
0.0
11
0.153590
21
-0.038198
31
0.0
0
LINE
8
0
6
CONTINUOUS
10
0.120989
20
-0.046315
30
0.0
11
0.153519
21
-0.037920
31
0.0
0
LINE
8
0
6
CONTINUOUS
10
0.152335
20
-0.031479
30
0.0
11
0.152220
21
-0.031029
31
0.0
0
LINE
8
0
6
CONTINUOUS
10
0.152220
20
-0.031029
30
0.0
11
0.151805
21
-0.031150
31
0.0
0
LINE
8
0
6
CONTINUOUS
10
0.151735
20
-0.030871
30
0.0
11
0.118008
21
-0.039618
31
0.0
0
LINE
8
0
6
CONTINUOUS
10
0.118508
20
-0.039771
30
0.0
11
0.151805
21
-0.031150
31
0.0
0
LINE
8
0
6
CONTINUOUS
10
0.093076
20
-0.085722
30
0.0
11
0.090101
21
-0.085722
31
0.0
0
LINE
8
0
6
CONTINUOUS
10
0.093322
20
-0.085847
30
0.0
11
0.090455
21
-0.085847
31
0.0
0
LINE
8
0
6
CONTINUOUS
10
0.093076
20
-0.085972
30
0.0
11
0.090101
21
-0.085972
31
0.0
0
LINE
8
0
6
CONTINUOUS
10
0.109912
20
-0.085722
30
0.0
11
0.106944
21
-0.085722
31
0.0
0
LINE
8
0
6
CONTINUOUS
10
0.109559
20
-0.085847
30
0.0
11
0.106699
21
-0.085847
31
0.0
0
LINE
8
0
6
CONTINUOUS
10
0.109912
20
-0.085972
30
0.0
11
0.106944
21
-0.085972
31
0.0
0
LINE
8
0
6
CONTINUOUS
10
0.090101
20
-0.085722
30
0.0
11
0.087889
21
-0.085722
31
0.0
0
LINE
8
0
6
CONTINUOUS
10
0.090455
20
-0.085847
30
0.0
11
0.088324
21
-0.085847
31
0.0
0
LINE
8
0
6
CONTINUOUS
10
0.090101
20
-0.085972
30
0.0
11
0.087889
21
-0.085972
31
0.0
0
LINE
8
0
6
CONTINUOUS
10
0.106944
20
-0.085722
30
0.0
11
0.103584
21
-0.085722
31
0.0
0
LINE
8
0
6
CONTINUOUS
10
0.106699
20
-0.085847
30
0.0
11
0.103456
21
-0.085847
31
0.0
0
LINE
8
0
6
CONTINUOUS
10
0.106944
20
-0.085972
30
0.0
11
0.103584
21
-0.085972
31
0.0
0
LINE
8
0
6
CONTINUOUS
10
0.085999
20
-0.085597
30
0.0
11
0.085999
21
-0.085722
31
0.0
0
LINE
8
0
6
CONTINUOUS
10
0.086515
20
-0.085722
30
0.0
11
0.085999
21
-0.085722
31
0.0
0
LINE
8
0
6
CONTINUOUS
10
0.085999
20
-0.085722
30
0.0
11
0.086499
21
-0.085847
31
0.0
0
LINE
8
0
6
CONTINUOUS
10
0.086998
20
-0.085847
30
0.0
11
0.086499
21
-0.085847
31
0.0
0
LINE
8
0
6
CONTINUOUS
10
0.086499
20
-0.085847
30
0.0
11
0.085999
21
-0.085972
31
0.0
0
LINE
8
0
6
CONTINUOUS
10
0.086516
20
-0.085972
30
0.0
11
0.085999
21
-0.085972
31
0.0
0
LINE
8
0
6
CONTINUOUS
10
0.085999
20
-0.085972
30
0.0
11
0.085999
21
-0.086097
31
0.0
0
LINE
8
0
6
CONTINUOUS
10
0.103584
20
-0.085722
30
0.0
11
0.100000
21
-0.085722
31
0.0
0
LINE
8
0
6
CONTINUOUS
10
0.103456
20
-0.085847
30
0.0
11
0.100000
21
-0.085847
31
0.0
0
LINE
8
0
6
CONTINUOUS
10
0.103584
20
-0.085972
30
0.0
11
0.100000
21
-0.085972
31
0.0
0
LINE
8
0
6
CONTINUOUS
10
0.100000
20
-0.085722
30
0.0
11
0.096433
21
-0.085722
31
0.0
0
LINE
8
0
6
CONTINUOUS
10
0.100000
20
-0.085847
30
0.0
11
0.096562
21
-0.085847
31
0.0
0
LINE
8
0
6
CONTINUOUS
10
0.100000
20
-0.085972
30
0.0
11
0.096433
21
-0.085972
31
0.0
0
LINE
8
0
6
CONTINUOUS
10
0.087889
20
-0.085722
30
0.0
11
0.086515
21
-0.085722
31
0.0
0
LINE
8
0
6
CONTINUOUS
10
0.088324
20
-0.085847
30
0.0
11
0.086998
21
-0.085847
31
0.0
0
LINE
8
0
6
CONTINUOUS
10
0.087889
20
-0.085972
30
0.0
11
0.086516
21
-0.085972
31
0.0
0
LINE
8
0
6
CONTINUOUS
10
0.112153
20
-0.085722
30
0.0
11
0.109912
21
-0.085722
31
0.0
0
LINE
8
0
6
CONTINUOUS
10
0.111717
20
-0.085847
30
0.0
11
0.109559
21
-0.085847
31
0.0
0
LINE
8
0
6
CONTINUOUS
10
0.112153
20
-0.085972
30
0.0
11
0.109912
21
-0.085972
31
0.0
0
LINE
8
0
6
CONTINUOUS
10
0.113497
20
-0.085722
30
0.0
11
0.112153
21
-0.085722
31
0.0
0
LINE
8
0
6
CONTINUOUS
10
0.113013
20
-0.085847
30
0.0
11
0.111717
21
-0.085847
31
0.0
0
LINE
8
0
6
CONTINUOUS
10
0.113497
20
-0.085972
30
0.0
11
0.112153
21
-0.085972
31
0.0
0
LINE
8
0
6
CONTINUOUS
10
0.114001
20
-0.085722
30
0.0
11
0.114001
21
-0.085597
31
0.0
0
LINE
8
0
6
CONTINUOUS
10
0.114001
20
-0.085722
30
0.0
11
0.113497
21
-0.085722
31
0.0
0
LINE
8
0
6
CONTINUOUS
10
0.113501
20
-0.085847
30
0.0
11
0.114001
21
-0.085722
31
0.0
0
LINE
8
0
6
CONTINUOUS
10
0.113501
20
-0.085847
30
0.0
11
0.113013
21
-0.085847
31
0.0
0
LINE
8
0
6
CONTINUOUS
10
0.114001
20
-0.085972
30
0.0
11
0.113501
21
-0.085847
31
0.0
0
LINE
8
0
6
CONTINUOUS
10
0.114001
20
-0.085972
30
0.0
11
0.113497
21
-0.085972
31
0.0
0
LINE
8
0
6
CONTINUOUS
10
0.114001
20
-0.086097
30
0.0
11
0.114001
21
-0.085972
31
0.0
0
LINE
8
0
6
CONTINUOUS
10
0.096433
20
-0.085722
30
0.0
11
0.093076
21
-0.085722
31
0.0
0
LINE
8
0
6
CONTINUOUS
10
0.096562
20
-0.085847
30
0.0
11
0.093322
21
-0.085847
31
0.0
0
LINE
8
0
6
CONTINUOUS
10
0.096433
20
-0.085972
30
0.0
11
0.093076
21
-0.085972
31
0.0
0
LINE
8
0
6
CONTINUOUS
10
-0.099529
20
-0.042574
30
0.0
11
-0.102119
21
-0.042574
31
0.0
0
LINE
8
0
6
CONTINUOUS
10
-0.106880
20
-0.042574
30
0.0
11
-0.103584
21
-0.042574
31
0.0
0
LINE
8
0
6
CONTINUOUS
10
-0.102119
20
-0.042574
30
0.0
11
-0.106880
21
-0.042574
31
0.0
0
LINE
8
0
6
CONTINUOUS
10
-0.085999
20
-0.088250
30
0.0
11
-0.085999
21
-0.086597
31
0.0
0
LINE
8
0
6
CONTINUOUS
10
-0.153079
20
-0.034913
30
0.0
11
-0.153433
21
-0.036315
31
0.0
0
LINE
8
0
6
CONTINUOUS
10
-0.153433
20
-0.036315
30
0.0
11
-0.153733
21
-0.037504
31
0.0
0
LINE
8
0
6
CONTINUOUS
10
-0.116621
20
-0.048749
30
0.0
11
-0.115747
21
-0.049588
31
0.0
0
LINE
8
0
6
CONTINUOUS
10
-0.153733
20
-0.037504
30
0.0
11
-0.153934
21
-0.038298
31
0.0
0
LINE
8
0
6
CONTINUOUS
10
-0.154004
20
-0.038577
30
0.0
11
-0.153590
21
-0.038698
31
0.0
0
LINE
8
0
6
CONTINUOUS
10
-0.153519
20
-0.038420
30
0.0
11
-0.153934
21
-0.038298
31
0.0
0
LINE
8
0
6
CONTINUOUS
10
-0.085999
20
-0.046740
30
0.0
11
-0.085999
21
-0.044657
31
0.0
0
LINE
8
0
6
CONTINUOUS
10
-0.115471
20
-0.049555
30
0.0
11
-0.116291
21
-0.047623
31
0.0
0
LINE
8
0
6
CONTINUOUS
10
-0.085999
20
-0.048823
30
0.0
11
-0.085999
21
-0.046740
31
0.0
0
LINE
8
0
6
CONTINUOUS
10
-0.091783
20
-0.042574
30
0.0
11
-0.094316
21
-0.042574
31
0.0
0
LINE
8
0
6
CONTINUOUS
10
-0.096416
20
-0.042574
30
0.0
11
-0.093056
21
-0.042574
31
0.0
0
LINE
8
0
6
CONTINUOUS
10
-0.094316
20
-0.042574
30
0.0
11
-0.096416
21
-0.042574
31
0.0
0
LINE
8
0
6
CONTINUOUS
10
-0.089482
20
-0.042574
30
0.0
11
-0.091783
21
-0.042574
31
0.0
0
LINE
8
0
6
CONTINUOUS
10
-0.090088
20
-0.042574
30
0.0
11
-0.089482
21
-0.042574
31
0.0
0
LINE
8
0
6
CONTINUOUS
10
-0.093056
20
-0.042574
30
0.0
11
-0.090088
21
-0.042574
31
0.0
0
LINE
8
0
6
CONTINUOUS
10
-0.110010
20
-0.041751
30
0.0
11
-0.112912
21
-0.041269
31
0.0
0
LINE
8
0
6
CONTINUOUS
10
-0.085999
20
-0.050906
30
0.0
11
-0.085999
21
-0.048823
31
0.0
0
LINE
8
0
6
CONTINUOUS
10
-0.085999
20
-0.054902
30
0.0
11
-0.085999
21
-0.052989
31
0.0
0
LINE
8
0
6
CONTINUOUS
10
-0.114001
20
-0.086597
30
0.0
11
-0.114001
21
-0.088250
31
0.0
0
LINE
8
0
6
CONTINUOUS
10
-0.113164
20
-0.042574
30
0.0
11
-0.106930
21
-0.042574
31
0.0
0
LINE
8
0
6
CONTINUOUS
10
-0.085999
20
-0.052989
30
0.0
11
-0.085999
21
-0.050906
31
0.0
0
LINE
8
0
6
CONTINUOUS
10
-0.085999
20
-0.044657
30
0.0
11
-0.085999
21
-0.043210
31
0.0
0
LINE
8
0
6
CONTINUOUS
10
-0.096916
20
-0.042574
30
0.0
11
-0.099529
21
-0.042574
31
0.0
0
LINE
8
0
6
CONTINUOUS
10
-0.100000
20
-0.042574
30
0.0
11
-0.096916
21
-0.042574
31
0.0
0
LINE
8
0
6
CONTINUOUS
10
-0.103584
20
-0.042574
30
0.0
11
-0.100000
21
-0.042574
31
0.0
0
LINE
8
0
6
CONTINUOUS
10
-0.116463
20
-0.048479
30
0.0
11
-0.116291
21
-0.047623
31
0.0
0
LINE
8
0
6
CONTINUOUS
10
-0.118992
20
-0.047626
30
0.0
11
-0.116621
21
-0.048749
31
0.0
0
LINE
8
0
6
CONTINUOUS
10
-0.112912
20
-0.041269
30
0.0
11
-0.115801
21
-0.040691
31
0.0
0
LINE
8
0
6
CONTINUOUS
10
-0.116330
20
-0.040835
30
0.0
11
-0.114447
21
-0.041386
31
0.0
0
LINE
8
0
6
CONTINUOUS
10
-0.115801
20
-0.040691
30
0.0
11
-0.118008
21
-0.040118
31
0.0
0
LINE
8
0
6
CONTINUOUS
10
-0.118508
20
-0.040271
30
0.0
11
-0.116330
21
-0.040835
31
0.0
0
LINE
8
0
6
CONTINUOUS
10
-0.121114
20
-0.047078
30
0.0
11
-0.118992
21
-0.047626
31
0.0
0
LINE
8
0
6
CONTINUOUS
10
-0.120989
20
-0.046815
30
0.0
11
-0.118863
21
-0.047364
31
0.0
0
LINE
8
0
6
CONTINUOUS
10
-0.114307
20
-0.052328
30
0.0
11
-0.114001
21
-0.053307
31
0.0
0
LINE
8
0
6
CONTINUOUS
10
-0.113858
20
-0.052269
30
0.0
11
-0.113437
21
-0.053148
31
0.0
0
LINE
8
0
6
CONTINUOUS
10
-0.114001
20
-0.053307
30
0.0
11
-0.114001
21
-0.054902
31
0.0
0
LINE
8
0
6
CONTINUOUS
10
-0.094310
20
-0.042574
30
0.0
11
-0.091421
21
-0.042574
31
0.0
0
LINE
8
0
6
CONTINUOUS
10
-0.091776
20
-0.042574
30
0.0
11
-0.094310
21
-0.042574
31
0.0
0
LINE
8
0
6
CONTINUOUS
10
-0.089786
20
-0.042574
30
0.0
11
-0.091776
21
-0.042574
31
0.0
0
LINE
8
0
6
CONTINUOUS
10
-0.091421
20
-0.042574
30
0.0
11
-0.089786
21
-0.042574
31
0.0
0
LINE
8
0
6
CONTINUOUS
10
-0.113523
20
-0.042574
30
0.0
11
-0.113164
21
-0.042574
31
0.0
0
LINE
8
0
6
CONTINUOUS
10
-0.106930
20
-0.042574
30
0.0
11
-0.101236
21
-0.042574
31
0.0
0
LINE
8
0
6
CONTINUOUS
10
-0.101236
20
-0.042574
30
0.0
11
-0.104172
21
-0.042398
31
0.0
0
LINE
8
0
6
CONTINUOUS
10
-0.115189
20
-0.043465
30
0.0
11
-0.115938
21
-0.043160
31
0.0
0
LINE
8
0
6
CONTINUOUS
10
-0.113858
20
-0.052269
30
0.0
11
-0.114591
21
-0.050995
31
0.0
0
LINE
8
0
6
CONTINUOUS
10
-0.114938
20
-0.051025
30
0.0
11
-0.114307
21
-0.052328
31
0.0
0
LINE
8
0
6
CONTINUOUS
10
-0.107098
20
-0.042127
30
0.0
11
-0.110010
21
-0.041751
31
0.0
0
LINE
8
0
6
CONTINUOUS
10
-0.115747
20
-0.049588
30
0.0
11
-0.114938
21
-0.051025
31
0.0
0
LINE
8
0
6
CONTINUOUS
10
-0.115471
20
-0.049555
30
0.0
11
-0.114591
21
-0.050995
31
0.0
0
LINE
8
0
6
CONTINUOUS
10
-0.152724
20
-0.033511
30
0.0
11
-0.153079
21
-0.034913
31
0.0
0
LINE
8
0
6
CONTINUOUS
10
-0.096416
20
-0.042574
30
0.0
11
-0.100000
21
-0.042574
31
0.0
0
LINE
8
0
6
CONTINUOUS
10
-0.100000
20
-0.042574
30
0.0
11
-0.103584
21
-0.042574
31
0.0
0
LINE
8
0
6
CONTINUOUS
10
-0.087848
20
-0.042574
30
0.0
11
-0.090088
21
-0.042574
31
0.0
0
LINE
8
0
6
CONTINUOUS
10
-0.086503
20
-0.042574
30
0.0
11
-0.087848
21
-0.042574
31
0.0
0
LINE
8
0
6
CONTINUOUS
10
-0.085999
20
-0.042574
30
0.0
11
-0.086514
21
-0.042574
31
0.0
0
LINE
8
0
6
CONTINUOUS
10
-0.087007
20
-0.042574
30
0.0
11
-0.086503
21
-0.042574
31
0.0
0
LINE
8
0
6
CONTINUOUS
10
-0.085999
20
-0.042574
30
0.0
11
-0.086503
21
-0.042574
31
0.0
0
LINE
8
0
6
CONTINUOUS
10
-0.085999
20
-0.043210
30
0.0
11
-0.085999
21
-0.042574
31
0.0
0
LINE
8
0
6
CONTINUOUS
10
-0.090088
20
-0.042574
30
0.0
11
-0.093056
21
-0.042574
31
0.0
0
LINE
8
0
6
CONTINUOUS
10
-0.106944
20
-0.042574
30
0.0
11
-0.109912
21
-0.042574
31
0.0
0
LINE
8
0
6
CONTINUOUS
10
-0.103584
20
-0.042574
30
0.0
11
-0.106944
21
-0.042574
31
0.0
0
LINE
8
0
6
CONTINUOUS
10
-0.109912
20
-0.042574
30
0.0
11
-0.112153
21
-0.042574
31
0.0
0
LINE
8
0
6
CONTINUOUS
10
-0.093056
20
-0.042574
30
0.0
11
-0.096416
21
-0.042574
31
0.0
0
LINE
8
0
6
CONTINUOUS
10
-0.120083
20
-0.040706
30
0.0
11
-0.117998
21
-0.041247
31
0.0
0
LINE
8
0
6
CONTINUOUS
10
-0.113079
20
-0.042574
30
0.0
11
-0.113523
21
-0.042574
31
0.0
0
LINE
8
0
6
CONTINUOUS
10
-0.112153
20
-0.042574
30
0.0
11
-0.113079
21
-0.042574
31
0.0
0
LINE
8
0
6
CONTINUOUS
10
-0.113523
20
-0.042574
30
0.0
11
-0.114219
21
-0.042430
31
0.0
0
LINE
8
0
6
CONTINUOUS
10
-0.114219
20
-0.042430
30
0.0
11
-0.115164
21
-0.042076
31
0.0
0
LINE
8
0
6
CONTINUOUS
10
-0.115928
20
-0.041877
30
0.0
11
-0.115933
21
-0.042510
31
0.0
0
LINE
8
0
6
CONTINUOUS
10
-0.115928
20
-0.041877
30
0.0
11
-0.115164
21
-0.042076
31
0.0
0
LINE
8
0
6
CONTINUOUS
10
-0.152335
20
-0.031979
30
0.0
11
-0.152422
21
-0.032323
31
0.0
0
LINE
8
0
6
CONTINUOUS
10
-0.085999
20
-0.086097
30
0.0
11
-0.085999
21
-0.054902
31
0.0
0
LINE
8
0
6
CONTINUOUS
10
-0.114001
20
-0.054902
30
0.0
11
-0.114001
21
-0.086097
31
0.0
0
LINE
8
0
6
CONTINUOUS
10
-0.104172
20
-0.042398
30
0.0
11
-0.107098
21
-0.042127
31
0.0
0
LINE
8
0
6
CONTINUOUS
10
-0.086514
20
-0.042574
30
0.0
11
-0.088150
21
-0.042574
31
0.0
0
LINE
8
0
6
CONTINUOUS
10
-0.089482
20
-0.042574
30
0.0
11
-0.087007
21
-0.042574
31
0.0
0
LINE
8
0
6
CONTINUOUS
10
-0.088150
20
-0.042574
30
0.0
11
-0.089482
21
-0.042574
31
0.0
0
LINE
8
0
6
CONTINUOUS
10
-0.118008
20
-0.040118
30
0.0
11
-0.151735
21
-0.031371
31
0.0
0
LINE
8
0
6
CONTINUOUS
10
-0.151805
20
-0.031650
30
0.0
11
-0.118508
21
-0.040271
31
0.0
0
LINE
8
0
6
CONTINUOUS
10
-0.154004
20
-0.038577
30
0.0
11
-0.153934
21
-0.038298
31
0.0
0
LINE
8
0
6
CONTINUOUS
10
-0.152149
20
-0.031250
30
0.0
11
-0.152220
21
-0.031529
31
0.0
0
LINE
8
0
6
CONTINUOUS
10
-0.151735
20
-0.031371
30
0.0
11
-0.152149
21
-0.031250
31
0.0
0
LINE
8
0
6
CONTINUOUS
10
-0.152591
20
-0.032987
30
0.0
11
-0.152724
21
-0.033511
31
0.0
0
LINE
8
0
6
CONTINUOUS
10
-0.152007
20
-0.032444
30
0.0
11
-0.120083
21
-0.040706
31
0.0
0
LINE
8
0
6
CONTINUOUS
10
-0.152422
20
-0.032323
30
0.0
11
-0.152591
21
-0.032987
31
0.0
0
LINE
8
0
6
CONTINUOUS
10
-0.152220
20
-0.031529
30
0.0
11
-0.152335
21
-0.031979
31
0.0
0
LINE
8
0
6
CONTINUOUS
10
-0.151805
20
-0.031650
30
0.0
11
-0.152220
21
-0.031529
31
0.0
0
LINE
8
0
6
CONTINUOUS
10
-0.153590
20
-0.038698
30
0.0
11
-0.121114
21
-0.047078
31
0.0
0
LINE
8
0
6
CONTINUOUS
10
-0.153519
20
-0.038420
30
0.0
11
-0.120989
21
-0.046815
31
0.0
0
LINE
8
0
6
CONTINUOUS
10
-0.090101
20
-0.086222
30
0.0
11
-0.093076
21
-0.086222
31
0.0
0
LINE
8
0
6
CONTINUOUS
10
-0.090455
20
-0.086347
30
0.0
11
-0.093322
21
-0.086347
31
0.0
0
LINE
8
0
6
CONTINUOUS
10
-0.090101
20
-0.086472
30
0.0
11
-0.093076
21
-0.086472
31
0.0
0
LINE
8
0
6
CONTINUOUS
10
-0.106944
20
-0.086222
30
0.0
11
-0.109912
21
-0.086222
31
0.0
0
LINE
8
0
6
CONTINUOUS
10
-0.106699
20
-0.086347
30
0.0
11
-0.109559
21
-0.086347
31
0.0
0
LINE
8
0
6
CONTINUOUS
10
-0.106944
20
-0.086472
30
0.0
11
-0.109912
21
-0.086472
31
0.0
0
LINE
8
0
6
CONTINUOUS
10
-0.087889
20
-0.086222
30
0.0
11
-0.090101
21
-0.086222
31
0.0
0
LINE
8
0
6
CONTINUOUS
10
-0.088324
20
-0.086347
30
0.0
11
-0.090455
21
-0.086347
31
0.0
0
LINE
8
0
6
CONTINUOUS
10
-0.087889
20
-0.086472
30
0.0
11
-0.090101
21
-0.086472
31
0.0
0
LINE
8
0
6
CONTINUOUS
10
-0.103584
20
-0.086222
30
0.0
11
-0.106944
21
-0.086222
31
0.0
0
LINE
8
0
6
CONTINUOUS
10
-0.103456
20
-0.086347
30
0.0
11
-0.106699
21
-0.086347
31
0.0
0
LINE
8
0
6
CONTINUOUS
10
-0.103584
20
-0.086472
30
0.0
11
-0.106944
21
-0.086472
31
0.0
0
LINE
8
0
6
CONTINUOUS
10
-0.085999
20
-0.086222
30
0.0
11
-0.085999
21
-0.086097
31
0.0
0
LINE
8
0
6
CONTINUOUS
10
-0.085999
20
-0.086222
30
0.0
11
-0.086515
21
-0.086222
31
0.0
0
LINE
8
0
6
CONTINUOUS
10
-0.086499
20
-0.086347
30
0.0
11
-0.085999
21
-0.086222
31
0.0
0
LINE
8
0
6
CONTINUOUS
10
-0.086499
20
-0.086347
30
0.0
11
-0.086998
21
-0.086347
31
0.0
0
LINE
8
0
6
CONTINUOUS
10
-0.085999
20
-0.086472
30
0.0
11
-0.086499
21
-0.086347
31
0.0
0
LINE
8
0
6
CONTINUOUS
10
-0.085999
20
-0.086472
30
0.0
11
-0.086516
21
-0.086472
31
0.0
0
LINE
8
0
6
CONTINUOUS
10
-0.085999
20
-0.086597
30
0.0
11
-0.085999
21
-0.086472
31
0.0
0
LINE
8
0
6
CONTINUOUS
10
-0.100000
20
-0.086222
30
0.0
11
-0.103584
21
-0.086222
31
0.0
0
LINE
8
0
6
CONTINUOUS
10
-0.100000
20
-0.086347
30
0.0
11
-0.103456
21
-0.086347
31
0.0
0
LINE
8
0
6
CONTINUOUS
10
-0.100000
20
-0.086472
30
0.0
11
-0.103584
21
-0.086472
31
0.0
0
LINE
8
0
6
CONTINUOUS
10
-0.096433
20
-0.086222
30
0.0
11
-0.100000
21
-0.086222
31
0.0
0
LINE
8
0
6
CONTINUOUS
10
-0.096562
20
-0.086347
30
0.0
11
-0.100000
21
-0.086347
31
0.0
0
LINE
8
0
6
CONTINUOUS
10
-0.096433
20
-0.086472
30
0.0
11
-0.100000
21
-0.086472
31
0.0
0
LINE
8
0
6
CONTINUOUS
10
-0.086515
20
-0.086222
30
0.0
11
-0.087889
21
-0.086222
31
0.0
0
LINE
8
0
6
CONTINUOUS
10
-0.086998
20
-0.086347
30
0.0
11
-0.088324
21
-0.086347
31
0.0
0
LINE
8
0
6
CONTINUOUS
10
-0.086516
20
-0.086472
30
0.0
11
-0.087889
21
-0.086472
31
0.0
0
LINE
8
0
6
CONTINUOUS
10
-0.109912
20
-0.086222
30
0.0
11
-0.112153
21
-0.086222
31
0.0
0
LINE
8
0
6
CONTINUOUS
10
-0.109559
20
-0.086347
30
0.0
11
-0.111717
21
-0.086347
31
0.0
0
LINE
8
0
6
CONTINUOUS
10
-0.109912
20
-0.086472
30
0.0
11
-0.112153
21
-0.086472
31
0.0
0
LINE
8
0
6
CONTINUOUS
10
-0.112153
20
-0.086222
30
0.0
11
-0.113497
21
-0.086222
31
0.0
0
LINE
8
0
6
CONTINUOUS
10
-0.111717
20
-0.086347
30
0.0
11
-0.113013
21
-0.086347
31
0.0
0
LINE
8
0
6
CONTINUOUS
10
-0.112153
20
-0.086472
30
0.0
11
-0.113497
21
-0.086472
31
0.0
0
LINE
8
0
6
CONTINUOUS
10
-0.114001
20
-0.086097
30
0.0
11
-0.114001
21
-0.086222
31
0.0
0
LINE
8
0
6
CONTINUOUS
10
-0.113497
20
-0.086222
30
0.0
11
-0.114001
21
-0.086222
31
0.0
0
LINE
8
0
6
CONTINUOUS
10
-0.114001
20
-0.086222
30
0.0
11
-0.113501
21
-0.086347
31
0.0
0
LINE
8
0
6
CONTINUOUS
10
-0.113013
20
-0.086347
30
0.0
11
-0.113501
21
-0.086347
31
0.0
0
LINE
8
0
6
CONTINUOUS
10
-0.113501
20
-0.086347
30
0.0
11
-0.114001
21
-0.086472
31
0.0
0
LINE
8
0
6
CONTINUOUS
10
-0.113497
20
-0.086472
30
0.0
11
-0.114001
21
-0.086472
31
0.0
0
LINE
8
0
6
CONTINUOUS
10
-0.114001
20
-0.086472
30
0.0
11
-0.114001
21
-0.086597
31
0.0
0
LINE
8
0
6
CONTINUOUS
10
-0.093076
20
-0.086222
30
0.0
11
-0.096433
21
-0.086222
31
0.0
0
LINE
8
0
6
CONTINUOUS
10
-0.093322
20
-0.086347
30
0.0
11
-0.096562
21
-0.086347
31
0.0
0
LINE
8
0
6
CONTINUOUS
10
-0.093076
20
-0.086472
30
0.0
11
-0.096433
21
-0.086472
31
0.0
0
LINE
8
0
6
CONTINUOUS
10
-0.014000
20
0.038720
30
0.0
11
-0.014000
21
-0.087750
31
0.0
0
LINE
8
0
6
CONTINUOUS
10
0.014000
20
-0.087750
30
0.0
11
0.014000
21
0.038720
31
0.0
0
LINE
8
0
6
CONTINUOUS
10
-0.014000
20
0.048875
30
0.0
11
-0.014002
21
0.043798
31
0.0
0
LINE
8
0
6
CONTINUOUS
10
0.014002
20
0.043798
30
0.0
11
0.014000
21
0.048875
31
0.0
0
LINE
8
0
6
CONTINUOUS
10
-0.014000
20
0.058347
30
0.0
11
-0.014003
21
0.053611
31
0.0
0
LINE
8
0
6
CONTINUOUS
10
0.014003
20
0.053611
30
0.0
11
0.014000
21
0.058347
31
0.0
0
LINE
8
0
6
CONTINUOUS
10
-0.014000
20
0.066287
30
0.0
11
-0.013996
21
0.062317
31
0.0
0
LINE
8
0
6
CONTINUOUS
10
0.013996
20
0.062317
30
0.0
11
0.014000
21
0.066287
31
0.0
0
LINE
8
0
6
CONTINUOUS
10
-0.014000
20
0.071980
30
0.0
11
-0.014007
21
0.069133
31
0.0
0
LINE
8
0
6
CONTINUOUS
10
0.014007
20
0.069133
30
0.0
11
0.014000
21
0.071980
31
0.0
0
LINE
8
0
6
CONTINUOUS
10
-0.014000
20
0.074916
30
0.0
11
-0.013998
21
0.073448
31
0.0
0
LINE
8
0
6
CONTINUOUS
10
0.013998
20
0.073448
30
0.0
11
0.014000
21
0.074916
31
0.0
0
LINE
8
0
6
CONTINUOUS
10
-0.014000
20
0.075295
30
0.0
11
-0.014000
21
0.074916
31
0.0
0
LINE
8
0
6
CONTINUOUS
10
0.014000
20
0.074916
30
0.0
11
0.014000
21
0.075295
31
0.0
0
LINE
8
0
6
CONTINUOUS
10
-0.014000
20
0.080246
30
0.0
11
-0.014000
21
0.075295
31
0.0
0
LINE
8
0
6
CONTINUOUS
10
0.014000
20
0.075295
30
0.0
11
0.014000
21
0.080246
31
0.0
0
LINE
8
0
6
CONTINUOUS
10
-0.004326
20
0.093566
30
0.0
11
-0.008229
21
0.091582
31
0.0
0
LINE
8
0
6
CONTINUOUS
10
-0.008229
20
0.091582
30
0.0
11
-0.011326
21
0.088492
31
0.0
0
LINE
8
0
6
CONTINUOUS
10
-0.011326
20
0.088492
30
0.0
11
-0.013315
21
0.084598
31
0.0
0
LINE
8
0
6
CONTINUOUS
10
-0.013315
20
0.084598
30
0.0
11
-0.014000
21
0.080281
31
0.0
0
LINE
8
0
6
CONTINUOUS
10
-0.013315
20
0.075965
30
0.0
11
-0.014000
21
0.080281
31
0.0
0
LINE
8
0
6
CONTINUOUS
10
-0.011326
20
0.072071
30
0.0
11
-0.013315
21
0.075965
31
0.0
0
LINE
8
0
6
CONTINUOUS
10
-0.008229
20
0.068980
30
0.0
11
-0.011326
21
0.072071
31
0.0
0
LINE
8
0
6
CONTINUOUS
10
-0.004326
20
0.066996
30
0.0
11
-0.008229
21
0.068980
31
0.0
0
LINE
8
0
6
CONTINUOUS
10
0.000000
20
0.066313
30
0.0
11
-0.004326
21
0.066996
31
0.0
0
LINE
8
0
6
CONTINUOUS
10
0.004326
20
0.066996
30
0.0
11
0.000000
21
0.066313
31
0.0
0
LINE
8
0
6
CONTINUOUS
10
0.008229
20
0.068980
30
0.0
11
0.004326
21
0.066996
31
0.0
0
LINE
8
0
6
CONTINUOUS
10
0.011326
20
0.072071
30
0.0
11
0.008229
21
0.068980
31
0.0
0
LINE
8
0
6
CONTINUOUS
10
0.013315
20
0.075965
30
0.0
11
0.011326
21
0.072071
31
0.0
0
LINE
8
0
6
CONTINUOUS
10
0.014000
20
0.080281
30
0.0
11
0.013315
21
0.075965
31
0.0
0
LINE
8
0
6
CONTINUOUS
10
0.014000
20
0.080281
30
0.0
11
0.013315
21
0.084598
31
0.0
0
LINE
8
0
6
CONTINUOUS
10
0.013315
20
0.084598
30
0.0
11
0.011326
21
0.088492
31
0.0
0
LINE
8
0
6
CONTINUOUS
10
0.011326
20
0.088492
30
0.0
11
0.008229
21
0.091582
31
0.0
0
LINE
8
0
6
CONTINUOUS
10
0.008229
20
0.091582
30
0.0
11
0.004326
21
0.093566
31
0.0
0
LINE
8
0
6
CONTINUOUS
10
0.004326
20
0.093566
30
0.0
11
0.000000
21
0.094250
31
0.0
0
LINE
8
0
6
CONTINUOUS
10
0.000000
20
0.094250
30
0.0
11
-0.004326
21
0.093566
31
0.0
0
LINE
8
0
6
CONTINUOUS
10
-0.007858
20
0.060624
30
0.0
11
-0.004131
21
0.060981
31
0.0
0
LINE
8
0
6
CONTINUOUS
10
-0.010816
20
0.060067
30
0.0
11
-0.007858
21
0.060624
31
0.0
0
LINE
8
0
6
CONTINUOUS
10
-0.012714
20
0.059367
30
0.0
11
-0.010816
21
0.060067
31
0.0
0
LINE
8
0
6
CONTINUOUS
10
-0.013369
20
0.059531
30
0.0
11
-0.013369
21
0.058590
31
0.0
0
LINE
8
0
6
CONTINUOUS
10
-0.013369
20
0.058590
30
0.0
11
-0.012714
21
0.059367
31
0.0
0
LINE
8
0
6
CONTINUOUS
10
-0.013369
20
0.058590
30
0.0
11
-0.012714
21
0.057813
31
0.0
0
LINE
8
0
6
CONTINUOUS
10
-0.012714
20
0.057813
30
0.0
11
-0.010816
21
0.057112
31
0.0
0
LINE
8
0
6
CONTINUOUS
10
-0.010816
20
0.057112
30
0.0
11
-0.007858
21
0.056556
31
0.0
0
LINE
8
0
6
CONTINUOUS
10
-0.007858
20
0.056556
30
0.0
11
-0.004131
21
0.056198
31
0.0
0
LINE
8
0
6
CONTINUOUS
10
-0.004131
20
0.056198
30
0.0
11
0.000000
21
0.056075
31
0.0
0
LINE
8
0
6
CONTINUOUS
10
0.000000
20
0.056075
30
0.0
11
0.004131
21
0.056198
31
0.0
0
LINE
8
0
6
CONTINUOUS
10
0.004131
20
0.056198
30
0.0
11
0.007858
21
0.056556
31
0.0
0
LINE
8
0
6
CONTINUOUS
10
0.007858
20
0.056556
30
0.0
11
0.010816
21
0.057112
31
0.0
0
LINE
8
0
6
CONTINUOUS
10
0.010816
20
0.057112
30
0.0
11
0.012714
21
0.057813
31
0.0
0
LINE
8
0
6
CONTINUOUS
10
0.012714
20
0.057813
30
0.0
11
0.013369
21
0.058590
31
0.0
0
LINE
8
0
6
CONTINUOUS
10
0.013369
20
0.058590
30
0.0
11
0.013369
21
0.059531
31
0.0
0
LINE
8
0
6
CONTINUOUS
10
0.012714
20
0.059367
30
0.0
11
0.013369
21
0.058590
31
0.0
0
LINE
8
0
6
CONTINUOUS
10
0.010815
20
0.060067
30
0.0
11
0.012714
21
0.059367
31
0.0
0
LINE
8
0
6
CONTINUOUS
10
0.007858
20
0.060624
30
0.0
11
0.010815
21
0.060067
31
0.0
0
LINE
8
0
6
CONTINUOUS
10
0.004131
20
0.060981
30
0.0
11
0.007858
21
0.060624
31
0.0
0
LINE
8
0
6
CONTINUOUS
10
0.000000
20
0.061104
30
0.0
11
0.004131
21
0.060981
31
0.0
0
LINE
8
0
6
CONTINUOUS
10
-0.004131
20
0.060981
30
0.0
11
0.000000
21
0.061104
31
0.0
0
LINE
8
0
6
CONTINUOUS
10
0.013369
20
0.059531
30
0.0
11
0.013369
21
0.075419
31
0.0
0
LINE
8
0
6
CONTINUOUS
10
-0.013369
20
0.075416
30
0.0
11
-0.013369
21
0.059531
31
0.0
0
LINE
8
0
6
CONTINUOUS
10
-0.005977
20
0.060136
30
0.0
11
-0.003142
21
0.060408
31
0.0
0
LINE
8
0
6
CONTINUOUS
10
-0.008226
20
0.059713
30
0.0
11
-0.005977
21
0.060136
31
0.0
0
LINE
8
0
6
CONTINUOUS
10
-0.009670
20
0.059180
30
0.0
11
-0.008226
21
0.059713
31
0.0
0
LINE
8
0
6
CONTINUOUS
10
-0.010167
20
0.058590
30
0.0
11
-0.009670
21
0.059180
31
0.0
0
LINE
8
0
6
CONTINUOUS
10
0.009670
20
0.059180
30
0.0
11
0.010167
21
0.058590
31
0.0
0
LINE
8
0
6
CONTINUOUS
10
0.008226
20
0.059713
30
0.0
11
0.009670
21
0.059180
31
0.0
0
LINE
8
0
6
CONTINUOUS
10
0.005977
20
0.060136
30
0.0
11
0.008226
21
0.059713
31
0.0
0
LINE
8
0
6
CONTINUOUS
10
0.003142
20
0.060408
30
0.0
11
0.005977
21
0.060136
31
0.0
0
LINE
8
0
6
CONTINUOUS
10
0.000000
20
0.060502
30
0.0
11
0.003142
21
0.060408
31
0.0
0
LINE
8
0
6
CONTINUOUS
10
-0.003142
20
0.060408
30
0.0
11
0.000000
21
0.060502
31
0.0
0
LINE
8
0
6
CONTINUOUS
10
-0.008226
20
0.057466
30
0.0
11
-0.005977
21
0.057043
31
0.0
0
LINE
8
0
6
CONTINUOUS
10
0.003142
20
0.056771
30
0.0
11
0.005977
21
0.057043
31
0.0
0
LINE
8
0
6
CONTINUOUS
10
0.005977
20
0.057043
30
0.0
11
0.008226
21
0.057466
31
0.0
0
LINE
8
0
6
CONTINUOUS
10
-0.005977
20
0.057043
30
0.0
11
-0.003142
21
0.056771
31
0.0
0
LINE
8
0
6
CONTINUOUS
10
0.008226
20
0.057466
30
0.0
11
0.009670
21
0.057999
31
0.0
0
LINE
8
0
6
CONTINUOUS
10
-0.003142
20
0.056771
30
0.0
11
0.000000
21
0.056678
31
0.0
0
LINE
8
0
6
CONTINUOUS
10
-0.010167
20
0.058590
30
0.0
11
-0.009670
21
0.057999
31
0.0
0
LINE
8
0
6
CONTINUOUS
10
0.009670
20
0.057999
30
0.0
11
0.010167
21
0.058590
31
0.0
0
LINE
8
0
6
CONTINUOUS
10
0.000000
20
0.056678
30
0.0
11
0.003142
21
0.056771
31
0.0
0
LINE
8
0
6
CONTINUOUS
10
-0.009670
20
0.057999
30
0.0
11
-0.008226
21
0.057466
31
0.0
0
LINE
8
0
6
CONTINUOUS
10
0.003142
20
0.057345
30
0.0
11
0.005977
21
0.057617
31
0.0
0
LINE
8
0
6
CONTINUOUS
10
0.000000
20
0.057251
30
0.0
11
0.003142
21
0.057345
31
0.0
0
LINE
8
0
6
CONTINUOUS
10
-0.003142
20
0.057345
30
0.0
11
0.000000
21
0.057251
31
0.0
0
LINE
8
0
6
CONTINUOUS
10
-0.005977
20
0.057617
30
0.0
11
-0.003142
21
0.057345
31
0.0
0
LINE
8
0
6
CONTINUOUS
10
-0.008226
20
0.058040
30
0.0
11
-0.005977
21
0.057617
31
0.0
0
LINE
8
0
6
CONTINUOUS
10
-0.009670
20
0.058573
30
0.0
11
-0.008226
21
0.058040
31
0.0
0
LINE
8
0
6
CONTINUOUS
10
-0.010167
20
0.059163
30
0.0
11
-0.009670
21
0.058573
31
0.0
0
LINE
8
0
6
CONTINUOUS
10
0.009670
20
0.058573
30
0.0
11
0.010167
21
0.059163
31
0.0
0
LINE
8
0
6
CONTINUOUS
10
0.008226
20
0.058040
30
0.0
11
0.009670
21
0.058573
31
0.0
0
LINE
8
0
6
CONTINUOUS
10
0.005977
20
0.057617
30
0.0
11
0.008226
21
0.058040
31
0.0
0
LINE
8
0
6
CONTINUOUS
10
0.014000
20
0.038720
30
0.0
11
0.014002
21
0.043798
31
0.0
0
LINE
8
0
6
CONTINUOUS
10
-0.014002
20
0.043798
30
0.0
11
-0.014000
21
0.038720
31
0.0
0
LINE
8
0
6
CONTINUOUS
10
0.014000
20
0.066287
30
0.0
11
0.014007
21
0.069133
31
0.0
0
LINE
8
0
6
CONTINUOUS
10
-0.014007
20
0.069133
30
0.0
11
-0.014000
21
0.066287
31
0.0
0
LINE
8
0
6
CONTINUOUS
10
0.014000
20
0.048875
30
0.0
11
0.014003
21
0.053611
31
0.0
0
LINE
8
0
6
CONTINUOUS
10
-0.014003
20
0.053611
30
0.0
11
-0.014000
21
0.048875
31
0.0
0
LINE
8
0
6
CONTINUOUS
10
0.014000
20
0.071980
30
0.0
11
0.013998
21
0.073448
31
0.0
0
LINE
8
0
6
CONTINUOUS
10
-0.013998
20
0.073448
30
0.0
11
-0.014000
21
0.071980
31
0.0
0
LINE
8
0
6
CONTINUOUS
10
0.014000
20
0.058347
30
0.0
11
0.013996
21
0.062317
31
0.0
0
LINE
8
0
6
CONTINUOUS
10
-0.013996
20
0.062317
30
0.0
11
-0.014000
21
0.058347
31
0.0
0
LINE
8
0
6
CONTINUOUS
10
0.122517
20
-0.093750
30
0.0
11
0.125114
21
-0.093750
31
0.0
0
LINE
8
0
6
CONTINUOUS
10
0.118385
20
-0.093750
30
0.0
11
0.122517
21
-0.093750
31
0.0
0
LINE
8
0
6
CONTINUOUS
10
0.113000
20
-0.093750
30
0.0
11
0.118385
21
-0.093750
31
0.0
0
LINE
8
0
6
CONTINUOUS
10
0.106729
20
-0.093750
30
0.0
11
0.113000
21
-0.093750
31
0.0
0
LINE
8
0
6
CONTINUOUS
10
0.100000
20
-0.093750
30
0.0
11
0.106729
21
-0.093750
31
0.0
0
LINE
8
0
6
CONTINUOUS
10
0.093271
20
-0.093750
30
0.0
11
0.100000
21
-0.093750
31
0.0
0
LINE
8
0
6
CONTINUOUS
10
0.087000
20
-0.093750
30
0.0
11
0.093271
21
-0.093750
31
0.0
0
LINE
8
0
6
CONTINUOUS
10
0.081615
20
-0.093750
30
0.0
11
0.087000
21
-0.093750
31
0.0
0
LINE
8
0
6
CONTINUOUS
10
0.077483
20
-0.093750
30
0.0
11
0.081615
21
-0.093750
31
0.0
0
LINE
8
0
6
CONTINUOUS
10
0.074886
20
-0.093750
30
0.0
11
0.077483
21
-0.093750
31
0.0
0
LINE
8
0
6
CONTINUOUS
10
0.074000
20
-0.093750
30
0.0
11
0.074886
21
-0.093750
31
0.0
0
LINE
8
0
6
CONTINUOUS
10
0.074000
20
-0.093276
30
0.0
11
0.074000
21
-0.093750
31
0.0
0
LINE
8
0
6
CONTINUOUS
10
0.074000
20
-0.088224
30
0.0
11
0.074000
21
-0.093276
31
0.0
0
LINE
8
0
6
CONTINUOUS
10
0.126000
20
-0.093276
30
0.0
11
0.126000
21
-0.088224
31
0.0
0
LINE
8
0
6
CONTINUOUS
10
0.126000
20
-0.087750
30
0.0
11
0.125114
21
-0.087750
31
0.0
0
LINE
8
0
6
CONTINUOUS
10
0.126000
20
-0.088224
30
0.0
11
0.126000
21
-0.087750
31
0.0
0
LINE
8
0
6
CONTINUOUS
10
0.125114
20
-0.087750
30
0.0
11
0.122517
21
-0.087750
31
0.0
0
LINE
8
0
6
CONTINUOUS
10
0.122517
20
-0.087750
30
0.0
11
0.118385
21
-0.087750
31
0.0
0
LINE
8
0
6
CONTINUOUS
10
0.118385
20
-0.087750
30
0.0
11
0.113000
21
-0.087750
31
0.0
0
LINE
8
0
6
CONTINUOUS
10
0.113000
20
-0.087750
30
0.0
11
0.106729
21
-0.087750
31
0.0
0
LINE
8
0
6
CONTINUOUS
10
0.106729
20
-0.087750
30
0.0
11
0.100000
21
-0.087750
31
0.0
0
LINE
8
0
6
CONTINUOUS
10
0.100000
20
-0.087750
30
0.0
11
0.093271
21
-0.087750
31
0.0
0
LINE
8
0
6
CONTINUOUS
10
0.093271
20
-0.087750
30
0.0
11
0.087000
21
-0.087750
31
0.0
0
LINE
8
0
6
CONTINUOUS
10
0.087000
20
-0.087750
30
0.0
11
0.081615
21
-0.087750
31
0.0
0
LINE
8
0
6
CONTINUOUS
10
0.081615
20
-0.087750
30
0.0
11
0.077483
21
-0.087750
31
0.0
0
LINE
8
0
6
CONTINUOUS
10
0.077483
20
-0.087750
30
0.0
11
0.074886
21
-0.087750
31
0.0
0
LINE
8
0
6
CONTINUOUS
10
0.074000
20
-0.087750
30
0.0
11
0.074000
21
-0.088224
31
0.0
0
LINE
8
0
6
CONTINUOUS
10
0.074886
20
-0.087750
30
0.0
11
0.074000
21
-0.087750
31
0.0
0
LINE
8
0
6
CONTINUOUS
10
0.126000
20
-0.093750
30
0.0
11
0.126000
21
-0.093276
31
0.0
0
LINE
8
0
6
CONTINUOUS
10
0.125114
20
-0.093750
30
0.0
11
0.126000
21
-0.093750
31
0.0
0
LINE
8
0
6
CONTINUOUS
10
0.022517
20
-0.093750
30
0.0
11
0.025114
21
-0.093750
31
0.0
0
LINE
8
0
6
CONTINUOUS
10
0.018385
20
-0.093750
30
0.0
11
0.022517
21
-0.093750
31
0.0
0
LINE
8
0
6
CONTINUOUS
10
0.013000
20
-0.093750
30
0.0
11
0.018385
21
-0.093750
31
0.0
0
LINE
8
0
6
CONTINUOUS
10
0.006729
20
-0.093750
30
0.0
11
0.013000
21
-0.093750
31
0.0
0
LINE
8
0
6
CONTINUOUS
10
0.000000
20
-0.093750
30
0.0
11
0.006729
21
-0.093750
31
0.0
0
LINE
8
0
6
CONTINUOUS
10
-0.006729
20
-0.093750
30
0.0
11
0.000000
21
-0.093750
31
0.0
0
LINE
8
0
6
CONTINUOUS
10
-0.013000
20
-0.093750
30
0.0
11
-0.006729
21
-0.093750
31
0.0
0
LINE
8
0
6
CONTINUOUS
10
-0.018385
20
-0.093750
30
0.0
11
-0.013000
21
-0.093750
31
0.0
0
LINE
8
0
6
CONTINUOUS
10
-0.022517
20
-0.093750
30
0.0
11
-0.018385
21
-0.093750
31
0.0
0
LINE
8
0
6
CONTINUOUS
10
-0.025114
20
-0.093750
30
0.0
11
-0.022517
21
-0.093750
31
0.0
0
LINE
8
0
6
CONTINUOUS
10
-0.026000
20
-0.093750
30
0.0
11
-0.025114
21
-0.093750
31
0.0
0
LINE
8
0
6
CONTINUOUS
10
-0.026000
20
-0.093276
30
0.0
11
-0.026000
21
-0.093750
31
0.0
0
LINE
8
0
6
CONTINUOUS
10
-0.026000
20
-0.088224
30
0.0
11
-0.026000
21
-0.093276
31
0.0
0
LINE
8
0
6
CONTINUOUS
10
0.026000
20
-0.093276
30
0.0
11
0.026000
21
-0.088224
31
0.0
0
LINE
8
0
6
CONTINUOUS
10
0.026000
20
-0.087750
30
0.0
11
0.025114
21
-0.087750
31
0.0
0
LINE
8
0
6
CONTINUOUS
10
0.026000
20
-0.088224
30
0.0
11
0.026000
21
-0.087750
31
0.0
0
LINE
8
0
6
CONTINUOUS
10
0.025114
20
-0.087750
30
0.0
11
0.022517
21
-0.087750
31
0.0
0
LINE
8
0
6
CONTINUOUS
10
0.022517
20
-0.087750
30
0.0
11
0.018385
21
-0.087750
31
0.0
0
LINE
8
0
6
CONTINUOUS
10
0.018385
20
-0.087750
30
0.0
11
0.013000
21
-0.087750
31
0.0
0
LINE
8
0
6
CONTINUOUS
10
0.013000
20
-0.087750
30
0.0
11
0.006729
21
-0.087750
31
0.0
0
LINE
8
0
6
CONTINUOUS
10
0.006729
20
-0.087750
30
0.0
11
0.000000
21
-0.087750
31
0.0
0
LINE
8
0
6
CONTINUOUS
10
0.000000
20
-0.087750
30
0.0
11
-0.006729
21
-0.087750
31
0.0
0
LINE
8
0
6
CONTINUOUS
10
-0.006729
20
-0.087750
30
0.0
11
-0.013000
21
-0.087750
31
0.0
0
LINE
8
0
6
CONTINUOUS
10
-0.013000
20
-0.087750
30
0.0
11
-0.018385
21
-0.087750
31
0.0
0
LINE
8
0
6
CONTINUOUS
10
-0.018385
20
-0.087750
30
0.0
11
-0.022517
21
-0.087750
31
0.0
0
LINE
8
0
6
CONTINUOUS
10
-0.022517
20
-0.087750
30
0.0
11
-0.025114
21
-0.087750
31
0.0
0
LINE
8
0
6
CONTINUOUS
10
-0.026000
20
-0.087750
30
0.0
11
-0.026000
21
-0.088224
31
0.0
0
LINE
8
0
6
CONTINUOUS
10
-0.025114
20
-0.087750
30
0.0
11
-0.026000
21
-0.087750
31
0.0
0
LINE
8
0
6
CONTINUOUS
10
0.026000
20
-0.093750
30
0.0
11
0.026000
21
-0.093276
31
0.0
0
LINE
8
0
6
CONTINUOUS
10
0.025114
20
-0.093750
30
0.0
11
0.026000
21
-0.093750
31
0.0
0
LINE
8
0
6
CONTINUOUS
10
-0.077483
20
-0.094250
30
0.0
11
-0.074886
21
-0.094250
31
0.0
0
LINE
8
0
6
CONTINUOUS
10
-0.081615
20
-0.094250
30
0.0
11
-0.077483
21
-0.094250
31
0.0
0
LINE
8
0
6
CONTINUOUS
10
-0.087000
20
-0.094250
30
0.0
11
-0.081615
21
-0.094250
31
0.0
0
LINE
8
0
6
CONTINUOUS
10
-0.093271
20
-0.094250
30
0.0
11
-0.087000
21
-0.094250
31
0.0
0
LINE
8
0
6
CONTINUOUS
10
-0.100000
20
-0.094250
30
0.0
11
-0.093271
21
-0.094250
31
0.0
0
LINE
8
0
6
CONTINUOUS
10
-0.106729
20
-0.094250
30
0.0
11
-0.100000
21
-0.094250
31
0.0
0
LINE
8
0
6
CONTINUOUS
10
-0.113000
20
-0.094250
30
0.0
11
-0.106729
21
-0.094250
31
0.0
0
LINE
8
0
6
CONTINUOUS
10
-0.118385
20
-0.094250
30
0.0
11
-0.113000
21
-0.094250
31
0.0
0
LINE
8
0
6
CONTINUOUS
10
-0.122517
20
-0.094250
30
0.0
11
-0.118385
21
-0.094250
31
0.0
0
LINE
8
0
6
CONTINUOUS
10
-0.125114
20
-0.094250
30
0.0
11
-0.122517
21
-0.094250
31
0.0
0
LINE
8
0
6
CONTINUOUS
10
-0.126000
20
-0.094250
30
0.0
11
-0.125114
21
-0.094250
31
0.0
0
LINE
8
0
6
CONTINUOUS
10
-0.126000
20
-0.093776
30
0.0
11
-0.126000
21
-0.094250
31
0.0
0
LINE
8
0
6
CONTINUOUS
10
-0.126000
20
-0.088724
30
0.0
11
-0.126000
21
-0.093776
31
0.0
0
LINE
8
0
6
CONTINUOUS
10
-0.074000
20
-0.093776
30
0.0
11
-0.074000
21
-0.088724
31
0.0
0
LINE
8
0
6
CONTINUOUS
10
-0.074000
20
-0.088250
30
0.0
11
-0.074886
21
-0.088250
31
0.0
0
LINE
8
0
6
CONTINUOUS
10
-0.074000
20
-0.088724
30
0.0
11
-0.074000
21
-0.088250
31
0.0
0
LINE
8
0
6
CONTINUOUS
10
-0.074886
20
-0.088250
30
0.0
11
-0.077483
21
-0.088250
31
0.0
0
LINE
8
0
6
CONTINUOUS
10
-0.077483
20
-0.088250
30
0.0
11
-0.081615
21
-0.088250
31
0.0
0
LINE
8
0
6
CONTINUOUS
10
-0.081615
20
-0.088250
30
0.0
11
-0.087000
21
-0.088250
31
0.0
0
LINE
8
0
6
CONTINUOUS
10
-0.087000
20
-0.088250
30
0.0
11
-0.093271
21
-0.088250
31
0.0
0
LINE
8
0
6
CONTINUOUS
10
-0.093271
20
-0.088250
30
0.0
11
-0.100000
21
-0.088250
31
0.0
0
LINE
8
0
6
CONTINUOUS
10
-0.100000
20
-0.088250
30
0.0
11
-0.106729
21
-0.088250
31
0.0
0
LINE
8
0
6
CONTINUOUS
10
-0.106729
20
-0.088250
30
0.0
11
-0.113000
21
-0.088250
31
0.0
0
LINE
8
0
6
CONTINUOUS
10
-0.113000
20
-0.088250
30
0.0
11
-0.118385
21
-0.088250
31
0.0
0
LINE
8
0
6
CONTINUOUS
10
-0.118385
20
-0.088250
30
0.0
11
-0.122517
21
-0.088250
31
0.0
0
LINE
8
0
6
CONTINUOUS
10
-0.122517
20
-0.088250
30
0.0
11
-0.125114
21
-0.088250
31
0.0
0
LINE
8
0
6
CONTINUOUS
10
-0.126000
20
-0.088250
30
0.0
11
-0.126000
21
-0.088724
31
0.0
0
LINE
8
0
6
CONTINUOUS
10
-0.125114
20
-0.088250
30
0.0
11
-0.126000
21
-0.088250
31
0.0
0
LINE
8
0
6
CONTINUOUS
10
-0.074000
20
-0.094250
30
0.0
11
-0.074000
21
-0.093776
31
0.0
0
LINE
8
0
6
CONTINUOUS
10
-0.074886
20
-0.094250
30
0.0
11
-0.074000
21
-0.094250
31
0.0
0
LINE
8
0
6
CONTINUOUS
10
0.008229
20
0.068633
30
0.0
11
0.010815
21
0.071075
31
0.0
0
LINE
8
0
6
CONTINUOUS
10
0.010815
20
0.071075
30
0.0
11
0.011326
21
0.071534
31
0.0
0
LINE
8
0
6
CONTINUOUS
10
-0.010816
20
0.071073
30
0.0
11
-0.011326
21
0.071534
31
0.0
0
LINE
8
0
6
CONTINUOUS
10
0.013315
20
0.075095
30
0.0
11
0.013369
21
0.075419
31
0.0
0
LINE
8
0
6
CONTINUOUS
10
0.011326
20
0.071534
30
0.0
11
0.012714
21
0.074107
31
0.0
0
ENDSEC
0
EOF
