999
Erzeugt mit innoplus bad 
0
SECTION
2
HEADER
9
$ACADVER
1
AC1009
9
$DWGCODEPAGE
3
ISO8859-1
0
ENDSEC
0
SECTION
2
TABLES
0
TABLE
2
LAYER
70
1
0
LAYER
2
0
70
0
62
7
6
CONTINUOUS
0
ENDTAB
0
ENDSEC
0
SECTION
2
ENTITIES
0
LINE
8
0
6
CONTINUOUS
10
0.032741
20
0.095602
30
0.0
11
0.014841
21
0.095600
31
0.0
0
LINE
8
0
6
CONTINUOUS
10
0.050652
20
0.034195
30
0.0
11
0.051067
21
0.034829
31
0.0
0
LINE
8
0
6
CONTINUOUS
10
0.037674
20
0.058857
30
0.0
11
0.041324
21
0.034935
31
0.0
0
LINE
8
0
6
CONTINUOUS
10
0.041423
20
0.036296
30
0.0
11
0.037774
21
0.060219
31
0.0
0
LINE
8
0
6
CONTINUOUS
10
0.045821
20
0.095607
30
0.0
11
0.043161
21
0.095604
31
0.0
0
LINE
8
0
6
CONTINUOUS
10
0.035085
20
0.067196
30
0.0
11
0.037210
21
0.067216
31
0.0
0
LINE
8
0
6
CONTINUOUS
10
0.043161
20
0.095604
30
0.0
11
0.040501
21
0.095603
31
0.0
0
LINE
8
0
6
CONTINUOUS
10
0.046412
20
0.067374
30
0.0
11
0.046355
21
0.069624
31
0.0
0
LINE
8
0
6
CONTINUOUS
10
0.040501
20
0.095603
30
0.0
11
0.037842
21
0.095602
31
0.0
0
LINE
8
0
6
CONTINUOUS
10
0.035183
20
0.095602
30
0.0
11
0.032741
21
0.095602
31
0.0
0
LINE
8
0
6
CONTINUOUS
10
0.037842
20
0.095602
30
0.0
11
0.035183
21
0.095602
31
0.0
0
LINE
8
0
6
CONTINUOUS
10
0.047669
20
0.095610
30
0.0
11
0.045821
21
0.095607
31
0.0
0
LINE
8
0
6
CONTINUOUS
10
0.037210
20
0.067216
30
0.0
11
0.036308
21
0.065971
31
0.0
0
LINE
8
0
6
CONTINUOUS
10
0.036199
20
0.064539
30
0.0
11
0.037059
21
0.062618
31
0.0
0
LINE
8
0
6
CONTINUOUS
10
0.037151
20
0.064026
30
0.0
11
0.036308
21
0.065971
31
0.0
0
LINE
8
0
6
CONTINUOUS
10
0.045725
20
0.068363
30
0.0
11
0.046098
21
0.066079
31
0.0
0
LINE
8
0
6
CONTINUOUS
10
0.046684
20
0.065203
30
0.0
11
0.046412
21
0.067374
31
0.0
0
LINE
8
0
6
CONTINUOUS
10
0.046098
20
0.066079
30
0.0
11
0.046830
21
0.061607
31
0.0
0
LINE
8
0
6
CONTINUOUS
10
0.047476
20
0.060360
30
0.0
11
0.046684
21
0.065203
31
0.0
0
LINE
8
0
6
CONTINUOUS
10
0.037059
20
0.062618
30
0.0
11
0.037674
21
0.058857
31
0.0
0
LINE
8
0
6
CONTINUOUS
10
0.037151
20
0.064026
30
0.0
11
0.037774
21
0.060219
31
0.0
0
LINE
8
0
6
CONTINUOUS
10
0.030595
20
0.070724
30
0.0
11
0.031730
21
0.069841
31
0.0
0
LINE
8
0
6
CONTINUOUS
10
0.034318
20
0.063819
30
0.0
11
0.033016
21
0.063713
31
0.0
0
LINE
8
0
6
CONTINUOUS
10
0.037074
20
0.060403
30
0.0
11
0.037422
21
0.060403
31
0.0
0
LINE
8
0
6
CONTINUOUS
10
0.034415
20
0.060403
30
0.0
11
0.037074
21
0.060403
31
0.0
0
LINE
8
0
6
CONTINUOUS
10
0.036199
20
0.064539
30
0.0
11
0.035339
21
0.065247
31
0.0
0
LINE
8
0
6
CONTINUOUS
10
0.031974
20
0.060403
30
0.0
11
0.034415
21
0.060403
31
0.0
0
LINE
8
0
6
CONTINUOUS
10
0.014074
20
0.060403
30
0.0
11
0.031974
21
0.060403
31
0.0
0
LINE
8
0
6
CONTINUOUS
10
0.033016
20
0.063713
30
0.0
11
0.032109
21
0.063514
31
0.0
0
LINE
8
0
6
CONTINUOUS
10
0.042838
20
0.068241
30
0.0
11
0.042568
21
0.069142
31
0.0
0
LINE
8
0
6
CONTINUOUS
10
0.033325
20
0.068549
30
0.0
11
0.031730
21
0.069841
31
0.0
0
LINE
8
0
6
CONTINUOUS
10
0.046355
20
0.069624
30
0.0
11
0.046668
21
0.072243
31
0.0
0
LINE
8
0
6
CONTINUOUS
10
0.033325
20
0.068549
30
0.0
11
0.035085
21
0.067196
31
0.0
0
LINE
8
0
6
CONTINUOUS
10
0.035809
20
0.063744
30
0.0
11
0.034318
21
0.063819
31
0.0
0
LINE
8
0
6
CONTINUOUS
10
0.051166
20
0.036191
30
0.0
11
0.051126
21
0.036438
31
0.0
0
LINE
8
0
6
CONTINUOUS
10
0.050479
20
0.037685
30
0.0
11
0.050519
21
0.037438
31
0.0
0
LINE
8
0
6
CONTINUOUS
10
0.051166
20
0.036191
30
0.0
11
0.050519
21
0.037438
31
0.0
0
LINE
8
0
6
CONTINUOUS
10
0.050237
20
0.033560
30
0.0
11
0.050652
21
0.034195
31
0.0
0
LINE
8
0
6
CONTINUOUS
10
0.048414
20
0.038610
30
0.0
11
0.047480
21
0.038876
31
0.0
0
LINE
8
0
6
CONTINUOUS
10
0.050519
20
0.037438
30
0.0
11
0.049872
21
0.037909
31
0.0
0
LINE
8
0
6
CONTINUOUS
10
0.047480
20
0.038876
30
0.0
11
0.045550
21
0.038847
31
0.0
0
LINE
8
0
6
CONTINUOUS
10
0.045550
20
0.038847
30
0.0
11
0.043729
21
0.038300
31
0.0
0
LINE
8
0
6
CONTINUOUS
10
0.043729
20
0.038300
30
0.0
11
0.042294
21
0.037318
31
0.0
0
LINE
8
0
6
CONTINUOUS
10
0.042294
20
0.037318
30
0.0
11
0.041463
21
0.036049
31
0.0
0
LINE
8
0
6
CONTINUOUS
10
0.041463
20
0.036049
30
0.0
11
0.041423
21
0.036296
31
0.0
0
LINE
8
0
6
CONTINUOUS
10
0.041324
20
0.034935
30
0.0
11
0.041364
21
0.034687
31
0.0
0
LINE
8
0
6
CONTINUOUS
10
0.041463
20
0.036049
30
0.0
11
0.041364
21
0.034687
31
0.0
0
LINE
8
0
6
CONTINUOUS
10
0.051067
20
0.034829
30
0.0
11
0.051166
21
0.036191
31
0.0
0
LINE
8
0
6
CONTINUOUS
10
0.048802
20
0.032578
30
0.0
11
0.049570
21
0.033104
31
0.0
0
LINE
8
0
6
CONTINUOUS
10
0.046981
20
0.032031
30
0.0
11
0.048802
21
0.032578
31
0.0
0
LINE
8
0
6
CONTINUOUS
10
0.045051
20
0.032002
30
0.0
11
0.046981
21
0.032031
31
0.0
0
LINE
8
0
6
CONTINUOUS
10
0.043305
20
0.032497
30
0.0
11
0.045051
21
0.032002
31
0.0
0
LINE
8
0
6
CONTINUOUS
10
0.042011
20
0.033440
30
0.0
11
0.043305
21
0.032497
31
0.0
0
LINE
8
0
6
CONTINUOUS
10
0.041364
20
0.034687
30
0.0
11
0.042011
21
0.033440
31
0.0
0
LINE
8
0
6
CONTINUOUS
10
0.046830
20
0.061607
30
0.0
11
0.050479
21
0.037685
31
0.0
0
LINE
8
0
6
CONTINUOUS
10
0.051126
20
0.036438
30
0.0
11
0.047476
21
0.060360
31
0.0
0
LINE
8
0
6
CONTINUOUS
10
0.045259
20
0.091526
30
0.0
11
0.046227
21
0.093944
31
0.0
0
LINE
8
0
6
CONTINUOUS
10
0.044496
20
0.088135
30
0.0
11
0.045259
21
0.091526
31
0.0
0
LINE
8
0
6
CONTINUOUS
10
0.049624
20
0.094560
30
0.0
11
0.048482
21
0.095611
31
0.0
0
LINE
8
0
6
CONTINUOUS
10
0.050630
20
0.092405
30
0.0
11
0.049624
21
0.094560
31
0.0
0
LINE
8
0
6
CONTINUOUS
10
0.051478
20
0.089352
30
0.0
11
0.050630
21
0.092405
31
0.0
0
LINE
8
0
6
CONTINUOUS
10
0.048482
20
0.095611
30
0.0
11
0.047669
21
0.095610
31
0.0
0
LINE
8
0
6
CONTINUOUS
10
0.047311
20
0.095369
30
0.0
11
0.048482
21
0.095611
31
0.0
0
LINE
8
0
6
CONTINUOUS
10
0.043957
20
0.084115
30
0.0
11
0.043694
21
0.079546
31
0.0
0
LINE
8
0
6
CONTINUOUS
10
0.044496
20
0.088135
30
0.0
11
0.043957
21
0.084115
31
0.0
0
LINE
8
0
6
CONTINUOUS
10
0.043694
20
0.079546
30
0.0
11
0.043754
21
0.074865
31
0.0
0
LINE
8
0
6
CONTINUOUS
10
0.046227
20
0.093944
30
0.0
11
0.047311
21
0.095369
31
0.0
0
LINE
8
0
6
CONTINUOUS
10
0.044625
20
0.067551
30
0.0
11
0.044932
21
0.065860
31
0.0
0
LINE
8
0
6
CONTINUOUS
10
0.043933
20
0.071325
30
0.0
11
0.043913
21
0.072291
31
0.0
0
LINE
8
0
6
CONTINUOUS
10
0.043913
20
0.072291
30
0.0
11
0.043754
21
0.074865
31
0.0
0
LINE
8
0
6
CONTINUOUS
10
0.050934
20
0.064488
30
0.0
11
0.051698
21
0.067879
31
0.0
0
LINE
8
0
6
CONTINUOUS
10
0.049966
20
0.062070
30
0.0
11
0.050934
21
0.064488
31
0.0
0
LINE
8
0
6
CONTINUOUS
10
0.052500
20
0.076468
30
0.0
11
0.052439
21
0.081149
31
0.0
0
LINE
8
0
6
CONTINUOUS
10
0.052439
20
0.081149
30
0.0
11
0.052083
21
0.085483
31
0.0
0
LINE
8
0
6
CONTINUOUS
10
0.052083
20
0.085483
30
0.0
11
0.051478
21
0.089352
31
0.0
0
LINE
8
0
6
CONTINUOUS
10
0.052237
20
0.071899
30
0.0
11
0.052500
21
0.076468
31
0.0
0
LINE
8
0
6
CONTINUOUS
10
0.047712
20
0.060403
30
0.0
11
0.048882
21
0.060645
31
0.0
0
LINE
8
0
6
CONTINUOUS
10
0.048882
20
0.060645
30
0.0
11
0.049966
21
0.062070
31
0.0
0
LINE
8
0
6
CONTINUOUS
10
0.051698
20
0.067879
30
0.0
11
0.052237
21
0.071899
31
0.0
0
LINE
8
0
6
CONTINUOUS
10
0.044100
20
0.070040
30
0.0
11
0.043933
21
0.071325
31
0.0
0
LINE
8
0
6
CONTINUOUS
10
0.044475
20
0.068557
30
0.0
11
0.044100
21
0.070040
31
0.0
0
LINE
8
0
6
CONTINUOUS
10
0.044475
20
0.068557
30
0.0
11
0.044625
21
0.067551
31
0.0
0
LINE
8
0
6
CONTINUOUS
10
0.049570
20
0.033104
30
0.0
11
0.050237
21
0.033560
31
0.0
0
LINE
8
0
6
CONTINUOUS
10
0.049225
20
0.038381
30
0.0
11
0.048414
21
0.038610
31
0.0
0
LINE
8
0
6
CONTINUOUS
10
0.049872
20
0.037909
30
0.0
11
0.049225
21
0.038381
31
0.0
0
LINE
8
0
6
CONTINUOUS
10
0.014435
20
0.095600
30
0.0
11
0.013262
21
0.095352
31
0.0
0
LINE
8
0
6
CONTINUOUS
10
0.014841
20
0.095600
30
0.0
11
0.014435
21
0.095600
31
0.0
0
LINE
8
0
6
CONTINUOUS
10
0.009913
20
0.084115
30
0.0
11
0.009650
21
0.079546
31
0.0
0
LINE
8
0
6
CONTINUOUS
10
0.010452
20
0.088135
30
0.0
11
0.009913
21
0.084115
31
0.0
0
LINE
8
0
6
CONTINUOUS
10
0.011216
20
0.091526
30
0.0
11
0.010452
21
0.088135
31
0.0
0
LINE
8
0
6
CONTINUOUS
10
0.012179
20
0.093930
30
0.0
11
0.011216
21
0.091526
31
0.0
0
LINE
8
0
6
CONTINUOUS
10
0.009650
20
0.079546
30
0.0
11
0.009711
21
0.074865
31
0.0
0
LINE
8
0
6
CONTINUOUS
10
0.009711
20
0.074865
30
0.0
11
0.010067
21
0.070531
31
0.0
0
LINE
8
0
6
CONTINUOUS
10
0.010067
20
0.070531
30
0.0
11
0.010672
21
0.066662
31
0.0
0
LINE
8
0
6
CONTINUOUS
10
0.013262
20
0.095352
30
0.0
11
0.012179
21
0.093930
31
0.0
0
LINE
8
0
6
CONTINUOUS
10
0.013668
20
0.060403
30
0.0
11
0.014074
21
0.060403
31
0.0
0
LINE
8
0
6
CONTINUOUS
10
0.012526
20
0.061454
30
0.0
11
0.013668
21
0.060403
31
0.0
0
LINE
8
0
6
CONTINUOUS
10
0.011520
20
0.063610
30
0.0
11
0.012526
21
0.061454
31
0.0
0
LINE
8
0
6
CONTINUOUS
10
0.010672
20
0.066662
30
0.0
11
0.011520
21
0.063610
31
0.0
0
LINE
8
0
6
CONTINUOUS
10
-0.037728
20
0.089326
30
0.0
11
-0.040826
21
0.086229
31
0.0
0
LINE
8
0
6
CONTINUOUS
10
-0.040826
20
0.086229
30
0.0
11
-0.042814
21
0.082326
31
0.0
0
LINE
8
0
6
CONTINUOUS
10
-0.042814
20
0.082326
30
0.0
11
-0.043500
21
0.078000
31
0.0
0
LINE
8
0
6
CONTINUOUS
10
-0.043500
20
0.078000
30
0.0
11
-0.043499
21
0.077235
31
0.0
0
LINE
8
0
6
CONTINUOUS
10
-0.015500
20
0.078000
30
0.0
11
-0.016185
21
0.082326
31
0.0
0
LINE
8
0
6
CONTINUOUS
10
-0.015499
20
0.077235
30
0.0
11
-0.015500
21
0.078000
31
0.0
0
LINE
8
0
6
CONTINUOUS
10
-0.016185
20
0.082326
30
0.0
11
-0.018173
21
0.086229
31
0.0
0
LINE
8
0
6
CONTINUOUS
10
-0.018173
20
0.086229
30
0.0
11
-0.021271
21
0.089326
31
0.0
0
LINE
8
0
6
CONTINUOUS
10
-0.021271
20
0.089326
30
0.0
11
-0.025173
21
0.091315
31
0.0
0
LINE
8
0
6
CONTINUOUS
10
-0.025173
20
0.091315
30
0.0
11
-0.029500
21
0.092000
31
0.0
0
LINE
8
0
6
CONTINUOUS
10
-0.029500
20
0.092000
30
0.0
11
-0.033826
21
0.091315
31
0.0
0
LINE
8
0
6
CONTINUOUS
10
-0.043499
20
0.077235
30
0.0
11
-0.043499
21
0.073496
31
0.0
0
LINE
8
0
6
CONTINUOUS
10
-0.015499
20
0.073496
30
0.0
11
-0.015499
21
0.077235
31
0.0
0
LINE
8
0
6
CONTINUOUS
10
-0.043499
20
0.073496
30
0.0
11
-0.043499
21
0.067118
31
0.0
0
LINE
8
0
6
CONTINUOUS
10
-0.015499
20
0.067118
30
0.0
11
-0.015499
21
0.073496
31
0.0
0
LINE
8
0
6
CONTINUOUS
10
-0.043499
20
0.067118
30
0.0
11
-0.043499
21
0.058674
31
0.0
0
LINE
8
0
6
CONTINUOUS
10
-0.015500
20
0.058674
30
0.0
11
-0.015499
21
0.067118
31
0.0
0
LINE
8
0
6
CONTINUOUS
10
-0.043499
20
0.058674
30
0.0
11
-0.043500
21
0.048922
31
0.0
0
LINE
8
0
6
CONTINUOUS
10
-0.015500
20
0.048922
30
0.0
11
-0.015500
21
0.058674
31
0.0
0
LINE
8
0
6
CONTINUOUS
10
-0.015500
20
0.041223
30
0.0
11
-0.015500
21
0.048922
31
0.0
0
LINE
8
0
6
CONTINUOUS
10
-0.043500
20
0.048922
30
0.0
11
-0.043500
21
0.041223
31
0.0
0
LINE
8
0
6
CONTINUOUS
10
-0.015500
20
-0.099190
30
0.0
11
-0.015500
21
0.041223
31
0.0
0
LINE
8
0
6
CONTINUOUS
10
-0.043500
20
0.041223
30
0.0
11
-0.043500
21
-0.099190
31
0.0
0
LINE
8
0
6
CONTINUOUS
10
-0.033826
20
0.091315
30
0.0
11
-0.037728
21
0.089326
31
0.0
0
LINE
8
0
6
CONTINUOUS
10
-0.037729
20
-0.099534
30
0.0
11
-0.033826
21
-0.099419
31
0.0
0
LINE
8
0
6
CONTINUOUS
10
-0.040826
20
-0.099713
30
0.0
11
-0.037729
21
-0.099534
31
0.0
0
LINE
8
0
6
CONTINUOUS
10
-0.042814
20
-0.099939
30
0.0
11
-0.040826
21
-0.099713
31
0.0
0
LINE
8
0
6
CONTINUOUS
10
-0.043500
20
-0.099190
30
0.0
11
-0.043500
21
-0.100189
31
0.0
0
LINE
8
0
6
CONTINUOUS
10
-0.043500
20
-0.100189
30
0.0
11
-0.042814
21
-0.099939
31
0.0
0
LINE
8
0
6
CONTINUOUS
10
-0.043500
20
-0.100189
30
0.0
11
-0.042814
21
-0.100440
31
0.0
0
LINE
8
0
6
CONTINUOUS
10
-0.042814
20
-0.100440
30
0.0
11
-0.040826
21
-0.100666
31
0.0
0
LINE
8
0
6
CONTINUOUS
10
-0.040826
20
-0.100666
30
0.0
11
-0.037729
21
-0.100845
31
0.0
0
LINE
8
0
6
CONTINUOUS
10
-0.037729
20
-0.100845
30
0.0
11
-0.033826
21
-0.100960
31
0.0
0
LINE
8
0
6
CONTINUOUS
10
-0.033826
20
-0.100960
30
0.0
11
-0.029500
21
-0.101000
31
0.0
0
LINE
8
0
6
CONTINUOUS
10
-0.029500
20
-0.101000
30
0.0
11
-0.025173
21
-0.100960
31
0.0
0
LINE
8
0
6
CONTINUOUS
10
-0.025173
20
-0.100960
30
0.0
11
-0.021271
21
-0.100845
31
0.0
0
LINE
8
0
6
CONTINUOUS
10
-0.021271
20
-0.100845
30
0.0
11
-0.018173
21
-0.100666
31
0.0
0
LINE
8
0
6
CONTINUOUS
10
-0.018173
20
-0.100666
30
0.0
11
-0.016185
21
-0.100440
31
0.0
0
LINE
8
0
6
CONTINUOUS
10
-0.016185
20
-0.100440
30
0.0
11
-0.015500
21
-0.100189
31
0.0
0
LINE
8
0
6
CONTINUOUS
10
-0.015500
20
-0.100189
30
0.0
11
-0.015500
21
-0.099190
31
0.0
0
LINE
8
0
6
CONTINUOUS
10
-0.016185
20
-0.099939
30
0.0
11
-0.015500
21
-0.100189
31
0.0
0
LINE
8
0
6
CONTINUOUS
10
-0.018173
20
-0.099713
30
0.0
11
-0.016185
21
-0.099939
31
0.0
0
LINE
8
0
6
CONTINUOUS
10
-0.021271
20
-0.099534
30
0.0
11
-0.018173
21
-0.099713
31
0.0
0
LINE
8
0
6
CONTINUOUS
10
-0.025173
20
-0.099419
30
0.0
11
-0.021271
21
-0.099534
31
0.0
0
LINE
8
0
6
CONTINUOUS
10
-0.029500
20
-0.099379
30
0.0
11
-0.025173
21
-0.099419
31
0.0
0
LINE
8
0
6
CONTINUOUS
10
-0.033826
20
-0.099419
30
0.0
11
-0.029500
21
-0.099379
31
0.0
0
LINE
8
0
6
CONTINUOUS
10
-0.008027
20
0.083540
30
0.0
11
-0.011097
21
0.083483
31
0.0
0
LINE
8
0
6
CONTINUOUS
10
-0.015908
20
0.095797
30
0.0
11
-0.018196
21
0.095917
31
0.0
0
LINE
8
0
6
CONTINUOUS
10
-0.010388
20
0.088653
30
0.0
11
-0.008027
21
0.083540
31
0.0
0
LINE
8
0
6
CONTINUOUS
10
-0.020503
20
0.096025
30
0.0
11
-0.021950
21
0.096261
31
0.0
0
LINE
8
0
6
CONTINUOUS
10
-0.012570
20
0.095666
30
0.0
11
-0.013637
21
0.095666
31
0.0
0
LINE
8
0
6
CONTINUOUS
10
-0.033826
20
0.091315
30
0.0
11
-0.029500
21
0.092000
31
0.0
0
LINE
8
0
6
CONTINUOUS
10
-0.051374
20
0.085107
30
0.0
11
-0.052500
21
0.078000
31
0.0
0
LINE
8
0
6
CONTINUOUS
10
-0.048107
20
0.091519
30
0.0
11
-0.051374
21
0.085107
31
0.0
0
LINE
8
0
6
CONTINUOUS
10
-0.043019
20
0.096607
30
0.0
11
-0.048107
21
0.091519
31
0.0
0
LINE
8
0
6
CONTINUOUS
10
-0.036607
20
0.099874
30
0.0
11
-0.043019
21
0.096607
31
0.0
0
LINE
8
0
6
CONTINUOUS
10
-0.029500
20
0.101000
30
0.0
11
-0.036607
21
0.099874
31
0.0
0
LINE
8
0
6
CONTINUOUS
10
-0.022392
20
0.099874
30
0.0
11
-0.029500
21
0.101000
31
0.0
0
LINE
8
0
6
CONTINUOUS
10
-0.015980
20
0.096607
30
0.0
11
-0.022392
21
0.099874
31
0.0
0
LINE
8
0
6
CONTINUOUS
10
-0.015125
20
0.095752
30
0.0
11
-0.015980
21
0.096607
31
0.0
0
LINE
8
0
6
CONTINUOUS
10
0.011560
20
0.095663
30
0.0
11
0.010592
21
0.095663
31
0.0
0
LINE
8
0
6
CONTINUOUS
10
0.010195
20
0.094800
30
0.0
11
0.011560
21
0.095663
31
0.0
0
LINE
8
0
6
CONTINUOUS
10
0.008963
20
0.092292
30
0.0
11
0.010195
21
0.094800
31
0.0
0
LINE
8
0
6
CONTINUOUS
10
0.007985
20
0.088384
30
0.0
11
0.008963
21
0.092292
31
0.0
0
LINE
8
0
6
CONTINUOUS
10
0.007356
20
0.083461
30
0.0
11
0.007985
21
0.088384
31
0.0
0
LINE
8
0
6
CONTINUOUS
10
0.007139
20
0.078000
30
0.0
11
0.007356
21
0.083461
31
0.0
0
LINE
8
0
6
CONTINUOUS
10
0.012925
20
0.094798
30
0.0
11
0.011560
21
0.095663
31
0.0
0
LINE
8
0
6
CONTINUOUS
10
-0.020226
20
0.095138
30
0.0
11
-0.018389
21
0.092595
31
0.0
0
LINE
8
0
6
CONTINUOUS
10
-0.017722
20
0.095003
30
0.0
11
-0.018389
21
0.092595
31
0.0
0
LINE
8
0
6
CONTINUOUS
10
-0.017031
20
0.092486
30
0.0
11
-0.017722
21
0.095003
31
0.0
0
LINE
8
0
6
CONTINUOUS
10
-0.018196
20
0.095917
30
0.0
11
-0.020503
21
0.096025
31
0.0
0
LINE
8
0
6
CONTINUOUS
10
-0.013637
20
0.095666
30
0.0
11
-0.015908
21
0.095797
31
0.0
0
LINE
8
0
6
CONTINUOUS
10
-0.008027
20
0.083540
30
0.0
11
-0.007218
21
0.078000
31
0.0
0
LINE
8
0
6
CONTINUOUS
10
-0.003743
20
0.083552
30
0.0
11
-0.008027
21
0.083540
31
0.0
0
LINE
8
0
6
CONTINUOUS
10
-0.002934
20
0.078000
30
0.0
11
-0.003743
21
0.083552
31
0.0
0
LINE
8
0
6
CONTINUOUS
10
-0.006097
20
0.088661
30
0.0
11
-0.003743
21
0.083552
31
0.0
0
LINE
8
0
6
CONTINUOUS
10
0.010592
20
0.095663
30
0.0
11
-0.012570
21
0.095666
31
0.0
0
LINE
8
0
6
CONTINUOUS
10
-0.020859
20
0.096180
30
0.0
11
-0.023381
21
0.096832
31
0.0
0
LINE
8
0
6
CONTINUOUS
10
-0.011097
20
0.083483
30
0.0
11
-0.012863
21
0.083405
31
0.0
0
LINE
8
0
6
CONTINUOUS
10
-0.043500
20
0.078000
30
0.0
11
-0.042814
21
0.082326
31
0.0
0
LINE
8
0
6
CONTINUOUS
10
-0.011097
20
0.072518
30
0.0
11
-0.008027
21
0.072460
31
0.0
0
LINE
8
0
6
CONTINUOUS
10
-0.007218
20
0.078000
30
0.0
11
-0.010299
21
0.078000
31
0.0
0
LINE
8
0
6
CONTINUOUS
10
-0.008027
20
0.072460
30
0.0
11
-0.010388
21
0.067347
31
0.0
0
LINE
8
0
6
CONTINUOUS
10
-0.013637
20
0.060334
30
0.0
11
-0.012570
21
0.060334
31
0.0
0
LINE
8
0
6
CONTINUOUS
10
-0.052500
20
0.078000
30
0.0
11
-0.051374
21
0.070893
31
0.0
0
LINE
8
0
6
CONTINUOUS
10
-0.051374
20
0.070893
30
0.0
11
-0.048107
21
0.064481
31
0.0
0
LINE
8
0
6
CONTINUOUS
10
-0.048107
20
0.064481
30
0.0
11
-0.043499
21
0.059874
31
0.0
0
LINE
8
0
6
CONTINUOUS
10
-0.015500
20
0.059874
30
0.0
11
-0.015125
21
0.060248
31
0.0
0
LINE
8
0
6
CONTINUOUS
10
0.011560
20
0.060337
30
0.0
11
0.010195
21
0.061200
31
0.0
0
LINE
8
0
6
CONTINUOUS
10
0.010592
20
0.060337
30
0.0
11
0.011560
21
0.060337
31
0.0
0
LINE
8
0
6
CONTINUOUS
10
0.010195
20
0.061200
30
0.0
11
0.008963
21
0.063708
31
0.0
0
LINE
8
0
6
CONTINUOUS
10
0.008963
20
0.063708
30
0.0
11
0.007985
21
0.067616
31
0.0
0
LINE
8
0
6
CONTINUOUS
10
0.007985
20
0.067616
30
0.0
11
0.007356
21
0.072539
31
0.0
0
LINE
8
0
6
CONTINUOUS
10
0.007356
20
0.072539
30
0.0
11
0.007139
21
0.078000
31
0.0
0
LINE
8
0
6
CONTINUOUS
10
0.011560
20
0.060337
30
0.0
11
0.012925
21
0.061202
31
0.0
0
LINE
8
0
6
CONTINUOUS
10
-0.015500
20
0.060227
30
0.0
11
-0.013637
21
0.060334
31
0.0
0
LINE
8
0
6
CONTINUOUS
10
-0.002934
20
0.078000
30
0.0
11
-0.007218
21
0.078000
31
0.0
0
LINE
8
0
6
CONTINUOUS
10
-0.003743
20
0.072448
30
0.0
11
-0.002934
21
0.078000
31
0.0
0
LINE
8
0
6
CONTINUOUS
10
-0.008027
20
0.072460
30
0.0
11
-0.003743
21
0.072448
31
0.0
0
LINE
8
0
6
CONTINUOUS
10
-0.007218
20
0.078000
30
0.0
11
-0.008027
21
0.072460
31
0.0
0
LINE
8
0
6
CONTINUOUS
10
-0.003743
20
0.072448
30
0.0
11
-0.006097
21
0.067339
31
0.0
0
LINE
8
0
6
CONTINUOUS
10
-0.012570
20
0.060334
30
0.0
11
0.010592
21
0.060337
31
0.0
0
LINE
8
0
6
CONTINUOUS
10
-0.010299
20
0.078000
30
0.0
11
-0.012080
21
0.078000
31
0.0
0
LINE
8
0
6
CONTINUOUS
10
-0.012863
20
0.072595
30
0.0
11
-0.011097
21
0.072518
31
0.0
0
LINE
8
0
6
CONTINUOUS
10
0.009170
20
0.064418
30
0.0
11
0.009109
21
0.064637
31
0.0
0
LINE
8
0
6
CONTINUOUS
10
0.011694
20
0.094566
30
0.0
11
0.011560
21
0.094537
31
0.0
0
LINE
8
0
6
CONTINUOUS
10
0.011560
20
0.094537
30
0.0
11
0.011289
21
0.094480
31
0.0
0
LINE
8
0
6
CONTINUOUS
10
0.010523
20
0.093995
30
0.0
11
0.010271
21
0.093664
31
0.0
0
LINE
8
0
6
CONTINUOUS
10
0.008162
20
0.087567
30
0.0
11
0.008186
21
0.087675
31
0.0
0
LINE
8
0
6
CONTINUOUS
10
0.007555
20
0.082088
30
0.0
11
0.007632
21
0.083419
31
0.0
0
LINE
8
0
6
CONTINUOUS
10
0.007422
20
0.078000
30
0.0
11
0.007415
21
0.078565
31
0.0
0
LINE
8
0
6
CONTINUOUS
10
0.009109
20
0.091331
30
0.0
11
0.009022
21
0.091114
31
0.0
0
LINE
8
0
6
CONTINUOUS
10
0.008186
20
0.087675
30
0.0
11
0.008413
21
0.088684
31
0.0
0
LINE
8
0
6
CONTINUOUS
10
0.009406
20
0.092072
30
0.0
11
0.009109
21
0.091331
31
0.0
0
LINE
8
0
6
CONTINUOUS
10
0.010271
20
0.093664
30
0.0
11
0.010037
21
0.093356
31
0.0
0
LINE
8
0
6
CONTINUOUS
10
0.011289
20
0.094480
30
0.0
11
0.010816
21
0.094380
31
0.0
0
LINE
8
0
6
CONTINUOUS
10
0.007404
20
0.079460
30
0.0
11
0.007555
21
0.082088
31
0.0
0
LINE
8
0
6
CONTINUOUS
10
0.007415
20
0.078565
30
0.0
11
0.007404
21
0.079460
31
0.0
0
LINE
8
0
6
CONTINUOUS
10
0.009022
20
0.091114
30
0.0
11
0.008883
21
0.090768
31
0.0
0
LINE
8
0
6
CONTINUOUS
10
0.011921
20
0.094613
30
0.0
11
0.011694
21
0.094566
31
0.0
0
LINE
8
0
6
CONTINUOUS
10
0.010037
20
0.093356
30
0.0
11
0.009792
21
0.093035
31
0.0
0
LINE
8
0
6
CONTINUOUS
10
0.007632
20
0.083419
30
0.0
11
0.007652
21
0.083767
31
0.0
0
ENDSEC
0
EOF
