999
Erzeugt mit innoplus bad 
0
SECTION
2
HEADER
9
$ACADVER
1
AC1009
9
$DWGCODEPAGE
3
ISO8859-1
0
ENDSEC
0
SECTION
2
TABLES
0
TABLE
2
LAYER
70
1
0
LAYER
2
0
70
0
62
7
6
CONTINUOUS
0
ENDTAB
0
ENDSEC
0
SECTION
2
ENTITIES
0
LINE
8
0
6
CONTINUOUS
10
0.046272
20
-0.046023
30
0.0
11
0.046646
21
-0.043115
31
0.0
0
LINE
8
0
6
CONTINUOUS
10
0.041423
20
-0.005549
30
0.0
11
0.037774
21
-0.035934
31
0.0
0
LINE
8
0
6
CONTINUOUS
10
0.035371
20
-0.044068
30
0.0
11
0.034004
21
-0.044677
31
0.0
0
LINE
8
0
6
CONTINUOUS
10
0.047291
20
-0.054779
30
0.0
11
0.046668
21
-0.051171
31
0.0
0
LINE
8
0
6
CONTINUOUS
10
0.037210
20
-0.042372
30
0.0
11
0.035085
21
-0.044332
31
0.0
0
LINE
8
0
6
CONTINUOUS
10
0.035716
20
-0.042913
30
0.0
11
0.033057
21
-0.043600
31
0.0
0
LINE
8
0
6
CONTINUOUS
10
0.033057
20
-0.043600
30
0.0
11
0.030397
21
-0.044287
31
0.0
0
LINE
8
0
6
CONTINUOUS
10
0.046355
20
-0.048029
30
0.0
11
0.046412
21
-0.045245
31
0.0
0
LINE
8
0
6
CONTINUOUS
10
0.030397
20
-0.044287
30
0.0
11
0.027956
21
-0.044918
31
0.0
0
LINE
8
0
6
CONTINUOUS
10
0.027956
20
-0.044918
30
0.0
11
0.010057
21
-0.049541
31
0.0
0
LINE
8
0
6
CONTINUOUS
10
0.037151
20
-0.040781
30
0.0
11
0.036308
21
-0.043392
31
0.0
0
LINE
8
0
6
CONTINUOUS
10
0.037774
20
-0.035934
30
0.0
11
0.037151
21
-0.040781
31
0.0
0
LINE
8
0
6
CONTINUOUS
10
0.030595
20
-0.045892
30
0.0
11
0.031730
21
-0.045647
31
0.0
0
LINE
8
0
6
CONTINUOUS
10
0.018859
20
-0.083618
30
0.0
11
0.036759
21
-0.078996
31
0.0
0
LINE
8
0
6
CONTINUOUS
10
0.035809
20
-0.047137
30
0.0
11
0.038222
21
-0.046289
31
0.0
0
LINE
8
0
6
CONTINUOUS
10
0.034318
20
-0.048954
30
0.0
11
0.033016
21
-0.050627
31
0.0
0
LINE
8
0
6
CONTINUOUS
10
0.038321
20
-0.038053
30
0.0
11
0.041971
21
-0.007668
31
0.0
0
LINE
8
0
6
CONTINUOUS
10
0.041324
20
-0.006634
30
0.0
11
0.037674
21
-0.037020
31
0.0
0
LINE
8
0
6
CONTINUOUS
10
0.047179
20
-0.076306
30
0.0
11
0.049839
21
-0.075623
31
0.0
0
LINE
8
0
6
CONTINUOUS
10
0.044519
20
-0.076992
30
0.0
11
0.047179
21
-0.076306
31
0.0
0
LINE
8
0
6
CONTINUOUS
10
0.047377
20
-0.037423
30
0.0
11
0.051026
21
-0.007038
31
0.0
0
LINE
8
0
6
CONTINUOUS
10
0.044013
20
-0.046787
30
0.0
11
0.044160
21
-0.045747
31
0.0
0
LINE
8
0
6
CONTINUOUS
10
0.036199
20
-0.044394
30
0.0
11
0.035339
21
-0.045487
31
0.0
0
LINE
8
0
6
CONTINUOUS
10
0.041860
20
-0.077679
30
0.0
11
0.044519
21
-0.076992
31
0.0
0
LINE
8
0
6
CONTINUOUS
10
0.036759
20
-0.078996
30
0.0
11
0.039201
21
-0.078366
31
0.0
0
LINE
8
0
6
CONTINUOUS
10
0.039201
20
-0.078366
30
0.0
11
0.041860
21
-0.077679
31
0.0
0
LINE
8
0
6
CONTINUOUS
10
0.049839
20
-0.075623
30
0.0
11
0.051687
21
-0.075149
31
0.0
0
LINE
8
0
6
CONTINUOUS
10
0.036856
20
-0.045512
30
0.0
11
0.038222
21
-0.046289
31
0.0
0
LINE
8
0
6
CONTINUOUS
10
0.036856
20
-0.045512
30
0.0
11
0.037699
21
-0.042900
31
0.0
0
LINE
8
0
6
CONTINUOUS
10
0.037059
20
-0.041807
30
0.0
11
0.036199
21
-0.044394
31
0.0
0
LINE
8
0
6
CONTINUOUS
10
0.037674
20
-0.037020
30
0.0
11
0.037059
21
-0.041807
31
0.0
0
LINE
8
0
6
CONTINUOUS
10
0.038321
20
-0.038053
30
0.0
11
0.037699
21
-0.042900
31
0.0
0
LINE
8
0
6
CONTINUOUS
10
0.046646
20
-0.043115
30
0.0
11
0.047377
21
-0.037423
31
0.0
0
LINE
8
0
6
CONTINUOUS
10
0.033016
20
-0.050627
30
0.0
11
0.032109
21
-0.051751
31
0.0
0
LINE
8
0
6
CONTINUOUS
10
0.033325
20
-0.045111
30
0.0
11
0.031730
21
-0.045647
31
0.0
0
LINE
8
0
6
CONTINUOUS
10
0.033325
20
-0.045111
30
0.0
11
0.035085
21
-0.044332
31
0.0
0
LINE
8
0
6
CONTINUOUS
10
0.046668
20
-0.051171
30
0.0
11
0.046355
21
-0.048029
31
0.0
0
LINE
8
0
6
CONTINUOUS
10
0.039947
20
-0.047503
30
0.0
11
0.037928
21
-0.047383
31
0.0
0
LINE
8
0
6
CONTINUOUS
10
0.035809
20
-0.047137
30
0.0
11
0.034318
21
-0.048954
31
0.0
0
LINE
8
0
6
CONTINUOUS
10
0.037928
20
-0.047383
30
0.0
11
0.035809
21
-0.047137
31
0.0
0
LINE
8
0
6
CONTINUOUS
10
0.044013
20
-0.046787
30
0.0
11
0.043673
21
-0.048450
31
0.0
0
LINE
8
0
6
CONTINUOUS
10
0.051166
20
-0.005637
30
0.0
11
0.050519
21
-0.004604
31
0.0
0
LINE
8
0
6
CONTINUOUS
10
0.048414
20
-0.003552
30
0.0
11
0.047480
21
-0.003289
31
0.0
0
LINE
8
0
6
CONTINUOUS
10
0.050519
20
-0.004604
30
0.0
11
0.049872
21
-0.004191
31
0.0
0
LINE
8
0
6
CONTINUOUS
10
0.047480
20
-0.003289
30
0.0
11
0.045550
21
-0.003209
31
0.0
0
LINE
8
0
6
CONTINUOUS
10
0.045550
20
-0.003209
30
0.0
11
0.043729
21
-0.003550
31
0.0
0
LINE
8
0
6
CONTINUOUS
10
0.043729
20
-0.003550
30
0.0
11
0.042294
21
-0.004261
31
0.0
0
LINE
8
0
6
CONTINUOUS
10
0.042294
20
-0.004261
30
0.0
11
0.041463
21
-0.005234
31
0.0
0
LINE
8
0
6
CONTINUOUS
10
0.041463
20
-0.005234
30
0.0
11
0.041364
21
-0.006319
31
0.0
0
LINE
8
0
6
CONTINUOUS
10
0.051067
20
-0.006723
30
0.0
11
0.051166
21
-0.005637
31
0.0
0
LINE
8
0
6
CONTINUOUS
10
0.048802
20
-0.008406
30
0.0
11
0.049570
21
-0.008026
31
0.0
0
LINE
8
0
6
CONTINUOUS
10
0.051026
20
-0.007038
30
0.0
11
0.051067
21
-0.006723
31
0.0
0
LINE
8
0
6
CONTINUOUS
10
0.051067
20
-0.006723
30
0.0
11
0.050652
21
-0.007209
31
0.0
0
LINE
8
0
6
CONTINUOUS
10
0.048802
20
-0.008406
30
0.0
11
0.046981
21
-0.008748
31
0.0
0
LINE
8
0
6
CONTINUOUS
10
0.046981
20
-0.008748
30
0.0
11
0.045051
21
-0.008667
31
0.0
0
LINE
8
0
6
CONTINUOUS
10
0.045051
20
-0.008667
30
0.0
11
0.043305
21
-0.008178
31
0.0
0
LINE
8
0
6
CONTINUOUS
10
0.043305
20
-0.008178
30
0.0
11
0.042011
21
-0.007353
31
0.0
0
LINE
8
0
6
CONTINUOUS
10
0.041971
20
-0.007668
30
0.0
11
0.042011
21
-0.007353
31
0.0
0
LINE
8
0
6
CONTINUOUS
10
0.041364
20
-0.006319
30
0.0
11
0.041324
21
-0.006634
31
0.0
0
LINE
8
0
6
CONTINUOUS
10
0.042011
20
-0.007353
30
0.0
11
0.041364
21
-0.006319
31
0.0
0
LINE
8
0
6
CONTINUOUS
10
0.051698
20
-0.071836
30
0.0
11
0.050934
21
-0.068881
31
0.0
0
LINE
8
0
6
CONTINUOUS
10
0.049966
20
-0.065135
30
0.0
11
0.050934
21
-0.068881
31
0.0
0
LINE
8
0
6
CONTINUOUS
10
0.051687
20
-0.075149
30
0.0
11
0.052500
21
-0.074941
31
0.0
0
LINE
8
0
6
CONTINUOUS
10
0.052237
20
-0.073923
30
0.0
11
0.052500
21
-0.074941
31
0.0
0
LINE
8
0
6
CONTINUOUS
10
0.048882
20
-0.060939
30
0.0
11
0.047712
21
-0.056406
31
0.0
0
LINE
8
0
6
CONTINUOUS
10
0.049966
20
-0.065135
30
0.0
11
0.048882
21
-0.060939
31
0.0
0
LINE
8
0
6
CONTINUOUS
10
0.047712
20
-0.056406
30
0.0
11
0.046569
21
-0.051983
31
0.0
0
LINE
8
0
6
CONTINUOUS
10
0.052237
20
-0.073923
30
0.0
11
0.051698
21
-0.071836
31
0.0
0
LINE
8
0
6
CONTINUOUS
10
0.045728
20
-0.048728
30
0.0
11
0.045963
21
-0.049635
31
0.0
0
LINE
8
0
6
CONTINUOUS
10
0.045963
20
-0.049635
30
0.0
11
0.046569
21
-0.051983
31
0.0
0
LINE
8
0
6
CONTINUOUS
10
0.045592
20
-0.047443
30
0.0
11
0.045666
21
-0.045861
31
0.0
0
LINE
8
0
6
CONTINUOUS
10
0.045728
20
-0.048728
30
0.0
11
0.045592
21
-0.047443
31
0.0
0
LINE
8
0
6
CONTINUOUS
10
0.045654
20
-0.044766
30
0.0
11
0.044917
21
-0.045250
31
0.0
0
LINE
8
0
6
CONTINUOUS
10
0.045654
20
-0.044766
30
0.0
11
0.045666
21
-0.045861
31
0.0
0
LINE
8
0
6
CONTINUOUS
10
0.050237
20
-0.007695
30
0.0
11
0.049570
21
-0.008026
31
0.0
0
LINE
8
0
6
CONTINUOUS
10
0.050652
20
-0.007209
30
0.0
11
0.050237
21
-0.007695
31
0.0
0
LINE
8
0
6
CONTINUOUS
10
0.049225
20
-0.003779
30
0.0
11
0.048414
21
-0.003552
31
0.0
0
LINE
8
0
6
CONTINUOUS
10
0.049872
20
-0.004191
30
0.0
11
0.049225
21
-0.003779
31
0.0
0
LINE
8
0
6
CONTINUOUS
10
0.047224
20
-0.054520
30
0.0
11
0.048193
21
-0.058270
31
0.0
0
LINE
8
0
6
CONTINUOUS
10
0.010880
20
-0.050347
30
0.0
11
0.007404
21
-0.051245
31
0.0
0
LINE
8
0
6
CONTINUOUS
10
0.015712
20
-0.083411
30
0.0
11
0.019189
21
-0.082513
31
0.0
0
LINE
8
0
6
CONTINUOUS
10
0.010057
20
-0.049541
30
0.0
11
0.009650
21
-0.049646
31
0.0
0
LINE
8
0
6
CONTINUOUS
10
0.009650
20
-0.049646
30
0.0
11
0.009711
21
-0.049881
31
0.0
0
LINE
8
0
6
CONTINUOUS
10
0.009711
20
-0.049881
30
0.0
11
0.010067
21
-0.051260
31
0.0
0
LINE
8
0
6
CONTINUOUS
10
0.010067
20
-0.051260
30
0.0
11
0.010672
21
-0.053601
31
0.0
0
LINE
8
0
6
CONTINUOUS
10
0.018453
20
-0.083723
30
0.0
11
0.018859
21
-0.083618
31
0.0
0
LINE
8
0
6
CONTINUOUS
10
0.018188
20
-0.082698
30
0.0
11
0.018453
21
-0.083723
31
0.0
0
LINE
8
0
6
CONTINUOUS
10
0.014839
20
-0.069733
30
0.0
11
0.013668
21
-0.065200
31
0.0
0
LINE
8
0
6
CONTINUOUS
10
0.014839
20
-0.069733
30
0.0
11
0.015923
21
-0.073929
31
0.0
0
LINE
8
0
6
CONTINUOUS
10
0.015923
20
-0.073929
30
0.0
11
0.016891
21
-0.077675
31
0.0
0
LINE
8
0
6
CONTINUOUS
10
0.016891
20
-0.077675
30
0.0
11
0.017650
21
-0.080614
31
0.0
0
LINE
8
0
6
CONTINUOUS
10
0.012526
20
-0.060777
30
0.0
11
0.013668
21
-0.065200
31
0.0
0
LINE
8
0
6
CONTINUOUS
10
0.011520
20
-0.056884
30
0.0
11
0.012526
21
-0.060777
31
0.0
0
LINE
8
0
6
CONTINUOUS
10
0.010672
20
-0.053601
30
0.0
11
0.011520
21
-0.056884
31
0.0
0
LINE
8
0
6
CONTINUOUS
10
0.017650
20
-0.080614
30
0.0
11
0.018188
21
-0.082698
31
0.0
0
LINE
8
0
6
CONTINUOUS
10
-0.043500
20
0.075970
30
0.0
11
-0.043500
21
0.010500
31
0.0
0
LINE
8
0
6
CONTINUOUS
10
-0.015500
20
0.010500
30
0.0
11
-0.015500
21
0.075970
31
0.0
0
LINE
8
0
6
CONTINUOUS
10
-0.043499
20
0.086125
30
0.0
11
-0.043500
21
0.075970
31
0.0
0
LINE
8
0
6
CONTINUOUS
10
-0.015500
20
0.075970
30
0.0
11
-0.015499
21
0.086125
31
0.0
0
LINE
8
0
6
CONTINUOUS
10
-0.043499
20
0.095597
30
0.0
11
-0.043499
21
0.086125
31
0.0
0
LINE
8
0
6
CONTINUOUS
10
-0.015499
20
0.086125
30
0.0
11
-0.015499
21
0.095597
31
0.0
0
LINE
8
0
6
CONTINUOUS
10
-0.043499
20
0.103537
30
0.0
11
-0.043499
21
0.095597
31
0.0
0
LINE
8
0
6
CONTINUOUS
10
-0.015499
20
0.095597
30
0.0
11
-0.015499
21
0.103537
31
0.0
0
LINE
8
0
6
CONTINUOUS
10
-0.043499
20
0.109230
30
0.0
11
-0.043499
21
0.103537
31
0.0
0
LINE
8
0
6
CONTINUOUS
10
-0.015499
20
0.103537
30
0.0
11
-0.015500
21
0.109230
31
0.0
0
LINE
8
0
6
CONTINUOUS
10
-0.043500
20
0.112166
30
0.0
11
-0.043499
21
0.109230
31
0.0
0
LINE
8
0
6
CONTINUOUS
10
-0.015500
20
0.109230
30
0.0
11
-0.015500
21
0.112166
31
0.0
0
LINE
8
0
6
CONTINUOUS
10
-0.043500
20
0.112545
30
0.0
11
-0.043500
21
0.112166
31
0.0
0
LINE
8
0
6
CONTINUOUS
10
-0.015500
20
0.112166
30
0.0
11
-0.015500
21
0.112545
31
0.0
0
LINE
8
0
6
CONTINUOUS
10
-0.043500
20
0.117496
30
0.0
11
-0.043500
21
0.112545
31
0.0
0
LINE
8
0
6
CONTINUOUS
10
-0.015500
20
0.112545
30
0.0
11
-0.015500
21
0.117496
31
0.0
0
LINE
8
0
6
CONTINUOUS
10
-0.033826
20
0.130816
30
0.0
11
-0.037729
21
0.128832
31
0.0
0
LINE
8
0
6
CONTINUOUS
10
-0.037729
20
0.128832
30
0.0
11
-0.040826
21
0.125742
31
0.0
0
LINE
8
0
6
CONTINUOUS
10
-0.040826
20
0.125742
30
0.0
11
-0.042814
21
0.121848
31
0.0
0
LINE
8
0
6
CONTINUOUS
10
-0.042814
20
0.121848
30
0.0
11
-0.043500
21
0.117531
31
0.0
0
LINE
8
0
6
CONTINUOUS
10
-0.042814
20
0.113215
30
0.0
11
-0.043500
21
0.117531
31
0.0
0
LINE
8
0
6
CONTINUOUS
10
-0.040826
20
0.109321
30
0.0
11
-0.042814
21
0.113215
31
0.0
0
LINE
8
0
6
CONTINUOUS
10
-0.037729
20
0.106230
30
0.0
11
-0.040826
21
0.109321
31
0.0
0
LINE
8
0
6
CONTINUOUS
10
-0.033826
20
0.104246
30
0.0
11
-0.037729
21
0.106230
31
0.0
0
LINE
8
0
6
CONTINUOUS
10
-0.029500
20
0.103563
30
0.0
11
-0.033826
21
0.104246
31
0.0
0
LINE
8
0
6
CONTINUOUS
10
-0.025173
20
0.104246
30
0.0
11
-0.029500
21
0.103563
31
0.0
0
LINE
8
0
6
CONTINUOUS
10
-0.021271
20
0.106230
30
0.0
11
-0.025173
21
0.104246
31
0.0
0
LINE
8
0
6
CONTINUOUS
10
-0.018173
20
0.109321
30
0.0
11
-0.021271
21
0.106230
31
0.0
0
LINE
8
0
6
CONTINUOUS
10
-0.016185
20
0.113215
30
0.0
11
-0.018173
21
0.109321
31
0.0
0
LINE
8
0
6
CONTINUOUS
10
-0.015500
20
0.117531
30
0.0
11
-0.016185
21
0.113215
31
0.0
0
LINE
8
0
6
CONTINUOUS
10
-0.015500
20
0.117531
30
0.0
11
-0.016185
21
0.121848
31
0.0
0
LINE
8
0
6
CONTINUOUS
10
-0.016185
20
0.121848
30
0.0
11
-0.018173
21
0.125742
31
0.0
0
LINE
8
0
6
CONTINUOUS
10
-0.018173
20
0.125742
30
0.0
11
-0.021271
21
0.128832
31
0.0
0
LINE
8
0
6
CONTINUOUS
10
-0.021271
20
0.128832
30
0.0
11
-0.025173
21
0.130816
31
0.0
0
LINE
8
0
6
CONTINUOUS
10
-0.025173
20
0.130816
30
0.0
11
-0.029500
21
0.131500
31
0.0
0
LINE
8
0
6
CONTINUOUS
10
-0.029500
20
0.131500
30
0.0
11
-0.033826
21
0.130816
31
0.0
0
LINE
8
0
6
CONTINUOUS
10
-0.043500
20
0.009500
30
0.0
11
-0.042814
21
0.009500
31
0.0
0
LINE
8
0
6
CONTINUOUS
10
-0.043500
20
0.010500
30
0.0
11
-0.043500
21
0.009500
31
0.0
0
LINE
8
0
6
CONTINUOUS
10
-0.042814
20
0.009500
30
0.0
11
-0.040826
21
0.009500
31
0.0
0
LINE
8
0
6
CONTINUOUS
10
-0.040826
20
0.009500
30
0.0
11
-0.037729
21
0.009500
31
0.0
0
LINE
8
0
6
CONTINUOUS
10
-0.037729
20
0.009500
30
0.0
11
-0.033826
21
0.009500
31
0.0
0
LINE
8
0
6
CONTINUOUS
10
-0.033826
20
0.009500
30
0.0
11
-0.029500
21
0.009500
31
0.0
0
LINE
8
0
6
CONTINUOUS
10
-0.029500
20
0.009500
30
0.0
11
-0.025173
21
0.009500
31
0.0
0
LINE
8
0
6
CONTINUOUS
10
-0.025173
20
0.009500
30
0.0
11
-0.021271
21
0.009500
31
0.0
0
LINE
8
0
6
CONTINUOUS
10
-0.021271
20
0.009500
30
0.0
11
-0.018173
21
0.009500
31
0.0
0
LINE
8
0
6
CONTINUOUS
10
-0.018173
20
0.009500
30
0.0
11
-0.016185
21
0.009500
31
0.0
0
LINE
8
0
6
CONTINUOUS
10
-0.015500
20
0.009500
30
0.0
11
-0.015500
21
0.010500
31
0.0
0
LINE
8
0
6
CONTINUOUS
10
-0.016185
20
0.009500
30
0.0
11
-0.015500
21
0.009500
31
0.0
0
LINE
8
0
6
CONTINUOUS
10
-0.037357
20
0.097874
30
0.0
11
-0.033631
21
0.098231
31
0.0
0
LINE
8
0
6
CONTINUOUS
10
-0.040315
20
0.097317
30
0.0
11
-0.037357
21
0.097874
31
0.0
0
LINE
8
0
6
CONTINUOUS
10
-0.042214
20
0.096617
30
0.0
11
-0.040315
21
0.097317
31
0.0
0
LINE
8
0
6
CONTINUOUS
10
-0.042868
20
0.096781
30
0.0
11
-0.042868
21
0.095840
31
0.0
0
LINE
8
0
6
CONTINUOUS
10
-0.042868
20
0.095840
30
0.0
11
-0.042214
21
0.096617
31
0.0
0
LINE
8
0
6
CONTINUOUS
10
-0.042868
20
0.095840
30
0.0
11
-0.042214
21
0.095063
31
0.0
0
LINE
8
0
6
CONTINUOUS
10
-0.042214
20
0.095063
30
0.0
11
-0.040315
21
0.094362
31
0.0
0
LINE
8
0
6
CONTINUOUS
10
-0.040315
20
0.094362
30
0.0
11
-0.037357
21
0.093806
31
0.0
0
LINE
8
0
6
CONTINUOUS
10
-0.037357
20
0.093806
30
0.0
11
-0.033631
21
0.093448
31
0.0
0
LINE
8
0
6
CONTINUOUS
10
-0.033631
20
0.093448
30
0.0
11
-0.029500
21
0.093325
31
0.0
0
LINE
8
0
6
CONTINUOUS
10
-0.029500
20
0.093325
30
0.0
11
-0.025368
21
0.093448
31
0.0
0
LINE
8
0
6
CONTINUOUS
10
-0.025368
20
0.093448
30
0.0
11
-0.021642
21
0.093806
31
0.0
0
LINE
8
0
6
CONTINUOUS
10
-0.021642
20
0.093806
30
0.0
11
-0.018684
21
0.094362
31
0.0
0
LINE
8
0
6
CONTINUOUS
10
-0.018684
20
0.094362
30
0.0
11
-0.016785
21
0.095063
31
0.0
0
LINE
8
0
6
CONTINUOUS
10
-0.016785
20
0.095063
30
0.0
11
-0.016131
21
0.095840
31
0.0
0
LINE
8
0
6
CONTINUOUS
10
-0.016131
20
0.095840
30
0.0
11
-0.016131
21
0.096781
31
0.0
0
LINE
8
0
6
CONTINUOUS
10
-0.016785
20
0.096617
30
0.0
11
-0.016131
21
0.095840
31
0.0
0
LINE
8
0
6
CONTINUOUS
10
-0.018684
20
0.097317
30
0.0
11
-0.016785
21
0.096617
31
0.0
0
LINE
8
0
6
CONTINUOUS
10
-0.021642
20
0.097874
30
0.0
11
-0.018684
21
0.097317
31
0.0
0
LINE
8
0
6
CONTINUOUS
10
-0.025368
20
0.098231
30
0.0
11
-0.021642
21
0.097874
31
0.0
0
LINE
8
0
6
CONTINUOUS
10
-0.029500
20
0.098354
30
0.0
11
-0.025368
21
0.098231
31
0.0
0
LINE
8
0
6
CONTINUOUS
10
-0.033631
20
0.098231
30
0.0
11
-0.029500
21
0.098354
31
0.0
0
LINE
8
0
6
CONTINUOUS
10
-0.016131
20
0.096781
30
0.0
11
-0.016131
21
0.116582
31
0.0
0
LINE
8
0
6
CONTINUOUS
10
-0.042868
20
0.116582
30
0.0
11
-0.042868
21
0.096781
31
0.0
0
LINE
8
0
6
CONTINUOUS
10
-0.035476
20
0.097386
30
0.0
11
-0.032642
21
0.097658
31
0.0
0
LINE
8
0
6
CONTINUOUS
10
-0.037726
20
0.096963
30
0.0
11
-0.035476
21
0.097386
31
0.0
0
LINE
8
0
6
CONTINUOUS
10
-0.039169
20
0.096430
30
0.0
11
-0.037726
21
0.096963
31
0.0
0
LINE
8
0
6
CONTINUOUS
10
-0.039667
20
0.095840
30
0.0
11
-0.039169
21
0.096430
31
0.0
0
LINE
8
0
6
CONTINUOUS
10
-0.019830
20
0.096430
30
0.0
11
-0.019332
21
0.095840
31
0.0
0
LINE
8
0
6
CONTINUOUS
10
-0.021273
20
0.096963
30
0.0
11
-0.019830
21
0.096430
31
0.0
0
LINE
8
0
6
CONTINUOUS
10
-0.023523
20
0.097386
30
0.0
11
-0.021273
21
0.096963
31
0.0
0
LINE
8
0
6
CONTINUOUS
10
-0.026357
20
0.097658
30
0.0
11
-0.023523
21
0.097386
31
0.0
0
LINE
8
0
6
CONTINUOUS
10
-0.029500
20
0.097752
30
0.0
11
-0.026357
21
0.097658
31
0.0
0
LINE
8
0
6
CONTINUOUS
10
-0.032642
20
0.097658
30
0.0
11
-0.029500
21
0.097752
31
0.0
0
LINE
8
0
6
CONTINUOUS
10
-0.037726
20
0.094716
30
0.0
11
-0.035476
21
0.094293
31
0.0
0
LINE
8
0
6
CONTINUOUS
10
-0.026357
20
0.094021
30
0.0
11
-0.023523
21
0.094293
31
0.0
0
LINE
8
0
6
CONTINUOUS
10
-0.023523
20
0.094293
30
0.0
11
-0.021273
21
0.094716
31
0.0
0
LINE
8
0
6
CONTINUOUS
10
-0.035476
20
0.094293
30
0.0
11
-0.032642
21
0.094021
31
0.0
0
LINE
8
0
6
CONTINUOUS
10
-0.021273
20
0.094716
30
0.0
11
-0.019830
21
0.095249
31
0.0
0
LINE
8
0
6
CONTINUOUS
10
-0.032642
20
0.094021
30
0.0
11
-0.029500
21
0.093928
31
0.0
0
LINE
8
0
6
CONTINUOUS
10
-0.039667
20
0.095840
30
0.0
11
-0.039169
21
0.095249
31
0.0
0
LINE
8
0
6
CONTINUOUS
10
-0.019830
20
0.095249
30
0.0
11
-0.019332
21
0.095840
31
0.0
0
LINE
8
0
6
CONTINUOUS
10
-0.029500
20
0.093928
30
0.0
11
-0.026357
21
0.094021
31
0.0
0
LINE
8
0
6
CONTINUOUS
10
-0.039169
20
0.095249
30
0.0
11
-0.037726
21
0.094716
31
0.0
0
LINE
8
0
6
CONTINUOUS
10
-0.032642
20
0.094595
30
0.0
11
-0.029500
21
0.094501
31
0.0
0
LINE
8
0
6
CONTINUOUS
10
-0.035476
20
0.094867
30
0.0
11
-0.032642
21
0.094595
31
0.0
0
LINE
8
0
6
CONTINUOUS
10
-0.037726
20
0.095290
30
0.0
11
-0.035476
21
0.094867
31
0.0
0
LINE
8
0
6
CONTINUOUS
10
-0.039169
20
0.095823
30
0.0
11
-0.037726
21
0.095290
31
0.0
0
LINE
8
0
6
CONTINUOUS
10
-0.039667
20
0.096413
30
0.0
11
-0.039169
21
0.095823
31
0.0
0
LINE
8
0
6
CONTINUOUS
10
-0.029500
20
0.094501
30
0.0
11
-0.026357
21
0.094595
31
0.0
0
LINE
8
0
6
CONTINUOUS
10
-0.026357
20
0.094595
30
0.0
11
-0.023523
21
0.094867
31
0.0
0
LINE
8
0
6
CONTINUOUS
10
-0.023523
20
0.094867
30
0.0
11
-0.021273
21
0.095290
31
0.0
0
LINE
8
0
6
CONTINUOUS
10
-0.021273
20
0.095290
30
0.0
11
-0.019830
21
0.095823
31
0.0
0
LINE
8
0
6
CONTINUOUS
10
-0.019830
20
0.095823
30
0.0
11
-0.019332
21
0.096413
31
0.0
0
LINE
8
0
6
CONTINUOUS
10
-0.049608
20
-0.086203
30
0.0
11
-0.050195
21
-0.095397
31
0.0
0
LINE
8
0
6
CONTINUOUS
10
-0.008047
20
-0.107256
30
0.0
11
-0.008436
21
-0.101168
31
0.0
0
LINE
8
0
6
CONTINUOUS
10
-0.012590
20
-0.036084
30
0.0
11
-0.015436
21
0.008502
31
0.0
0
LINE
8
0
6
CONTINUOUS
10
-0.043563
20
0.008502
30
0.0
11
-0.047685
21
-0.056068
31
0.0
0
LINE
8
0
6
CONTINUOUS
10
-0.007116
20
-0.095163
30
0.0
11
-0.004433
21
-0.091392
31
0.0
0
LINE
8
0
6
CONTINUOUS
10
-0.005454
20
-0.090393
30
0.0
11
-0.008176
21
-0.094112
31
0.0
0
LINE
8
0
6
CONTINUOUS
10
-0.011097
20
-0.049353
30
0.0
11
-0.008027
21
-0.052687
31
0.0
0
LINE
8
0
6
CONTINUOUS
10
-0.007218
20
-0.051531
30
0.0
11
-0.010299
21
-0.048206
31
0.0
0
LINE
8
0
6
CONTINUOUS
10
-0.008027
20
-0.052687
30
0.0
11
-0.010388
21
-0.056159
31
0.0
0
LINE
8
0
6
CONTINUOUS
10
-0.008436
20
-0.101168
30
0.0
11
-0.008538
21
-0.099558
31
0.0
0
LINE
8
0
6
CONTINUOUS
10
-0.012080
20
-0.044070
30
0.0
11
-0.012219
21
-0.041890
31
0.0
0
LINE
8
0
6
CONTINUOUS
10
-0.002533
20
-0.052722
30
0.0
11
-0.002934
21
-0.052825
31
0.0
0
LINE
8
0
6
CONTINUOUS
10
-0.000663
20
-0.088725
30
0.0
11
0.000027
21
-0.088547
31
0.0
0
LINE
8
0
6
CONTINUOUS
10
-0.047685
20
-0.056068
30
0.0
11
-0.048221
21
-0.064475
31
0.0
0
LINE
8
0
6
CONTINUOUS
10
-0.015436
20
0.008502
30
0.0
11
-0.015500
21
0.009500
31
0.0
0
LINE
8
0
6
CONTINUOUS
10
-0.015500
20
0.009500
30
0.0
11
-0.016185
21
0.009500
31
0.0
0
LINE
8
0
6
CONTINUOUS
10
-0.016185
20
0.009500
30
0.0
11
-0.018173
21
0.009500
31
0.0
0
LINE
8
0
6
CONTINUOUS
10
-0.018173
20
0.009500
30
0.0
11
-0.021271
21
0.009500
31
0.0
0
LINE
8
0
6
CONTINUOUS
10
-0.021271
20
0.009500
30
0.0
11
-0.025173
21
0.009500
31
0.0
0
LINE
8
0
6
CONTINUOUS
10
-0.025173
20
0.009500
30
0.0
11
-0.029500
21
0.009500
31
0.0
0
LINE
8
0
6
CONTINUOUS
10
-0.029500
20
0.009500
30
0.0
11
-0.033826
21
0.009500
31
0.0
0
LINE
8
0
6
CONTINUOUS
10
-0.033826
20
0.009500
30
0.0
11
-0.037729
21
0.009500
31
0.0
0
LINE
8
0
6
CONTINUOUS
10
-0.037729
20
0.009500
30
0.0
11
-0.040826
21
0.009500
31
0.0
0
LINE
8
0
6
CONTINUOUS
10
-0.040826
20
0.009500
30
0.0
11
-0.042814
21
0.009500
31
0.0
0
LINE
8
0
6
CONTINUOUS
10
-0.052500
20
-0.131500
30
0.0
11
-0.051374
21
-0.131500
31
0.0
0
LINE
8
0
6
CONTINUOUS
10
-0.052436
20
-0.130502
30
0.0
11
-0.052500
21
-0.131500
31
0.0
0
LINE
8
0
6
CONTINUOUS
10
-0.051374
20
-0.131500
30
0.0
11
-0.048107
21
-0.131500
31
0.0
0
LINE
8
0
6
CONTINUOUS
10
-0.048107
20
-0.131500
30
0.0
11
-0.043019
21
-0.131500
31
0.0
0
LINE
8
0
6
CONTINUOUS
10
-0.043019
20
-0.131500
30
0.0
11
-0.036607
21
-0.131500
31
0.0
0
LINE
8
0
6
CONTINUOUS
10
-0.036607
20
-0.131500
30
0.0
11
-0.029500
21
-0.131500
31
0.0
0
LINE
8
0
6
CONTINUOUS
10
-0.029500
20
-0.131500
30
0.0
11
-0.022392
21
-0.131500
31
0.0
0
LINE
8
0
6
CONTINUOUS
10
-0.022392
20
-0.131500
30
0.0
11
-0.015980
21
-0.131500
31
0.0
0
LINE
8
0
6
CONTINUOUS
10
-0.015980
20
-0.131500
30
0.0
11
-0.010892
21
-0.131500
31
0.0
0
LINE
8
0
6
CONTINUOUS
10
-0.010892
20
-0.131500
30
0.0
11
-0.007625
21
-0.131500
31
0.0
0
LINE
8
0
6
CONTINUOUS
10
-0.006500
20
-0.131500
30
0.0
11
-0.006563
21
-0.130502
31
0.0
0
LINE
8
0
6
CONTINUOUS
10
-0.007625
20
-0.131500
30
0.0
11
-0.006500
21
-0.131500
31
0.0
0
LINE
8
0
6
CONTINUOUS
10
0.015975
20
-0.084427
30
0.0
11
0.015759
21
-0.083590
31
0.0
0
LINE
8
0
6
CONTINUOUS
10
0.015007
20
-0.084677
30
0.0
11
0.015975
21
-0.084427
31
0.0
0
LINE
8
0
6
CONTINUOUS
10
0.015759
20
-0.083590
30
0.0
11
0.015133
21
-0.081162
31
0.0
0
LINE
8
0
6
CONTINUOUS
10
0.015133
20
-0.081162
30
0.0
11
0.014156
21
-0.077379
31
0.0
0
LINE
8
0
6
CONTINUOUS
10
0.014156
20
-0.077379
30
0.0
11
0.012925
21
-0.072612
31
0.0
0
LINE
8
0
6
CONTINUOUS
10
0.011560
20
-0.067327
30
0.0
11
0.010195
21
-0.062042
31
0.0
0
LINE
8
0
6
CONTINUOUS
10
0.010195
20
-0.062042
30
0.0
11
0.008963
21
-0.057275
31
0.0
0
LINE
8
0
6
CONTINUOUS
10
0.008963
20
-0.057275
30
0.0
11
0.007985
21
-0.053491
31
0.0
0
LINE
8
0
6
CONTINUOUS
10
0.007985
20
-0.053491
30
0.0
11
0.007356
21
-0.051061
31
0.0
0
LINE
8
0
6
CONTINUOUS
10
0.007139
20
-0.050223
30
0.0
11
0.006171
21
-0.050473
31
0.0
0
LINE
8
0
6
CONTINUOUS
10
0.007356
20
-0.051061
30
0.0
11
0.007139
21
-0.050223
31
0.0
0
LINE
8
0
6
CONTINUOUS
10
0.012925
20
-0.072612
30
0.0
11
0.011560
21
-0.067327
31
0.0
0
LINE
8
0
6
CONTINUOUS
10
-0.017722
20
-0.068839
30
0.0
11
-0.017031
21
-0.058772
31
0.0
0
LINE
8
0
6
CONTINUOUS
10
-0.017722
20
-0.068839
30
0.0
11
-0.018389
21
-0.055650
31
0.0
0
LINE
8
0
6
CONTINUOUS
10
-0.018389
20
-0.055650
30
0.0
11
-0.020226
21
-0.069114
31
0.0
0
LINE
8
0
6
CONTINUOUS
10
-0.008538
20
-0.099558
30
0.0
11
-0.007116
21
-0.095163
31
0.0
0
LINE
8
0
6
CONTINUOUS
10
-0.006563
20
-0.130502
30
0.0
11
-0.008047
21
-0.107256
31
0.0
0
LINE
8
0
6
CONTINUOUS
10
-0.002934
20
-0.052825
30
0.0
11
-0.007218
21
-0.051531
31
0.0
0
LINE
8
0
6
CONTINUOUS
10
-0.003743
20
-0.053975
30
0.0
11
-0.002934
21
-0.052825
31
0.0
0
LINE
8
0
6
CONTINUOUS
10
-0.008027
20
-0.052687
30
0.0
11
-0.003743
21
-0.053975
31
0.0
0
LINE
8
0
6
CONTINUOUS
10
-0.007218
20
-0.051531
30
0.0
11
-0.008027
21
-0.052687
31
0.0
0
LINE
8
0
6
CONTINUOUS
10
-0.003743
20
-0.053975
30
0.0
11
-0.006097
21
-0.057412
31
0.0
0
LINE
8
0
6
CONTINUOUS
10
0.000027
20
-0.088547
30
0.0
11
0.015007
21
-0.084677
31
0.0
0
LINE
8
0
6
CONTINUOUS
10
0.006171
20
-0.050473
30
0.0
11
-0.002533
21
-0.052722
31
0.0
0
LINE
8
0
6
CONTINUOUS
10
-0.049301
20
-0.081387
30
0.0
11
-0.049608
21
-0.086203
31
0.0
0
LINE
8
0
6
CONTINUOUS
10
-0.048964
20
-0.076117
30
0.0
11
-0.049301
21
-0.081387
31
0.0
0
LINE
8
0
6
CONTINUOUS
10
-0.001658
20
-0.087797
30
0.0
11
-0.005454
21
-0.090393
31
0.0
0
LINE
8
0
6
CONTINUOUS
10
-0.004433
20
-0.091392
30
0.0
11
-0.000663
21
-0.088725
31
0.0
0
LINE
8
0
6
CONTINUOUS
10
-0.048221
20
-0.064475
30
0.0
11
-0.048577
21
-0.070050
31
0.0
0
LINE
8
0
6
CONTINUOUS
10
-0.048577
20
-0.070050
30
0.0
11
-0.048964
21
-0.076117
31
0.0
0
LINE
8
0
6
CONTINUOUS
10
-0.012219
20
-0.041890
30
0.0
11
-0.012590
21
-0.036084
31
0.0
0
LINE
8
0
6
CONTINUOUS
10
-0.010299
20
-0.048206
30
0.0
11
-0.012080
21
-0.044070
31
0.0
0
LINE
8
0
6
CONTINUOUS
10
-0.012863
20
-0.045212
30
0.0
11
-0.011097
21
-0.049353
31
0.0
0
LINE
8
0
6
CONTINUOUS
10
-0.050195
20
-0.095397
30
0.0
11
-0.052436
21
-0.130502
31
0.0
0
LINE
8
0
6
CONTINUOUS
10
-0.043500
20
0.009500
30
0.0
11
-0.043563
21
0.008502
31
0.0
0
LINE
8
0
6
CONTINUOUS
10
-0.042814
20
0.009500
30
0.0
11
-0.043500
21
0.009500
31
0.0
0
ENDSEC
0
EOF
