999
Erzeugt mit innoplus bad 
0
SECTION
2
HEADER
9
$ACADVER
1
AC1009
9
$DWGCODEPAGE
3
ISO8859-1
0
ENDSEC
0
SECTION
2
TABLES
0
TABLE
2
LAYER
70
1
0
LAYER
2
0
70
0
62
7
6
CONTINUOUS
0
ENDTAB
0
ENDSEC
0
SECTION
2
ENTITIES
0
LINE
8
0
6
CONTINUOUS
10
0.021171
20
0.078492
30
0.0
11
0.024310
21
0.081983
31
0.0
0
LINE
8
0
6
CONTINUOUS
10
0.018630
20
0.075391
30
0.0
11
0.019167
21
0.076120
31
0.0
0
LINE
8
0
6
CONTINUOUS
10
0.018128
20
0.074632
30
0.0
11
0.018630
21
0.075391
31
0.0
0
LINE
8
0
6
CONTINUOUS
10
0.017800
20
0.074208
30
0.0
11
0.018128
21
0.074632
31
0.0
0
LINE
8
0
6
CONTINUOUS
10
0.017277
20
0.073533
30
0.0
11
0.017800
21
0.074208
31
0.0
0
LINE
8
0
6
CONTINUOUS
10
0.016935
20
0.073013
30
0.0
11
0.017277
21
0.073533
31
0.0
0
LINE
8
0
6
CONTINUOUS
10
0.019108
20
0.076082
30
0.0
11
0.021171
21
0.078492
31
0.0
0
LINE
8
0
6
CONTINUOUS
10
0.017090
20
0.074141
30
0.0
11
0.016566
21
0.073288
31
0.0
0
LINE
8
0
6
CONTINUOUS
10
0.016566
20
0.073288
30
0.0
11
0.016023
21
0.072620
31
0.0
0
LINE
8
0
6
CONTINUOUS
10
0.019082
20
0.076202
30
0.0
11
0.021143
21
0.078507
31
0.0
0
LINE
8
0
6
CONTINUOUS
10
0.025294
20
0.083803
30
0.0
11
0.025248
21
0.084650
31
0.0
0
LINE
8
0
6
CONTINUOUS
10
0.025234
20
0.083846
30
0.0
11
0.025188
21
0.084693
31
0.0
0
LINE
8
0
6
CONTINUOUS
10
0.024875
20
0.085212
30
0.0
11
0.023785
21
0.086194
31
0.0
0
LINE
8
0
6
CONTINUOUS
10
0.023785
20
0.086194
30
0.0
11
0.025028
21
0.084926
31
0.0
0
LINE
8
0
6
CONTINUOUS
10
0.024310
20
0.081983
30
0.0
11
0.025294
21
0.083803
31
0.0
0
LINE
8
0
6
CONTINUOUS
10
0.024250
20
0.082026
30
0.0
11
0.025234
21
0.083846
31
0.0
0
LINE
8
0
6
CONTINUOUS
10
0.025028
20
0.084926
30
0.0
11
0.025188
21
0.084693
31
0.0
0
LINE
8
0
6
CONTINUOUS
10
0.025248
20
0.084650
30
0.0
11
0.024875
21
0.085212
31
0.0
0
LINE
8
0
6
CONTINUOUS
10
0.013763
20
0.075230
30
0.0
11
0.010541
21
0.070986
31
0.0
0
LINE
8
0
6
CONTINUOUS
10
0.018838
20
0.076470
30
0.0
11
0.021009
21
0.078607
31
0.0
0
LINE
8
0
6
CONTINUOUS
10
0.013041
20
0.068993
30
0.0
11
0.016023
21
0.072620
31
0.0
0
LINE
8
0
6
CONTINUOUS
10
0.019650
20
0.085239
30
0.0
11
0.017451
21
0.081091
31
0.0
0
LINE
8
0
6
CONTINUOUS
10
0.015913
20
0.078393
30
0.0
11
0.015413
21
0.077639
31
0.0
0
LINE
8
0
6
CONTINUOUS
10
0.015413
20
0.077639
30
0.0
11
0.014873
21
0.076907
31
0.0
0
LINE
8
0
6
CONTINUOUS
10
0.014588
20
0.076453
30
0.0
11
0.014134
21
0.075730
31
0.0
0
LINE
8
0
6
CONTINUOUS
10
0.014873
20
0.076907
30
0.0
11
0.014588
21
0.076453
31
0.0
0
LINE
8
0
6
CONTINUOUS
10
0.014134
20
0.075730
30
0.0
11
0.013763
21
0.075230
31
0.0
0
LINE
8
0
6
CONTINUOUS
10
0.017451
20
0.081091
30
0.0
11
0.015898
21
0.078326
31
0.0
0
LINE
8
0
6
CONTINUOUS
10
0.014148
20
0.074977
30
0.0
11
0.014768
21
0.075763
31
0.0
0
LINE
8
0
6
CONTINUOUS
10
0.013707
20
0.074238
30
0.0
11
0.014148
21
0.074977
31
0.0
0
LINE
8
0
6
CONTINUOUS
10
0.017475
20
0.081070
30
0.0
11
0.016019
21
0.078342
31
0.0
0
LINE
8
0
6
CONTINUOUS
10
0.021832
20
0.087037
30
0.0
11
0.021021
21
0.086789
31
0.0
0
LINE
8
0
6
CONTINUOUS
10
0.021893
20
0.086996
30
0.0
11
0.021082
21
0.086748
31
0.0
0
LINE
8
0
6
CONTINUOUS
10
0.023785
20
0.086194
30
0.0
11
0.022488
21
0.086880
31
0.0
0
LINE
8
0
6
CONTINUOUS
10
0.022167
20
0.086925
30
0.0
11
0.023785
21
0.086194
31
0.0
0
LINE
8
0
6
CONTINUOUS
10
0.021021
20
0.086789
30
0.0
11
0.019650
21
0.085239
31
0.0
0
LINE
8
0
6
CONTINUOUS
10
0.021082
20
0.086748
30
0.0
11
0.019711
21
0.085198
31
0.0
0
LINE
8
0
6
CONTINUOUS
10
0.022488
20
0.086880
30
0.0
11
0.021832
21
0.087037
31
0.0
0
LINE
8
0
6
CONTINUOUS
10
0.021893
20
0.086996
30
0.0
11
0.022167
21
0.086925
31
0.0
0
LINE
8
0
6
CONTINUOUS
10
0.017615
20
0.080978
30
0.0
11
0.016355
21
0.078206
31
0.0
0
LINE
8
0
6
CONTINUOUS
10
0.013707
20
0.074238
30
0.0
11
0.011115
21
0.070465
31
0.0
0
LINE
8
0
6
CONTINUOUS
10
0.013627
20
0.068631
30
0.0
11
0.016935
21
0.073013
31
0.0
0
LINE
8
0
6
CONTINUOUS
10
0.013959
20
0.039964
30
0.0
11
0.014363
21
0.041995
31
0.0
0
LINE
8
0
6
CONTINUOUS
10
0.014363
20
0.041995
30
0.0
11
0.014629
21
0.042727
31
0.0
0
LINE
8
0
6
CONTINUOUS
10
-0.018950
20
0.041995
30
0.0
11
-0.018546
21
0.039964
31
0.0
0
LINE
8
0
6
CONTINUOUS
10
-0.019278
20
0.042893
30
0.0
11
-0.019217
21
0.042727
31
0.0
0
LINE
8
0
6
CONTINUOUS
10
-0.016257
20
0.039674
30
0.0
11
-0.015737
21
0.039256
31
0.0
0
LINE
8
0
6
CONTINUOUS
10
0.013932
20
0.037969
30
0.0
11
0.013959
21
0.039964
31
0.0
0
LINE
8
0
6
CONTINUOUS
10
0.011150
20
0.039256
30
0.0
11
0.011670
21
0.039674
31
0.0
0
LINE
8
0
6
CONTINUOUS
10
0.019922
20
0.058649
30
0.0
11
0.017625
21
0.064196
31
0.0
0
LINE
8
0
6
CONTINUOUS
10
0.013970
20
0.068960
30
0.0
11
0.013910
21
0.069006
31
0.0
0
LINE
8
0
6
CONTINUOUS
10
0.010832
20
0.071368
30
0.0
11
0.009206
21
0.072616
31
0.0
0
LINE
8
0
6
CONTINUOUS
10
0.019922
20
0.046742
30
0.0
11
0.020706
21
0.052695
31
0.0
0
LINE
8
0
6
CONTINUOUS
10
0.003659
20
0.074914
30
0.0
11
-0.002294
21
0.075698
31
0.0
0
LINE
8
0
6
CONTINUOUS
10
0.013970
20
0.036430
30
0.0
11
0.017625
21
0.041194
31
0.0
0
LINE
8
0
6
CONTINUOUS
10
0.020706
20
0.052695
30
0.0
11
0.019922
21
0.058649
31
0.0
0
LINE
8
0
6
CONTINUOUS
10
0.017625
20
0.064196
30
0.0
11
0.013970
21
0.068960
31
0.0
0
LINE
8
0
6
CONTINUOUS
10
0.009206
20
0.072616
30
0.0
11
0.003659
21
0.074914
31
0.0
0
LINE
8
0
6
CONTINUOUS
10
0.017625
20
0.041194
30
0.0
11
0.019922
21
0.046742
31
0.0
0
LINE
8
0
6
CONTINUOUS
10
-0.022212
20
0.064196
30
0.0
11
-0.024510
21
0.058649
31
0.0
0
LINE
8
0
6
CONTINUOUS
10
-0.013794
20
0.072616
30
0.0
11
-0.018557
21
0.068960
31
0.0
0
LINE
8
0
6
CONTINUOUS
10
-0.025294
20
0.052695
30
0.0
11
-0.024510
21
0.046742
31
0.0
0
LINE
8
0
6
CONTINUOUS
10
-0.002294
20
0.075698
30
0.0
11
-0.008247
21
0.074914
31
0.0
0
LINE
8
0
6
CONTINUOUS
10
-0.022212
20
0.041194
30
0.0
11
-0.018557
21
0.036430
31
0.0
0
LINE
8
0
6
CONTINUOUS
10
-0.024510
20
0.058649
30
0.0
11
-0.025294
21
0.052695
31
0.0
0
LINE
8
0
6
CONTINUOUS
10
-0.018557
20
0.068960
30
0.0
11
-0.022212
21
0.064196
31
0.0
0
LINE
8
0
6
CONTINUOUS
10
-0.008247
20
0.074914
30
0.0
11
-0.013794
21
0.072616
31
0.0
0
LINE
8
0
6
CONTINUOUS
10
-0.024510
20
0.046742
30
0.0
11
-0.022212
21
0.041194
31
0.0
0
LINE
8
0
6
CONTINUOUS
10
0.016059
20
0.047782
30
0.0
11
0.014161
21
0.043199
31
0.0
0
LINE
8
0
6
CONTINUOUS
10
0.014161
20
0.062199
30
0.0
11
0.016059
21
0.057617
31
0.0
0
LINE
8
0
6
CONTINUOUS
10
0.011141
20
0.039264
30
0.0
11
0.007206
21
0.036245
31
0.0
0
LINE
8
0
6
CONTINUOUS
10
0.007210
20
0.036239
30
0.0
11
0.011150
21
0.039256
31
0.0
0
LINE
8
0
6
CONTINUOUS
10
0.007206
20
0.069154
30
0.0
11
0.011141
21
0.066134
31
0.0
0
LINE
8
0
6
CONTINUOUS
10
0.002624
20
0.071052
30
0.0
11
0.007206
21
0.069154
31
0.0
0
LINE
8
0
6
CONTINUOUS
10
0.016059
20
0.047782
30
0.0
11
0.016706
21
0.052699
31
0.0
0
LINE
8
0
6
CONTINUOUS
10
0.016059
20
0.057617
30
0.0
11
0.016706
21
0.052699
31
0.0
0
LINE
8
0
6
CONTINUOUS
10
0.014161
20
0.043199
30
0.0
11
0.011141
21
0.039264
31
0.0
0
LINE
8
0
6
CONTINUOUS
10
-0.002294
20
0.071699
30
0.0
11
0.002624
21
0.071052
31
0.0
0
LINE
8
0
6
CONTINUOUS
10
0.011141
20
0.066134
30
0.0
11
0.014161
21
0.062199
31
0.0
0
LINE
8
0
6
CONTINUOUS
10
-0.020646
20
0.047782
30
0.0
11
-0.018748
21
0.043199
31
0.0
0
LINE
8
0
6
CONTINUOUS
10
-0.018748
20
0.062199
30
0.0
11
-0.020646
21
0.057617
31
0.0
0
LINE
8
0
6
CONTINUOUS
10
-0.015729
20
0.039264
30
0.0
11
-0.011794
21
0.036245
31
0.0
0
LINE
8
0
6
CONTINUOUS
10
-0.011794
20
0.069154
30
0.0
11
-0.015729
21
0.066134
31
0.0
0
LINE
8
0
6
CONTINUOUS
10
-0.007211
20
0.071052
30
0.0
11
-0.011794
21
0.069154
31
0.0
0
LINE
8
0
6
CONTINUOUS
10
-0.020646
20
0.047782
30
0.0
11
-0.021294
21
0.052699
31
0.0
0
LINE
8
0
6
CONTINUOUS
10
-0.020646
20
0.057617
30
0.0
11
-0.021294
21
0.052699
31
0.0
0
LINE
8
0
6
CONTINUOUS
10
-0.018748
20
0.043199
30
0.0
11
-0.015729
21
0.039264
31
0.0
0
LINE
8
0
6
CONTINUOUS
10
-0.002294
20
0.071699
30
0.0
11
-0.007211
21
0.071052
31
0.0
0
LINE
8
0
6
CONTINUOUS
10
-0.015729
20
0.066134
30
0.0
11
-0.018748
21
0.062199
31
0.0
0
LINE
8
0
6
CONTINUOUS
10
0.012908
20
-0.074949
30
0.0
11
0.012932
21
-0.073967
31
0.0
0
LINE
8
0
6
CONTINUOUS
10
0.011439
20
-0.079851
30
0.0
11
0.012908
21
-0.074949
31
0.0
0
LINE
8
0
6
CONTINUOUS
10
-0.002294
20
-0.086858
30
0.0
11
0.003326
21
-0.085991
31
0.0
0
LINE
8
0
6
CONTINUOUS
10
0.003326
20
-0.085991
30
0.0
11
0.008117
21
-0.083544
31
0.0
0
LINE
8
0
6
CONTINUOUS
10
0.008117
20
-0.083544
30
0.0
11
0.011439
21
-0.079851
31
0.0
0
LINE
8
0
6
CONTINUOUS
10
-0.017496
20
-0.074949
30
0.0
11
-0.016026
21
-0.079851
31
0.0
0
LINE
8
0
6
CONTINUOUS
10
-0.017519
20
-0.073967
30
0.0
11
-0.017496
21
-0.074949
31
0.0
0
LINE
8
0
6
CONTINUOUS
10
-0.007914
20
-0.085991
30
0.0
11
-0.002294
21
-0.086858
31
0.0
0
LINE
8
0
6
CONTINUOUS
10
-0.012705
20
-0.083544
30
0.0
11
-0.007914
21
-0.085991
31
0.0
0
LINE
8
0
6
CONTINUOUS
10
-0.016026
20
-0.079851
30
0.0
11
-0.012705
21
-0.083544
31
0.0
0
LINE
8
0
6
CONTINUOUS
10
0.011341
20
0.038157
30
0.0
11
0.011238
21
0.039167
31
0.0
0
LINE
8
0
6
CONTINUOUS
10
0.011438
20
0.035561
30
0.0
11
0.011341
21
0.038157
31
0.0
0
LINE
8
0
6
CONTINUOUS
10
-0.018444
20
0.032425
30
0.0
11
-0.017519
21
-0.073967
31
0.0
0
LINE
8
0
6
CONTINUOUS
10
-0.018519
20
0.037969
30
0.0
11
-0.018493
21
0.036024
31
0.0
0
LINE
8
0
6
CONTINUOUS
10
-0.016090
20
0.032066
30
0.0
11
-0.016026
21
0.035561
31
0.0
0
LINE
8
0
6
CONTINUOUS
10
0.013857
20
0.032425
30
0.0
11
0.013905
21
0.036024
31
0.0
0
LINE
8
0
6
CONTINUOUS
10
0.014629
20
0.042727
30
0.0
11
0.014690
21
0.042893
31
0.0
0
LINE
8
0
6
CONTINUOUS
10
0.011438
20
0.035561
30
0.0
11
0.011502
21
0.032066
31
0.0
0
LINE
8
0
6
CONTINUOUS
10
0.013905
20
0.036024
30
0.0
11
0.013932
21
0.037969
31
0.0
0
LINE
8
0
6
CONTINUOUS
10
-0.019217
20
0.042727
30
0.0
11
-0.018950
21
0.041995
31
0.0
0
LINE
8
0
6
CONTINUOUS
10
-0.015826
20
0.039167
30
0.0
11
-0.015929
21
0.038157
31
0.0
0
LINE
8
0
6
CONTINUOUS
10
0.012932
20
-0.073967
30
0.0
11
0.013857
21
0.032425
31
0.0
0
LINE
8
0
6
CONTINUOUS
10
0.011499
20
0.028419
30
0.0
11
0.011502
21
0.032066
31
0.0
0
LINE
8
0
6
CONTINUOUS
10
-0.015737
20
0.039256
30
0.0
11
-0.011821
21
0.036198
31
0.0
0
LINE
8
0
6
CONTINUOUS
10
-0.018493
20
0.036024
30
0.0
11
-0.018444
21
0.032425
31
0.0
0
LINE
8
0
6
CONTINUOUS
10
-0.016087
20
0.028419
30
0.0
11
-0.016090
21
0.032066
31
0.0
0
LINE
8
0
6
CONTINUOUS
10
-0.018546
20
0.039964
30
0.0
11
-0.018519
21
0.037969
31
0.0
0
LINE
8
0
6
CONTINUOUS
10
-0.016026
20
0.035561
30
0.0
11
-0.015929
21
0.038157
31
0.0
0
LINE
8
0
6
CONTINUOUS
10
-0.005960
20
-0.086609
30
0.0
11
-0.002294
21
-0.087037
31
0.0
0
LINE
8
0
6
CONTINUOUS
10
-0.002294
20
-0.087037
30
0.0
11
0.001372
21
-0.086609
31
0.0
0
LINE
8
0
6
CONTINUOUS
10
0.002462
20
-0.014622
30
0.0
11
0.002462
21
-0.014064
31
0.0
0
LINE
8
0
6
CONTINUOUS
10
-0.007050
20
0.025235
30
0.0
11
-0.007050
21
-0.014064
31
0.0
0
LINE
8
0
6
CONTINUOUS
10
-0.004114
20
-0.012906
30
0.0
11
-0.004114
21
-0.013464
31
0.0
0
LINE
8
0
6
CONTINUOUS
10
0.002100
20
-0.014143
30
0.0
11
0.001646
21
-0.013964
31
0.0
0
LINE
8
0
6
CONTINUOUS
10
0.000401
20
-0.013618
30
0.0
11
-0.000474
21
-0.013464
31
0.0
0
LINE
8
0
6
CONTINUOUS
10
-0.004114
20
-0.013464
30
0.0
11
-0.004989
21
-0.013618
31
0.0
0
LINE
8
0
6
CONTINUOUS
10
-0.006234
20
-0.013964
30
0.0
11
-0.006688
21
-0.014143
31
0.0
0
LINE
8
0
6
CONTINUOUS
10
0.001069
20
-0.013736
30
0.0
11
0.000401
21
-0.013618
31
0.0
0
LINE
8
0
6
CONTINUOUS
10
-0.005657
20
-0.013736
30
0.0
11
-0.006234
21
-0.013964
31
0.0
0
LINE
8
0
6
CONTINUOUS
10
-0.002294
20
-0.015868
30
0.0
11
-0.000474
21
-0.015773
31
0.0
0
LINE
8
0
6
CONTINUOUS
10
-0.000474
20
-0.015773
30
0.0
11
0.001069
21
-0.015503
31
0.0
0
LINE
8
0
6
CONTINUOUS
10
0.001069
20
-0.015503
30
0.0
11
0.002100
21
-0.015099
31
0.0
0
LINE
8
0
6
CONTINUOUS
10
0.002100
20
-0.015099
30
0.0
11
0.002462
21
-0.014622
31
0.0
0
LINE
8
0
6
CONTINUOUS
10
0.002462
20
-0.014622
30
0.0
11
0.002100
21
-0.014143
31
0.0
0
LINE
8
0
6
CONTINUOUS
10
-0.004114
20
-0.015773
30
0.0
11
-0.002294
21
-0.015868
31
0.0
0
LINE
8
0
6
CONTINUOUS
10
-0.005657
20
-0.015503
30
0.0
11
-0.004114
21
-0.015773
31
0.0
0
LINE
8
0
6
CONTINUOUS
10
-0.006688
20
-0.015099
30
0.0
11
-0.005657
21
-0.015503
31
0.0
0
LINE
8
0
6
CONTINUOUS
10
-0.007050
20
-0.014622
30
0.0
11
-0.006688
21
-0.015099
31
0.0
0
LINE
8
0
6
CONTINUOUS
10
-0.002294
20
-0.013369
30
0.0
11
-0.004114
21
-0.013464
31
0.0
0
LINE
8
0
6
CONTINUOUS
10
-0.007324
20
0.032139
30
0.0
11
-0.007050
21
0.031128
31
0.0
0
LINE
8
0
6
CONTINUOUS
10
0.001069
20
-0.013736
30
0.0
11
0.001646
21
-0.013964
31
0.0
0
LINE
8
0
6
CONTINUOUS
10
-0.005657
20
-0.013736
30
0.0
11
-0.004989
21
-0.013618
31
0.0
0
LINE
8
0
6
CONTINUOUS
10
0.001665
20
0.032265
30
0.0
11
0.002667
21
0.033537
31
0.0
0
LINE
8
0
6
CONTINUOUS
10
0.004231
20
0.034566
30
0.0
11
0.004922
21
0.035123
31
0.0
0
LINE
8
0
6
CONTINUOUS
10
0.002736
20
0.032139
30
0.0
11
0.003482
21
0.033570
31
0.0
0
LINE
8
0
6
CONTINUOUS
10
0.001105
20
0.025636
30
0.0
11
0.001107
21
0.028446
31
0.0
0
LINE
8
0
6
CONTINUOUS
10
0.015893
20
0.057527
30
0.0
11
0.014081
21
0.062055
31
0.0
0
LINE
8
0
6
CONTINUOUS
10
0.007063
20
0.036322
30
0.0
11
0.011063
21
0.039341
31
0.0
0
LINE
8
0
6
CONTINUOUS
10
0.014081
20
0.043340
30
0.0
11
0.015893
21
0.047868
31
0.0
0
LINE
8
0
6
CONTINUOUS
10
0.011063
20
0.039341
30
0.0
11
0.014081
21
0.043340
31
0.0
0
LINE
8
0
6
CONTINUOUS
10
0.014081
20
0.062055
30
0.0
11
0.011063
21
0.066055
31
0.0
0
LINE
8
0
6
CONTINUOUS
10
0.002536
20
0.070884
30
0.0
11
-0.002294
21
0.071563
31
0.0
0
LINE
8
0
6
CONTINUOUS
10
0.007063
20
0.069073
30
0.0
11
0.002536
21
0.070884
31
0.0
0
LINE
8
0
6
CONTINUOUS
10
0.011063
20
0.066055
30
0.0
11
0.007063
21
0.069073
31
0.0
0
LINE
8
0
6
CONTINUOUS
10
0.015893
20
0.047868
30
0.0
11
0.016572
21
0.052698
31
0.0
0
LINE
8
0
6
CONTINUOUS
10
0.016572
20
0.052698
30
0.0
11
0.015893
21
0.057527
31
0.0
0
LINE
8
0
6
CONTINUOUS
10
0.001069
20
-0.013178
30
0.0
11
0.001105
21
0.025636
31
0.0
0
LINE
8
0
6
CONTINUOUS
10
-0.011651
20
0.036322
30
0.0
11
-0.009107
21
0.035074
31
0.0
0
LINE
8
0
6
CONTINUOUS
10
-0.005693
20
0.025636
30
0.0
11
-0.005695
21
0.028446
31
0.0
0
LINE
8
0
6
CONTINUOUS
10
-0.018669
20
0.062055
30
0.0
11
-0.020480
21
0.057527
31
0.0
0
LINE
8
0
6
CONTINUOUS
10
-0.015651
20
0.039341
30
0.0
11
-0.011651
21
0.036322
31
0.0
0
LINE
8
0
6
CONTINUOUS
10
-0.020480
20
0.047868
30
0.0
11
-0.018669
21
0.043340
31
0.0
0
LINE
8
0
6
CONTINUOUS
10
-0.018669
20
0.043340
30
0.0
11
-0.015651
21
0.039341
31
0.0
0
LINE
8
0
6
CONTINUOUS
10
-0.015651
20
0.066055
30
0.0
11
-0.018669
21
0.062055
31
0.0
0
LINE
8
0
6
CONTINUOUS
10
-0.002294
20
0.071563
30
0.0
11
-0.007123
21
0.070884
31
0.0
0
LINE
8
0
6
CONTINUOUS
10
-0.007123
20
0.070884
30
0.0
11
-0.011651
21
0.069073
31
0.0
0
LINE
8
0
6
CONTINUOUS
10
-0.011651
20
0.069073
30
0.0
11
-0.015651
21
0.066055
31
0.0
0
LINE
8
0
6
CONTINUOUS
10
-0.021160
20
0.052698
30
0.0
11
-0.020480
21
0.047868
31
0.0
0
LINE
8
0
6
CONTINUOUS
10
-0.020480
20
0.057527
30
0.0
11
-0.021160
21
0.052698
31
0.0
0
LINE
8
0
6
CONTINUOUS
10
-0.007050
20
-0.014622
30
0.0
11
-0.006688
21
-0.014143
31
0.0
0
LINE
8
0
6
CONTINUOUS
10
-0.007050
20
-0.014064
30
0.0
11
-0.007050
21
-0.014622
31
0.0
0
LINE
8
0
6
CONTINUOUS
10
-0.007050
20
0.031128
30
0.0
11
-0.007050
21
0.028077
31
0.0
0
LINE
8
0
6
CONTINUOUS
10
-0.008070
20
0.033570
30
0.0
11
-0.007324
21
0.032139
31
0.0
0
LINE
8
0
6
CONTINUOUS
10
0.003482
20
0.033570
30
0.0
11
0.004188
21
0.034550
31
0.0
0
LINE
8
0
6
CONTINUOUS
10
0.002462
20
0.031128
30
0.0
11
0.002736
21
0.032139
31
0.0
0
LINE
8
0
6
CONTINUOUS
10
0.002511
20
0.032231
30
0.0
11
0.003409
21
0.033605
31
0.0
0
LINE
8
0
6
CONTINUOUS
10
0.003409
20
0.033605
30
0.0
11
0.004231
21
0.034566
31
0.0
0
LINE
8
0
6
CONTINUOUS
10
-0.004114
20
0.027758
30
0.0
11
-0.004114
21
-0.012906
31
0.0
0
LINE
8
0
6
CONTINUOUS
10
-0.009510
20
0.035123
30
0.0
11
-0.008819
21
0.034566
31
0.0
0
LINE
8
0
6
CONTINUOUS
10
0.004519
20
0.035074
30
0.0
11
0.003673
21
0.034476
31
0.0
0
LINE
8
0
6
CONTINUOUS
10
0.002100
20
0.031221
30
0.0
11
0.002511
21
0.032231
31
0.0
0
LINE
8
0
6
CONTINUOUS
10
0.002462
20
0.025235
30
0.0
11
0.002462
21
0.028077
31
0.0
0
LINE
8
0
6
CONTINUOUS
10
-0.000474
20
0.027758
30
0.0
11
-0.000474
21
0.030693
31
0.0
0
LINE
8
0
6
CONTINUOUS
10
0.002462
20
-0.014064
30
0.0
11
0.002462
21
0.025235
31
0.0
0
LINE
8
0
6
CONTINUOUS
10
-0.002294
20
0.039209
30
0.0
11
-0.002294
21
0.035299
31
0.0
0
LINE
8
0
6
CONTINUOUS
10
-0.007099
20
0.032231
30
0.0
11
-0.006688
21
0.031221
31
0.0
0
LINE
8
0
6
CONTINUOUS
10
0.002462
20
0.028077
30
0.0
11
0.002462
21
0.031128
31
0.0
0
LINE
8
0
6
CONTINUOUS
10
-0.002294
20
0.028432
30
0.0
11
-0.002294
21
-0.012810
31
0.0
0
LINE
8
0
6
CONTINUOUS
10
-0.002294
20
0.031406
30
0.0
11
-0.002294
21
0.035299
31
0.0
0
LINE
8
0
6
CONTINUOUS
10
-0.005657
20
-0.013178
30
0.0
11
-0.005693
21
0.025636
31
0.0
0
LINE
8
0
6
CONTINUOUS
10
-0.006253
20
0.032265
30
0.0
11
-0.007255
21
0.033537
31
0.0
0
LINE
8
0
6
CONTINUOUS
10
-0.008776
20
0.034550
30
0.0
11
-0.008070
21
0.033570
31
0.0
0
LINE
8
0
6
CONTINUOUS
10
-0.011651
20
0.036322
30
0.0
11
-0.009510
21
0.035123
31
0.0
0
LINE
8
0
6
CONTINUOUS
10
-0.008819
20
0.034566
30
0.0
11
-0.007997
21
0.033605
31
0.0
0
LINE
8
0
6
CONTINUOUS
10
0.004641
20
0.035089
30
0.0
11
0.007063
21
0.036322
31
0.0
0
LINE
8
0
6
CONTINUOUS
10
0.007063
20
0.036322
30
0.0
11
0.004519
21
0.035074
31
0.0
0
LINE
8
0
6
CONTINUOUS
10
-0.002294
20
0.043133
30
0.0
11
-0.002294
21
0.039209
31
0.0
0
LINE
8
0
6
CONTINUOUS
10
-0.007050
20
0.028077
30
0.0
11
-0.007050
21
0.025235
31
0.0
0
LINE
8
0
6
CONTINUOUS
10
-0.002294
20
0.028432
30
0.0
11
-0.002294
21
0.031406
31
0.0
0
LINE
8
0
6
CONTINUOUS
10
-0.000340
20
0.033259
30
0.0
11
-0.000474
21
0.030693
31
0.0
0
LINE
8
0
6
CONTINUOUS
10
-0.008261
20
0.034476
30
0.0
11
-0.009107
21
0.035074
31
0.0
0
LINE
8
0
6
CONTINUOUS
10
-0.011651
20
0.036322
30
0.0
11
-0.009229
21
0.035089
31
0.0
0
LINE
8
0
6
CONTINUOUS
10
-0.007255
20
0.033537
30
0.0
11
-0.008261
21
0.034476
31
0.0
0
LINE
8
0
6
CONTINUOUS
10
0.003673
20
0.034476
30
0.0
11
0.002667
21
0.033537
31
0.0
0
LINE
8
0
6
CONTINUOUS
10
0.004922
20
0.035123
30
0.0
11
0.007063
21
0.036322
31
0.0
0
LINE
8
0
6
CONTINUOUS
10
-0.004114
20
0.027758
30
0.0
11
-0.004114
21
0.030693
31
0.0
0
LINE
8
0
6
CONTINUOUS
10
0.001127
20
0.031234
30
0.0
11
0.001607
21
0.031228
31
0.0
0
LINE
8
0
6
CONTINUOUS
10
0.001665
20
0.032265
30
0.0
11
0.001127
21
0.031234
31
0.0
0
LINE
8
0
6
CONTINUOUS
10
-0.002294
20
0.047076
30
0.0
11
-0.002294
21
0.043133
31
0.0
0
LINE
8
0
6
CONTINUOUS
10
-0.005715
20
0.031234
30
0.0
11
-0.005695
21
0.028446
31
0.0
0
LINE
8
0
6
CONTINUOUS
10
-0.000474
20
-0.013464
30
0.0
11
-0.000474
21
-0.012906
31
0.0
0
LINE
8
0
6
CONTINUOUS
10
-0.002294
20
-0.013369
30
0.0
11
-0.000474
21
-0.013464
31
0.0
0
LINE
8
0
6
CONTINUOUS
10
-0.002294
20
-0.012810
30
0.0
11
-0.002294
21
-0.013369
31
0.0
0
LINE
8
0
6
CONTINUOUS
10
-0.005715
20
0.031234
30
0.0
11
-0.006253
21
0.032265
31
0.0
0
LINE
8
0
6
CONTINUOUS
10
-0.000474
20
0.027758
30
0.0
11
-0.000474
21
-0.012906
31
0.0
0
ENDSEC
0
EOF
