999
Erzeugt mit innoplus bad 
0
SECTION
2
HEADER
9
$ACADVER
1
AC1009
9
$DWGCODEPAGE
3
ISO8859-1
0
ENDSEC
0
SECTION
2
TABLES
0
TABLE
2
LAYER
70
1
0
LAYER
2
0
70
0
62
7
6
CONTINUOUS
0
ENDTAB
0
ENDSEC
0
SECTION
2
ENTITIES
0
LINE
8
0
6
CONTINUOUS
10
-0.007092
20
-0.013991
30
0.0
11
-0.003785
21
-0.012852
31
0.0
0
LINE
8
0
6
CONTINUOUS
10
-0.009717
20
-0.015765
30
0.0
11
-0.007092
21
-0.013991
31
0.0
0
LINE
8
0
6
CONTINUOUS
10
-0.011402
20
-0.018000
30
0.0
11
-0.009717
21
-0.015765
31
0.0
0
LINE
8
0
6
CONTINUOUS
10
-0.011982
20
-0.019841
30
0.0
11
-0.011982
21
-0.020478
31
0.0
0
LINE
8
0
6
CONTINUOUS
10
-0.011982
20
-0.020478
30
0.0
11
-0.011402
21
-0.018000
31
0.0
0
LINE
8
0
6
CONTINUOUS
10
-0.011982
20
-0.020478
30
0.0
11
-0.011402
21
-0.022955
31
0.0
0
LINE
8
0
6
CONTINUOUS
10
-0.011402
20
-0.022955
30
0.0
11
-0.009716
21
-0.025191
31
0.0
0
LINE
8
0
6
CONTINUOUS
10
-0.009716
20
-0.025191
30
0.0
11
-0.007092
21
-0.026964
31
0.0
0
LINE
8
0
6
CONTINUOUS
10
-0.007092
20
-0.026964
30
0.0
11
-0.003785
21
-0.028103
31
0.0
0
LINE
8
0
6
CONTINUOUS
10
-0.003785
20
-0.028103
30
0.0
11
-0.000119
21
-0.028496
31
0.0
0
LINE
8
0
6
CONTINUOUS
10
-0.000119
20
-0.028496
30
0.0
11
0.003547
21
-0.028103
31
0.0
0
LINE
8
0
6
CONTINUOUS
10
0.003547
20
-0.028103
30
0.0
11
0.006854
21
-0.026964
31
0.0
0
LINE
8
0
6
CONTINUOUS
10
0.006854
20
-0.026964
30
0.0
11
0.009479
21
-0.025191
31
0.0
0
LINE
8
0
6
CONTINUOUS
10
0.009479
20
-0.025191
30
0.0
11
0.011164
21
-0.022955
31
0.0
0
LINE
8
0
6
CONTINUOUS
10
0.011164
20
-0.022955
30
0.0
11
0.011744
21
-0.020478
31
0.0
0
LINE
8
0
6
CONTINUOUS
10
0.011744
20
-0.020478
30
0.0
11
0.011744
21
-0.019841
31
0.0
0
LINE
8
0
6
CONTINUOUS
10
0.011164
20
-0.018000
30
0.0
11
0.011744
21
-0.020478
31
0.0
0
LINE
8
0
6
CONTINUOUS
10
0.009479
20
-0.015765
30
0.0
11
0.011164
21
-0.018000
31
0.0
0
LINE
8
0
6
CONTINUOUS
10
0.006854
20
-0.013991
30
0.0
11
0.009479
21
-0.015765
31
0.0
0
LINE
8
0
6
CONTINUOUS
10
0.003547
20
-0.012852
30
0.0
11
0.006854
21
-0.013991
31
0.0
0
LINE
8
0
6
CONTINUOUS
10
-0.000119
20
-0.012460
30
0.0
11
0.003547
21
-0.012852
31
0.0
0
LINE
8
0
6
CONTINUOUS
10
-0.003785
20
-0.012852
30
0.0
11
-0.000119
21
-0.012460
31
0.0
0
LINE
8
0
6
CONTINUOUS
10
0.011744
20
-0.019841
30
0.0
11
0.011744
21
-0.015656
31
0.0
0
LINE
8
0
6
CONTINUOUS
10
-0.011982
20
-0.015656
30
0.0
11
-0.011982
21
-0.019841
31
0.0
0
LINE
8
0
6
CONTINUOUS
10
-0.005423
20
-0.015545
30
0.0
11
-0.002907
21
-0.014679
31
0.0
0
LINE
8
0
6
CONTINUOUS
10
-0.007419
20
-0.016894
30
0.0
11
-0.005423
21
-0.015545
31
0.0
0
LINE
8
0
6
CONTINUOUS
10
-0.008700
20
-0.018594
30
0.0
11
-0.007419
21
-0.016894
31
0.0
0
LINE
8
0
6
CONTINUOUS
10
-0.009141
20
-0.020478
30
0.0
11
-0.008700
21
-0.018594
31
0.0
0
LINE
8
0
6
CONTINUOUS
10
0.008462
20
-0.018594
30
0.0
11
0.008903
21
-0.020478
31
0.0
0
LINE
8
0
6
CONTINUOUS
10
0.007181
20
-0.016894
30
0.0
11
0.008462
21
-0.018594
31
0.0
0
LINE
8
0
6
CONTINUOUS
10
0.005185
20
-0.015545
30
0.0
11
0.007181
21
-0.016894
31
0.0
0
LINE
8
0
6
CONTINUOUS
10
0.002670
20
-0.014679
30
0.0
11
0.005185
21
-0.015545
31
0.0
0
LINE
8
0
6
CONTINUOUS
10
-0.000119
20
-0.014381
30
0.0
11
0.002670
21
-0.014679
31
0.0
0
LINE
8
0
6
CONTINUOUS
10
-0.002907
20
-0.014679
30
0.0
11
-0.000119
21
-0.014381
31
0.0
0
LINE
8
0
6
CONTINUOUS
10
-0.005423
20
-0.025028
30
0.0
11
-0.007419
21
-0.023679
31
0.0
0
LINE
8
0
6
CONTINUOUS
10
-0.007419
20
-0.024061
30
0.0
11
-0.005423
21
-0.025410
31
0.0
0
LINE
8
0
6
CONTINUOUS
10
0.005185
20
-0.025028
30
0.0
11
0.002670
21
-0.025894
31
0.0
0
LINE
8
0
6
CONTINUOUS
10
0.002670
20
-0.026276
30
0.0
11
0.005185
21
-0.025410
31
0.0
0
LINE
8
0
6
CONTINUOUS
10
0.007181
20
-0.023679
30
0.0
11
0.005185
21
-0.025028
31
0.0
0
LINE
8
0
6
CONTINUOUS
10
0.005185
20
-0.025410
30
0.0
11
0.007181
21
-0.024061
31
0.0
0
LINE
8
0
6
CONTINUOUS
10
-0.002907
20
-0.025894
30
0.0
11
-0.005423
21
-0.025028
31
0.0
0
LINE
8
0
6
CONTINUOUS
10
-0.005423
20
-0.025410
30
0.0
11
-0.002907
21
-0.026276
31
0.0
0
LINE
8
0
6
CONTINUOUS
10
0.008462
20
-0.021980
30
0.0
11
0.007181
21
-0.023679
31
0.0
0
LINE
8
0
6
CONTINUOUS
10
0.007181
20
-0.024061
30
0.0
11
0.008462
21
-0.022361
31
0.0
0
LINE
8
0
6
CONTINUOUS
10
-0.000119
20
-0.026193
30
0.0
11
-0.002907
21
-0.025894
31
0.0
0
LINE
8
0
6
CONTINUOUS
10
-0.002907
20
-0.026276
30
0.0
11
-0.000119
21
-0.026575
31
0.0
0
LINE
8
0
6
CONTINUOUS
10
-0.008700
20
-0.021980
30
0.0
11
-0.009141
21
-0.020096
31
0.0
0
LINE
8
0
6
CONTINUOUS
10
-0.009141
20
-0.020478
30
0.0
11
-0.008700
21
-0.022361
31
0.0
0
LINE
8
0
6
CONTINUOUS
10
0.008903
20
-0.020096
30
0.0
11
0.008462
21
-0.021980
31
0.0
0
LINE
8
0
6
CONTINUOUS
10
0.008462
20
-0.022361
30
0.0
11
0.008903
21
-0.020478
31
0.0
0
LINE
8
0
6
CONTINUOUS
10
0.002670
20
-0.025894
30
0.0
11
-0.000119
21
-0.026193
31
0.0
0
LINE
8
0
6
CONTINUOUS
10
-0.000119
20
-0.026575
30
0.0
11
0.002670
21
-0.026276
31
0.0
0
LINE
8
0
6
CONTINUOUS
10
-0.007419
20
-0.023679
30
0.0
11
-0.008700
21
-0.021980
31
0.0
0
LINE
8
0
6
CONTINUOUS
10
-0.008700
20
-0.022361
30
0.0
11
-0.007419
21
-0.024061
31
0.0
0
LINE
8
0
6
CONTINUOUS
10
0.021883
20
-0.055548
30
0.0
11
0.021985
21
-0.055557
31
0.0
0
LINE
8
0
6
CONTINUOUS
10
0.022075
20
-0.054105
30
0.0
11
0.021839
21
-0.054058
31
0.0
0
LINE
8
0
6
CONTINUOUS
10
0.021840
20
-0.054072
30
0.0
11
0.022075
21
-0.054105
31
0.0
0
LINE
8
0
6
CONTINUOUS
10
0.021890
20
-0.055807
30
0.0
11
0.022731
21
-0.055645
31
0.0
0
LINE
8
0
6
CONTINUOUS
10
0.022853
20
-0.053977
30
0.0
11
0.021828
21
-0.053678
31
0.0
0
LINE
8
0
6
CONTINUOUS
10
0.022964
20
-0.055557
30
0.0
11
0.023119
21
-0.054542
31
0.0
0
LINE
8
0
6
CONTINUOUS
10
0.023119
20
-0.054542
30
0.0
11
0.023059
21
-0.054105
31
0.0
0
LINE
8
0
6
CONTINUOUS
10
0.023059
20
-0.054105
30
0.0
11
0.022841
21
-0.053977
31
0.0
0
LINE
8
0
6
CONTINUOUS
10
0.022075
20
-0.054105
30
0.0
11
0.023059
21
-0.054105
31
0.0
0
LINE
8
0
6
CONTINUOUS
10
0.022964
20
-0.055557
30
0.0
11
0.021985
21
-0.055557
31
0.0
0
LINE
8
0
6
CONTINUOUS
10
0.022731
20
-0.055645
30
0.0
11
0.022964
21
-0.055557
31
0.0
0
LINE
8
0
6
CONTINUOUS
10
-0.004942
20
0.084371
30
0.0
11
-0.004942
21
0.084281
31
0.0
0
LINE
8
0
6
CONTINUOUS
10
-0.001965
20
0.079632
30
0.0
11
-0.001965
21
0.079542
31
0.0
0
LINE
8
0
6
CONTINUOUS
10
-0.002561
20
0.073264
30
0.0
11
-0.003530
21
0.076009
31
0.0
0
LINE
8
0
6
CONTINUOUS
10
-0.009609
20
0.047785
30
0.0
11
-0.005017
21
0.047545
31
0.0
0
LINE
8
0
6
CONTINUOUS
10
-0.003530
20
0.076009
30
0.0
11
-0.001965
21
0.074673
31
0.0
0
LINE
8
0
6
CONTINUOUS
10
-0.004942
20
0.080943
30
0.0
11
-0.004942
21
0.080436
31
0.0
0
LINE
8
0
6
CONTINUOUS
10
-0.004942
20
0.084281
30
0.0
11
-0.004942
21
0.081321
31
0.0
0
LINE
8
0
6
CONTINUOUS
10
-0.001965
20
0.076205
30
0.0
11
-0.001965
21
0.079542
31
0.0
0
LINE
8
0
6
CONTINUOUS
10
-0.005221
20
0.068276
30
0.0
11
-0.004455
21
0.069514
31
0.0
0
LINE
8
0
6
CONTINUOUS
10
0.004704
20
0.084281
30
0.0
11
0.004704
21
0.084371
31
0.0
0
LINE
8
0
6
CONTINUOUS
10
0.002324
20
0.073264
30
0.0
11
0.003292
21
0.076009
31
0.0
0
LINE
8
0
6
CONTINUOUS
10
-0.000119
20
0.079242
30
0.0
11
-0.000119
21
0.079151
31
0.0
0
LINE
8
0
6
CONTINUOUS
10
0.001727
20
0.079542
30
0.0
11
0.001727
21
0.079632
31
0.0
0
LINE
8
0
6
CONTINUOUS
10
0.003228
20
0.071279
30
0.0
11
0.004217
21
0.069514
31
0.0
0
LINE
8
0
6
CONTINUOUS
10
0.016488
20
0.048716
30
0.0
11
0.018325
21
0.049316
31
0.0
0
LINE
8
0
6
CONTINUOUS
10
0.018885
20
0.085832
30
0.0
11
0.018881
21
0.086926
31
0.0
0
LINE
8
0
6
CONTINUOUS
10
-0.000119
20
0.074228
30
0.0
11
-0.000119
21
0.073152
31
0.0
0
LINE
8
0
6
CONTINUOUS
10
0.001727
20
0.074673
30
0.0
11
0.003292
21
0.076009
31
0.0
0
LINE
8
0
6
CONTINUOUS
10
-0.000119
20
0.075164
30
0.0
11
-0.000119
21
0.074228
31
0.0
0
LINE
8
0
6
CONTINUOUS
10
0.004704
20
0.080436
30
0.0
11
0.004704
21
0.080943
31
0.0
0
LINE
8
0
6
CONTINUOUS
10
0.004704
20
0.081321
30
0.0
11
0.004704
21
0.084281
31
0.0
0
LINE
8
0
6
CONTINUOUS
10
-0.000119
20
0.079151
30
0.0
11
-0.000119
21
0.075808
31
0.0
0
LINE
8
0
6
CONTINUOUS
10
0.001727
20
0.079542
30
0.0
11
0.001727
21
0.076205
31
0.0
0
LINE
8
0
6
CONTINUOUS
10
0.003292
20
0.077392
30
0.0
11
0.003292
21
0.080654
31
0.0
0
LINE
8
0
6
CONTINUOUS
10
0.004217
20
0.069514
30
0.0
11
0.004983
21
0.068276
31
0.0
0
LINE
8
0
6
CONTINUOUS
10
-0.003466
20
0.071279
30
0.0
11
-0.004455
21
0.069514
31
0.0
0
LINE
8
0
6
CONTINUOUS
10
-0.002561
20
0.073264
30
0.0
11
-0.003816
21
0.075557
31
0.0
0
LINE
8
0
6
CONTINUOUS
10
-0.003466
20
0.071279
30
0.0
11
-0.002561
21
0.073264
31
0.0
0
LINE
8
0
6
CONTINUOUS
10
0.004504
20
0.077786
30
0.0
11
0.003578
21
0.075557
31
0.0
0
LINE
8
0
6
CONTINUOUS
10
0.002324
20
0.073264
30
0.0
11
0.003228
21
0.071279
31
0.0
0
LINE
8
0
6
CONTINUOUS
10
0.003578
20
0.075557
30
0.0
11
0.002324
21
0.073264
31
0.0
0
LINE
8
0
6
CONTINUOUS
10
-0.018472
20
0.087578
30
0.0
11
-0.019119
21
0.086926
31
0.0
0
LINE
8
0
6
CONTINUOUS
10
-0.009619
20
0.089125
30
0.0
11
-0.013554
21
0.088718
31
0.0
0
LINE
8
0
6
CONTINUOUS
10
-0.005036
20
0.089381
30
0.0
11
-0.009619
21
0.089125
31
0.0
0
LINE
8
0
6
CONTINUOUS
10
-0.000119
20
0.089468
30
0.0
11
-0.005036
21
0.089381
31
0.0
0
LINE
8
0
6
CONTINUOUS
10
-0.013554
20
0.088718
30
0.0
11
-0.016573
21
0.088190
31
0.0
0
LINE
8
0
6
CONTINUOUS
10
-0.016573
20
0.088190
30
0.0
11
-0.018472
21
0.087578
31
0.0
0
LINE
8
0
6
CONTINUOUS
10
-0.006089
20
0.084555
30
0.0
11
-0.007028
21
0.084617
31
0.0
0
LINE
8
0
6
CONTINUOUS
10
0.018881
20
0.086926
30
0.0
11
0.018234
21
0.087578
31
0.0
0
LINE
8
0
6
CONTINUOUS
10
0.018211
20
0.086325
30
0.0
11
0.018881
21
0.086926
31
0.0
0
LINE
8
0
6
CONTINUOUS
10
0.013316
20
0.088718
30
0.0
11
0.009381
21
0.089124
31
0.0
0
LINE
8
0
6
CONTINUOUS
10
0.009381
20
0.089124
30
0.0
11
0.004799
21
0.089381
31
0.0
0
LINE
8
0
6
CONTINUOUS
10
0.004799
20
0.089381
30
0.0
11
-0.000119
21
0.089468
31
0.0
0
LINE
8
0
6
CONTINUOUS
10
0.016336
20
0.088190
30
0.0
11
0.013316
21
0.088718
31
0.0
0
LINE
8
0
6
CONTINUOUS
10
0.009381
20
0.084768
30
0.0
11
0.013316
21
0.085161
31
0.0
0
LINE
8
0
6
CONTINUOUS
10
0.018234
20
0.087578
30
0.0
11
0.016336
21
0.088190
31
0.0
0
LINE
8
0
6
CONTINUOUS
10
0.005852
20
0.084555
30
0.0
11
0.006790
21
0.084617
31
0.0
0
LINE
8
0
6
CONTINUOUS
10
0.006790
20
0.084617
30
0.0
11
0.009381
21
0.084768
31
0.0
0
LINE
8
0
6
CONTINUOUS
10
-0.005215
20
0.084578
30
0.0
11
-0.006089
21
0.084555
31
0.0
0
LINE
8
0
6
CONTINUOUS
10
0.005852
20
0.084555
30
0.0
11
0.004978
21
0.084578
31
0.0
0
LINE
8
0
6
CONTINUOUS
10
-0.013665
20
0.048185
30
0.0
11
-0.009609
21
0.047785
31
0.0
0
LINE
8
0
6
CONTINUOUS
10
-0.016726
20
0.048716
30
0.0
11
-0.013665
21
0.048185
31
0.0
0
LINE
8
0
6
CONTINUOUS
10
-0.016573
20
0.085675
30
0.0
11
-0.018472
21
0.086276
31
0.0
0
LINE
8
0
6
CONTINUOUS
10
-0.019119
20
0.086926
30
0.0
11
-0.019123
21
0.085832
31
0.0
0
LINE
8
0
6
CONTINUOUS
10
-0.018472
20
0.086276
30
0.0
11
-0.019119
21
0.086926
31
0.0
0
LINE
8
0
6
CONTINUOUS
10
0.013427
20
0.048185
30
0.0
11
0.016488
21
0.048716
31
0.0
0
LINE
8
0
6
CONTINUOUS
10
-0.005017
20
0.047545
30
0.0
11
-0.000119
21
0.047455
31
0.0
0
LINE
8
0
6
CONTINUOUS
10
-0.000119
20
0.089500
30
0.0
11
-0.001965
21
0.089110
31
0.0
0
LINE
8
0
6
CONTINUOUS
10
-0.004575
20
0.086334
30
0.0
11
-0.004942
21
0.084371
31
0.0
0
LINE
8
0
6
CONTINUOUS
10
-0.004942
20
0.084371
30
0.0
11
-0.004575
21
0.082408
31
0.0
0
LINE
8
0
6
CONTINUOUS
10
-0.004575
20
0.082408
30
0.0
11
-0.003530
21
0.080744
31
0.0
0
LINE
8
0
6
CONTINUOUS
10
-0.003530
20
0.080744
30
0.0
11
-0.001965
21
0.079632
31
0.0
0
LINE
8
0
6
CONTINUOUS
10
-0.001965
20
0.079632
30
0.0
11
-0.000119
21
0.079242
31
0.0
0
LINE
8
0
6
CONTINUOUS
10
0.001727
20
0.089110
30
0.0
11
-0.000119
21
0.089500
31
0.0
0
LINE
8
0
6
CONTINUOUS
10
0.004704
20
0.084371
30
0.0
11
0.004337
21
0.086334
31
0.0
0
LINE
8
0
6
CONTINUOUS
10
0.004337
20
0.082408
30
0.0
11
0.004704
21
0.084371
31
0.0
0
LINE
8
0
6
CONTINUOUS
10
0.003292
20
0.080744
30
0.0
11
0.004337
21
0.082408
31
0.0
0
LINE
8
0
6
CONTINUOUS
10
0.001727
20
0.079632
30
0.0
11
0.003292
21
0.080744
31
0.0
0
LINE
8
0
6
CONTINUOUS
10
-0.000119
20
0.079242
30
0.0
11
0.001727
21
0.079632
31
0.0
0
LINE
8
0
6
CONTINUOUS
10
-0.003530
20
0.087998
30
0.0
11
-0.004115
21
0.087067
31
0.0
0
LINE
8
0
6
CONTINUOUS
10
-0.002852
20
0.088480
30
0.0
11
-0.003530
21
0.087998
31
0.0
0
LINE
8
0
6
CONTINUOUS
10
0.003877
20
0.087067
30
0.0
11
0.003292
21
0.087998
31
0.0
0
LINE
8
0
6
CONTINUOUS
10
0.003292
20
0.087998
30
0.0
11
0.002614
21
0.088480
31
0.0
0
LINE
8
0
6
CONTINUOUS
10
-0.004115
20
0.087067
30
0.0
11
-0.004575
21
0.086334
31
0.0
0
LINE
8
0
6
CONTINUOUS
10
-0.001965
20
0.089110
30
0.0
11
-0.002852
21
0.088480
31
0.0
0
LINE
8
0
6
CONTINUOUS
10
0.002614
20
0.088480
30
0.0
11
0.001727
21
0.089110
31
0.0
0
LINE
8
0
6
CONTINUOUS
10
0.004337
20
0.086334
30
0.0
11
0.003877
21
0.087067
31
0.0
0
LINE
8
0
6
CONTINUOUS
10
0.001727
20
0.076205
30
0.0
11
0.001727
21
0.075579
31
0.0
0
LINE
8
0
6
CONTINUOUS
10
0.003292
20
0.077392
30
0.0
11
0.003292
21
0.076823
31
0.0
0
LINE
8
0
6
CONTINUOUS
10
0.004704
20
0.080943
30
0.0
11
0.004704
21
0.081321
31
0.0
0
LINE
8
0
6
CONTINUOUS
10
-0.001965
20
0.076205
30
0.0
11
-0.001965
21
0.075579
31
0.0
0
LINE
8
0
6
CONTINUOUS
10
-0.000119
20
0.075164
30
0.0
11
-0.000119
21
0.075808
31
0.0
0
LINE
8
0
6
CONTINUOUS
10
-0.004942
20
0.081321
30
0.0
11
-0.004942
21
0.080943
31
0.0
0
LINE
8
0
6
CONTINUOUS
10
0.016336
20
0.085675
30
0.0
11
0.013316
21
0.085161
31
0.0
0
LINE
8
0
6
CONTINUOUS
10
-0.019123
20
0.085832
30
0.0
11
-0.019133
21
0.083063
31
0.0
0
LINE
8
0
6
CONTINUOUS
10
-0.013554
20
0.085161
30
0.0
11
-0.016573
21
0.085675
31
0.0
0
LINE
8
0
6
CONTINUOUS
10
-0.009619
20
0.084768
30
0.0
11
-0.013554
21
0.085161
31
0.0
0
LINE
8
0
6
CONTINUOUS
10
0.018895
20
0.083063
30
0.0
11
0.018885
21
0.085832
31
0.0
0
LINE
8
0
6
CONTINUOUS
10
0.018211
20
0.086325
30
0.0
11
0.016336
21
0.085675
31
0.0
0
LINE
8
0
6
CONTINUOUS
10
-0.007028
20
0.084617
30
0.0
11
-0.009619
21
0.084768
31
0.0
0
LINE
8
0
6
CONTINUOUS
10
0.004779
20
0.047545
30
0.0
11
0.009371
21
0.047785
31
0.0
0
LINE
8
0
6
CONTINUOUS
10
0.019010
20
0.050841
30
0.0
11
0.018944
21
0.069215
31
0.0
0
LINE
8
0
6
CONTINUOUS
10
-0.019182
20
0.069215
30
0.0
11
-0.019248
21
0.050841
31
0.0
0
LINE
8
0
6
CONTINUOUS
10
0.018944
20
0.069215
30
0.0
11
0.018935
21
0.071984
31
0.0
0
LINE
8
0
6
CONTINUOUS
10
0.018935
20
0.071984
30
0.0
11
0.018925
21
0.074754
31
0.0
0
LINE
8
0
6
CONTINUOUS
10
0.018925
20
0.074754
30
0.0
11
0.018915
21
0.077524
31
0.0
0
LINE
8
0
6
CONTINUOUS
10
0.018915
20
0.077524
30
0.0
11
0.018905
21
0.080293
31
0.0
0
LINE
8
0
6
CONTINUOUS
10
0.018905
20
0.080293
30
0.0
11
0.018895
21
0.083063
31
0.0
0
LINE
8
0
6
CONTINUOUS
10
-0.019172
20
0.071984
30
0.0
11
-0.019182
21
0.069215
31
0.0
0
LINE
8
0
6
CONTINUOUS
10
-0.019162
20
0.074754
30
0.0
11
-0.019172
21
0.071984
31
0.0
0
LINE
8
0
6
CONTINUOUS
10
-0.019153
20
0.077524
30
0.0
11
-0.019162
21
0.074754
31
0.0
0
LINE
8
0
6
CONTINUOUS
10
-0.019143
20
0.080293
30
0.0
11
-0.019153
21
0.077524
31
0.0
0
LINE
8
0
6
CONTINUOUS
10
-0.019133
20
0.083063
30
0.0
11
-0.019143
21
0.080293
31
0.0
0
LINE
8
0
6
CONTINUOUS
10
-0.019251
20
0.049957
30
0.0
11
-0.018562
21
0.049316
31
0.0
0
LINE
8
0
6
CONTINUOUS
10
-0.019248
20
0.050841
30
0.0
11
-0.019251
21
0.049957
31
0.0
0
LINE
8
0
6
CONTINUOUS
10
-0.018562
20
0.049316
30
0.0
11
-0.016726
21
0.048716
31
0.0
0
LINE
8
0
6
CONTINUOUS
10
0.018325
20
0.049316
30
0.0
11
0.019013
21
0.049957
31
0.0
0
LINE
8
0
6
CONTINUOUS
10
0.019013
20
0.049957
30
0.0
11
0.019010
21
0.050841
31
0.0
0
LINE
8
0
6
CONTINUOUS
10
0.009371
20
0.047785
30
0.0
11
0.013427
21
0.048185
31
0.0
0
LINE
8
0
6
CONTINUOUS
10
-0.000119
20
0.047455
30
0.0
11
0.004779
21
0.047545
31
0.0
0
LINE
8
0
6
CONTINUOUS
10
-0.023087
20
-0.088529
30
0.0
11
-0.023119
21
-0.089500
31
0.0
0
LINE
8
0
6
CONTINUOUS
10
-0.023119
20
-0.089500
30
0.0
11
-0.022335
21
-0.089500
31
0.0
0
LINE
8
0
6
CONTINUOUS
10
-0.006072
20
-0.089500
30
0.0
11
-0.000119
21
-0.089500
31
0.0
0
LINE
8
0
6
CONTINUOUS
10
-0.011619
20
-0.089500
30
0.0
11
-0.006072
21
-0.089500
31
0.0
0
LINE
8
0
6
CONTINUOUS
10
0.019800
20
-0.089500
30
0.0
11
0.022097
21
-0.089500
31
0.0
0
LINE
8
0
6
CONTINUOUS
10
0.022881
20
-0.089500
30
0.0
11
0.022849
21
-0.088529
31
0.0
0
LINE
8
0
6
CONTINUOUS
10
-0.000119
20
-0.089500
30
0.0
11
0.005834
21
-0.089500
31
0.0
0
LINE
8
0
6
CONTINUOUS
10
0.005834
20
-0.089500
30
0.0
11
0.011381
21
-0.089500
31
0.0
0
LINE
8
0
6
CONTINUOUS
10
-0.016382
20
-0.089500
30
0.0
11
-0.011619
21
-0.089500
31
0.0
0
LINE
8
0
6
CONTINUOUS
10
0.016539
20
0.015007
30
0.0
11
0.013845
21
0.033549
31
0.0
0
LINE
8
0
6
CONTINUOUS
10
0.022881
20
-0.089500
30
0.0
11
0.022097
21
-0.089500
31
0.0
0
LINE
8
0
6
CONTINUOUS
10
0.019800
20
-0.089500
30
0.0
11
0.016145
21
-0.089500
31
0.0
0
LINE
8
0
6
CONTINUOUS
10
0.016336
20
0.047285
30
0.0
11
0.018234
21
0.047887
31
0.0
0
LINE
8
0
6
CONTINUOUS
10
0.009381
20
0.046378
30
0.0
11
0.013316
21
0.046771
31
0.0
0
LINE
8
0
6
CONTINUOUS
10
0.004799
20
0.046132
30
0.0
11
0.009381
21
0.046378
31
0.0
0
LINE
8
0
6
CONTINUOUS
10
0.018881
20
0.048536
30
0.0
11
0.018234
21
0.047887
31
0.0
0
LINE
8
0
6
CONTINUOUS
10
0.018896
20
0.047565
30
0.0
11
0.018881
21
0.048536
31
0.0
0
LINE
8
0
6
CONTINUOUS
10
0.018881
20
0.048536
30
0.0
11
0.018234
21
0.049189
31
0.0
0
LINE
8
0
6
CONTINUOUS
10
0.013316
20
0.046771
30
0.0
11
0.016336
21
0.047285
31
0.0
0
LINE
8
0
6
CONTINUOUS
10
-0.000119
20
0.046048
30
0.0
11
0.004799
21
0.046132
31
0.0
0
LINE
8
0
6
CONTINUOUS
10
0.010140
20
-0.023701
30
0.0
11
0.013580
21
-0.019788
31
0.0
0
LINE
8
0
6
CONTINUOUS
10
0.013580
20
-0.019788
30
0.0
11
0.015083
21
-0.015102
31
0.0
0
LINE
8
0
6
CONTINUOUS
10
0.015083
20
-0.015102
30
0.0
11
0.015107
21
-0.014679
31
0.0
0
LINE
8
0
6
CONTINUOUS
10
0.013614
20
-0.010489
30
0.0
11
0.015083
21
-0.015102
31
0.0
0
LINE
8
0
6
CONTINUOUS
10
0.005501
20
-0.004712
30
0.0
11
-0.000119
21
-0.003897
31
0.0
0
LINE
8
0
6
CONTINUOUS
10
0.010292
20
-0.007015
30
0.0
11
0.005501
21
-0.004712
31
0.0
0
LINE
8
0
6
CONTINUOUS
10
0.013614
20
-0.010489
30
0.0
11
0.010292
21
-0.007015
31
0.0
0
LINE
8
0
6
CONTINUOUS
10
0.019327
20
0.031715
30
0.0
11
0.018896
21
0.047565
31
0.0
0
LINE
8
0
6
CONTINUOUS
10
-0.019565
20
0.031715
30
0.0
11
-0.019996
21
0.017004
31
0.0
0
LINE
8
0
6
CONTINUOUS
10
-0.016874
20
0.015227
30
0.0
11
-0.017701
21
-0.005858
31
0.0
0
LINE
8
0
6
CONTINUOUS
10
0.016539
20
0.015007
30
0.0
11
0.013516
21
0.026537
31
0.0
0
LINE
8
0
6
CONTINUOUS
10
0.016548
20
0.014103
30
0.0
11
0.016539
21
0.015007
31
0.0
0
LINE
8
0
6
CONTINUOUS
10
0.013516
20
0.026537
30
0.0
11
0.009492
21
0.028822
31
0.0
0
LINE
8
0
6
CONTINUOUS
10
-0.000119
20
0.030551
30
0.0
11
0.004847
21
0.030087
31
0.0
0
LINE
8
0
6
CONTINUOUS
10
0.004847
20
0.030087
30
0.0
11
0.009492
21
0.028822
31
0.0
0
LINE
8
0
6
CONTINUOUS
10
0.016578
20
0.011951
30
0.0
11
0.016562
21
0.013026
31
0.0
0
LINE
8
0
6
CONTINUOUS
10
0.013613
20
0.022520
30
0.0
11
0.013677
21
0.019280
31
0.0
0
LINE
8
0
6
CONTINUOUS
10
0.016562
20
0.013026
30
0.0
11
0.016548
21
0.014103
31
0.0
0
LINE
8
0
6
CONTINUOUS
10
0.013516
20
0.026537
30
0.0
11
0.013613
21
0.022520
31
0.0
0
LINE
8
0
6
CONTINUOUS
10
0.020394
20
-0.004718
30
0.0
11
0.019758
21
0.017004
31
0.0
0
LINE
8
0
6
CONTINUOUS
10
0.015107
20
-0.014679
30
0.0
11
0.016578
21
0.011951
31
0.0
0
LINE
8
0
6
CONTINUOUS
10
-0.019996
20
0.017004
30
0.0
11
-0.020632
21
-0.004718
31
0.0
0
LINE
8
0
6
CONTINUOUS
10
0.019758
20
0.017004
30
0.0
11
0.019327
21
0.031715
31
0.0
0
LINE
8
0
6
CONTINUOUS
10
-0.016779
20
0.014866
30
0.0
11
-0.014082
21
0.033549
31
0.0
0
LINE
8
0
6
CONTINUOUS
10
-0.016382
20
-0.089500
30
0.0
11
-0.020038
21
-0.089500
31
0.0
0
LINE
8
0
6
CONTINUOUS
10
-0.020038
20
-0.089500
30
0.0
11
-0.022335
21
-0.089500
31
0.0
0
LINE
8
0
6
CONTINUOUS
10
-0.018472
20
0.047887
30
0.0
11
-0.016573
21
0.047285
31
0.0
0
LINE
8
0
6
CONTINUOUS
10
-0.013554
20
0.046771
30
0.0
11
-0.009619
21
0.046378
31
0.0
0
LINE
8
0
6
CONTINUOUS
10
-0.009619
20
0.046378
30
0.0
11
-0.005036
21
0.046132
31
0.0
0
LINE
8
0
6
CONTINUOUS
10
-0.019119
20
0.048536
30
0.0
11
-0.019134
21
0.047565
31
0.0
0
LINE
8
0
6
CONTINUOUS
10
-0.018472
20
0.047887
30
0.0
11
-0.019119
21
0.048536
31
0.0
0
LINE
8
0
6
CONTINUOUS
10
-0.018472
20
0.049189
30
0.0
11
-0.019119
21
0.048536
31
0.0
0
LINE
8
0
6
CONTINUOUS
10
-0.016573
20
0.047285
30
0.0
11
-0.013554
21
0.046771
31
0.0
0
LINE
8
0
6
CONTINUOUS
10
-0.005036
20
0.046132
30
0.0
11
-0.000119
21
0.046048
31
0.0
0
LINE
8
0
6
CONTINUOUS
10
-0.013818
20
-0.019788
30
0.0
11
-0.010378
21
-0.023701
31
0.0
0
LINE
8
0
6
CONTINUOUS
10
-0.015321
20
-0.015102
30
0.0
11
-0.013818
21
-0.019788
31
0.0
0
LINE
8
0
6
CONTINUOUS
10
-0.015321
20
-0.015102
30
0.0
11
-0.013851
21
-0.010489
31
0.0
0
LINE
8
0
6
CONTINUOUS
10
-0.015344
20
-0.014679
30
0.0
11
-0.015321
21
-0.015102
31
0.0
0
LINE
8
0
6
CONTINUOUS
10
-0.000119
20
-0.003897
30
0.0
11
-0.005739
21
-0.004712
31
0.0
0
LINE
8
0
6
CONTINUOUS
10
-0.005739
20
-0.004712
30
0.0
11
-0.010530
21
-0.007015
31
0.0
0
LINE
8
0
6
CONTINUOUS
10
-0.010530
20
-0.007015
30
0.0
11
-0.013851
21
-0.010489
31
0.0
0
LINE
8
0
6
CONTINUOUS
10
-0.019134
20
0.047565
30
0.0
11
-0.019565
21
0.031715
31
0.0
0
LINE
8
0
6
CONTINUOUS
10
-0.020632
20
-0.004718
30
0.0
11
-0.023087
21
-0.088529
31
0.0
0
LINE
8
0
6
CONTINUOUS
10
0.011381
20
-0.089500
30
0.0
11
0.016145
21
-0.089500
31
0.0
0
LINE
8
0
6
CONTINUOUS
10
-0.016779
20
0.014866
30
0.0
11
-0.016786
21
0.014103
31
0.0
0
LINE
8
0
6
CONTINUOUS
10
-0.016779
20
0.014866
30
0.0
11
-0.013754
21
0.026537
31
0.0
0
LINE
8
0
6
CONTINUOUS
10
-0.009729
20
0.028822
30
0.0
11
-0.013754
21
0.026537
31
0.0
0
LINE
8
0
6
CONTINUOUS
10
-0.005085
20
0.030087
30
0.0
11
-0.000119
21
0.030551
31
0.0
0
LINE
8
0
6
CONTINUOUS
10
-0.009729
20
0.028822
30
0.0
11
-0.005085
21
0.030087
31
0.0
0
LINE
8
0
6
CONTINUOUS
10
-0.013915
20
0.019280
30
0.0
11
-0.013851
21
0.022520
31
0.0
0
LINE
8
0
6
CONTINUOUS
10
-0.016800
20
0.013026
30
0.0
11
-0.016816
21
0.011951
31
0.0
0
LINE
8
0
6
CONTINUOUS
10
-0.013851
20
0.022520
30
0.0
11
-0.013754
21
0.026537
31
0.0
0
LINE
8
0
6
CONTINUOUS
10
-0.016786
20
0.014103
30
0.0
11
-0.016800
21
0.013026
31
0.0
0
LINE
8
0
6
CONTINUOUS
10
-0.016816
20
0.011951
30
0.0
11
-0.015344
21
-0.014679
31
0.0
0
LINE
8
0
6
CONTINUOUS
10
0.022849
20
-0.088529
30
0.0
11
0.020394
21
-0.004718
31
0.0
0
LINE
8
0
6
CONTINUOUS
10
0.009122
20
-0.010635
30
0.0
11
0.009479
21
-0.010880
31
0.0
0
LINE
8
0
6
CONTINUOUS
10
-0.012381
20
0.046897
30
0.0
11
-0.012014
21
0.046861
31
0.0
0
LINE
8
0
6
CONTINUOUS
10
0.011610
20
-0.015076
30
0.0
11
0.011744
21
-0.015656
31
0.0
0
LINE
8
0
6
CONTINUOUS
10
-0.003785
20
-0.007928
30
0.0
11
-0.000119
21
-0.007530
31
0.0
0
LINE
8
0
6
CONTINUOUS
10
-0.009717
20
-0.010880
30
0.0
11
-0.009360
21
-0.010636
31
0.0
0
LINE
8
0
6
CONTINUOUS
10
-0.000119
20
-0.007530
30
0.0
11
0.003547
21
-0.007928
31
0.0
0
LINE
8
0
6
CONTINUOUS
10
-0.011848
20
-0.015076
30
0.0
11
-0.011982
21
-0.015656
31
0.0
0
ENDSEC
0
EOF
