999
Erzeugt mit innoplus bad 
0
SECTION
2
HEADER
9
$ACADVER
1
AC1009
9
$DWGCODEPAGE
3
ISO8859-1
0
ENDSEC
0
SECTION
2
TABLES
0
TABLE
2
LAYER
70
1
0
LAYER
2
0
70
0
62
7
6
CONTINUOUS
0
ENDTAB
0
ENDSEC
0
SECTION
2
ENTITIES
0
LINE
8
0
6
CONTINUOUS
10
-0.050035
20
-0.028496
30
0.0
11
-0.049477
21
-0.027858
31
0.0
0
LINE
8
0
6
CONTINUOUS
10
-0.050463
20
-0.028103
30
0.0
11
-0.050035
21
-0.028496
31
0.0
0
LINE
8
0
6
CONTINUOUS
10
-0.051704
20
-0.026964
30
0.0
11
-0.050463
21
-0.028103
31
0.0
0
LINE
8
0
6
CONTINUOUS
10
-0.053636
20
-0.025191
30
0.0
11
-0.051704
21
-0.026964
31
0.0
0
LINE
8
0
6
CONTINUOUS
10
-0.056071
20
-0.022955
30
0.0
11
-0.053636
21
-0.025191
31
0.0
0
LINE
8
0
6
CONTINUOUS
10
-0.058770
20
-0.020478
30
0.0
11
-0.056071
21
-0.022955
31
0.0
0
LINE
8
0
6
CONTINUOUS
10
-0.061469
20
-0.018000
30
0.0
11
-0.058770
21
-0.020478
31
0.0
0
LINE
8
0
6
CONTINUOUS
10
-0.063904
20
-0.015765
30
0.0
11
-0.061469
21
-0.018000
31
0.0
0
LINE
8
0
6
CONTINUOUS
10
-0.065836
20
-0.013991
30
0.0
11
-0.063904
21
-0.015765
31
0.0
0
LINE
8
0
6
CONTINUOUS
10
-0.067077
20
-0.012852
30
0.0
11
-0.065836
21
-0.013991
31
0.0
0
LINE
8
0
6
CONTINUOUS
10
-0.066946
20
-0.011823
30
0.0
11
-0.067504
21
-0.012460
31
0.0
0
LINE
8
0
6
CONTINUOUS
10
-0.067504
20
-0.012460
30
0.0
11
-0.067077
21
-0.012852
31
0.0
0
LINE
8
0
6
CONTINUOUS
10
-0.049477
20
-0.027858
30
0.0
11
-0.045735
21
-0.023782
31
0.0
0
LINE
8
0
6
CONTINUOUS
10
-0.063005
20
-0.007530
30
0.0
11
-0.066946
21
-0.011823
31
0.0
0
LINE
8
0
6
CONTINUOUS
10
0.056986
20
-0.057608
30
0.0
11
0.056587
21
-0.058165
31
0.0
0
LINE
8
0
6
CONTINUOUS
10
0.057192
20
-0.057880
30
0.0
11
0.057605
21
-0.057188
31
0.0
0
LINE
8
0
6
CONTINUOUS
10
0.062671
20
-0.055635
30
0.0
11
0.059066
21
-0.055271
31
0.0
0
LINE
8
0
6
CONTINUOUS
10
0.062671
20
-0.055635
30
0.0
11
0.059491
21
-0.055856
31
0.0
0
LINE
8
0
6
CONTINUOUS
10
0.060226
20
-0.056036
30
0.0
11
0.064061
21
-0.055896
31
0.0
0
LINE
8
0
6
CONTINUOUS
10
0.066621
20
-0.055557
30
0.0
11
0.064533
21
-0.055645
31
0.0
0
LINE
8
0
6
CONTINUOUS
10
0.059066
20
-0.055271
30
0.0
11
0.062484
21
-0.055557
31
0.0
0
LINE
8
0
6
CONTINUOUS
10
0.056588
20
-0.055432
30
0.0
11
0.055858
21
-0.055936
31
0.0
0
LINE
8
0
6
CONTINUOUS
10
0.057459
20
-0.057139
30
0.0
11
0.058019
21
-0.056857
31
0.0
0
LINE
8
0
6
CONTINUOUS
10
0.056816
20
-0.056350
30
0.0
11
0.056230
21
-0.056725
31
0.0
0
LINE
8
0
6
CONTINUOUS
10
0.064069
20
-0.053614
30
0.0
11
0.060498
21
-0.053166
31
0.0
0
LINE
8
0
6
CONTINUOUS
10
0.055415
20
-0.057880
30
0.0
11
0.055683
21
-0.057188
31
0.0
0
LINE
8
0
6
CONTINUOUS
10
0.055100
20
-0.056437
30
0.0
11
0.054676
21
-0.057322
31
0.0
0
LINE
8
0
6
CONTINUOUS
10
0.054001
20
-0.056933
30
0.0
11
0.053480
21
-0.057759
31
0.0
0
LINE
8
0
6
CONTINUOUS
10
0.055173
20
-0.058580
30
0.0
11
0.055415
21
-0.057880
31
0.0
0
LINE
8
0
6
CONTINUOUS
10
0.054676
20
-0.057322
30
0.0
11
0.054478
21
-0.058299
31
0.0
0
LINE
8
0
6
CONTINUOUS
10
0.056230
20
-0.056725
30
0.0
11
0.055704
21
-0.057170
31
0.0
0
LINE
8
0
6
CONTINUOUS
10
0.056588
20
-0.055432
30
0.0
11
0.059066
21
-0.055271
31
0.0
0
LINE
8
0
6
CONTINUOUS
10
0.056550
20
-0.054454
30
0.0
11
0.058959
21
-0.053962
31
0.0
0
LINE
8
0
6
CONTINUOUS
10
0.062494
20
-0.054105
30
0.0
11
0.059074
21
-0.053456
31
0.0
0
LINE
8
0
6
CONTINUOUS
10
0.058974
20
-0.053666
30
0.0
11
0.062494
21
-0.054105
31
0.0
0
LINE
8
0
6
CONTINUOUS
10
0.055603
20
-0.054804
30
0.0
11
0.056670
21
-0.054167
31
0.0
0
LINE
8
0
6
CONTINUOUS
10
0.056938
20
-0.053871
30
0.0
11
0.055727
21
-0.054553
31
0.0
0
LINE
8
0
6
CONTINUOUS
10
0.054592
20
-0.055641
30
0.0
11
0.055603
21
-0.054804
31
0.0
0
LINE
8
0
6
CONTINUOUS
10
0.055727
20
-0.054553
30
0.0
11
0.054608
21
-0.055458
31
0.0
0
LINE
8
0
6
CONTINUOUS
10
0.053830
20
-0.056728
30
0.0
11
0.054592
21
-0.055641
31
0.0
0
LINE
8
0
6
CONTINUOUS
10
0.054608
20
-0.055458
30
0.0
11
0.053755
21
-0.056566
31
0.0
0
LINE
8
0
6
CONTINUOUS
10
0.053755
20
-0.056566
30
0.0
11
0.053088
21
-0.057436
31
0.0
0
LINE
8
0
6
CONTINUOUS
10
0.056670
20
-0.054167
30
0.0
11
0.058974
21
-0.053666
31
0.0
0
LINE
8
0
6
CONTINUOUS
10
0.065754
20
-0.053614
30
0.0
11
0.064069
21
-0.053614
31
0.0
0
LINE
8
0
6
CONTINUOUS
10
0.065615
20
-0.055557
30
0.0
11
0.066621
21
-0.055557
31
0.0
0
LINE
8
0
6
CONTINUOUS
10
0.064294
20
-0.055557
30
0.0
11
0.065029
21
-0.055557
31
0.0
0
LINE
8
0
6
CONTINUOUS
10
0.064314
20
-0.054105
30
0.0
11
0.065161
21
-0.054105
31
0.0
0
LINE
8
0
6
CONTINUOUS
10
0.066306
20
-0.055909
30
0.0
11
0.064533
21
-0.055645
31
0.0
0
LINE
8
0
6
CONTINUOUS
10
0.064061
20
-0.055896
30
0.0
11
0.066306
21
-0.055909
31
0.0
0
LINE
8
0
6
CONTINUOUS
10
0.066661
20
-0.053614
30
0.0
11
0.065754
21
-0.053614
31
0.0
0
LINE
8
0
6
CONTINUOUS
10
0.064466
20
-0.053977
30
0.0
11
0.065394
21
-0.053977
31
0.0
0
LINE
8
0
6
CONTINUOUS
10
0.066661
20
-0.053614
30
0.0
11
0.065394
21
-0.053977
31
0.0
0
LINE
8
0
6
CONTINUOUS
10
0.064294
20
-0.055557
30
0.0
11
0.064271
21
-0.054542
31
0.0
0
LINE
8
0
6
CONTINUOUS
10
0.064271
20
-0.054542
30
0.0
11
0.064314
21
-0.054105
31
0.0
0
LINE
8
0
6
CONTINUOUS
10
0.062494
20
-0.054105
30
0.0
11
0.064314
21
-0.054105
31
0.0
0
LINE
8
0
6
CONTINUOUS
10
0.064294
20
-0.055557
30
0.0
11
0.062484
21
-0.055557
31
0.0
0
LINE
8
0
6
CONTINUOUS
10
0.065029
20
-0.055557
30
0.0
11
0.065615
21
-0.055557
31
0.0
0
LINE
8
0
6
CONTINUOUS
10
0.059491
20
-0.055856
30
0.0
11
0.056816
21
-0.056350
31
0.0
0
LINE
8
0
6
CONTINUOUS
10
0.065394
20
-0.053977
30
0.0
11
0.065161
21
-0.054105
31
0.0
0
LINE
8
0
6
CONTINUOUS
10
0.065161
20
-0.054105
30
0.0
11
0.065117
21
-0.054542
31
0.0
0
LINE
8
0
6
CONTINUOUS
10
0.058107
20
-0.053595
30
0.0
11
0.056938
21
-0.053871
31
0.0
0
LINE
8
0
6
CONTINUOUS
10
0.060498
20
-0.053166
30
0.0
11
0.058107
21
-0.053595
31
0.0
0
LINE
8
0
6
CONTINUOUS
10
0.056938
20
-0.053871
30
0.0
11
0.059074
21
-0.053456
31
0.0
0
LINE
8
0
6
CONTINUOUS
10
0.054478
20
-0.058299
30
0.0
11
0.052495
21
-0.067644
31
0.0
0
LINE
8
0
6
CONTINUOUS
10
0.055173
20
-0.058580
30
0.0
11
0.052996
21
-0.069193
31
0.0
0
LINE
8
0
6
CONTINUOUS
10
0.053088
20
-0.057436
30
0.0
11
0.052055
21
-0.062138
31
0.0
0
LINE
8
0
6
CONTINUOUS
10
0.066306
20
-0.055909
30
0.0
11
0.066983
21
-0.055645
31
0.0
0
LINE
8
0
6
CONTINUOUS
10
0.066621
20
-0.055557
30
0.0
11
0.066306
21
-0.055909
31
0.0
0
LINE
8
0
6
CONTINUOUS
10
0.066621
20
-0.055557
30
0.0
11
0.066983
21
-0.055645
31
0.0
0
LINE
8
0
6
CONTINUOUS
10
0.066983
20
-0.055645
30
0.0
11
0.067303
21
-0.055557
31
0.0
0
LINE
8
0
6
CONTINUOUS
10
0.056587
20
-0.058165
30
0.0
11
0.056224
21
-0.058761
31
0.0
0
LINE
8
0
6
CONTINUOUS
10
0.056827
20
-0.058580
30
0.0
11
0.057192
21
-0.057880
31
0.0
0
LINE
8
0
6
CONTINUOUS
10
0.057459
20
-0.057139
30
0.0
11
0.056986
21
-0.057608
31
0.0
0
LINE
8
0
6
CONTINUOUS
10
0.057605
20
-0.057188
30
0.0
11
0.058098
21
-0.056725
31
0.0
0
LINE
8
0
6
CONTINUOUS
10
0.066621
20
-0.055557
30
0.0
11
0.067303
21
-0.055557
31
0.0
0
LINE
8
0
6
CONTINUOUS
10
0.067393
20
-0.053977
30
0.0
11
0.066661
21
-0.053614
31
0.0
0
LINE
8
0
6
CONTINUOUS
10
0.067353
20
-0.055557
30
0.0
11
0.067504
21
-0.054542
31
0.0
0
LINE
8
0
6
CONTINUOUS
10
0.067303
20
-0.055557
30
0.0
11
0.067353
21
-0.055557
31
0.0
0
LINE
8
0
6
CONTINUOUS
10
0.058019
20
-0.056857
30
0.0
11
0.061204
21
-0.055856
31
0.0
0
LINE
8
0
6
CONTINUOUS
10
0.067504
20
-0.054542
30
0.0
11
0.067463
21
-0.054105
31
0.0
0
LINE
8
0
6
CONTINUOUS
10
0.067463
20
-0.054105
30
0.0
11
0.067393
21
-0.053977
31
0.0
0
LINE
8
0
6
CONTINUOUS
10
0.054556
20
-0.068898
30
0.0
11
0.056827
21
-0.058580
31
0.0
0
LINE
8
0
6
CONTINUOUS
10
0.056224
20
-0.058761
30
0.0
11
0.053867
21
-0.069785
31
0.0
0
LINE
8
0
6
CONTINUOUS
10
0.052032
20
-0.064711
30
0.0
11
0.053480
21
-0.057759
31
0.0
0
LINE
8
0
6
CONTINUOUS
10
0.014732
20
0.087518
30
0.0
11
0.011298
21
0.087051
31
0.0
0
LINE
8
0
6
CONTINUOUS
10
0.011298
20
0.087051
30
0.0
11
0.005681
21
0.086325
31
0.0
0
LINE
8
0
6
CONTINUOUS
10
-0.056108
20
0.089500
30
0.0
11
-0.056154
21
0.089110
31
0.0
0
LINE
8
0
6
CONTINUOUS
10
-0.055525
20
0.089410
30
0.0
11
-0.056108
21
0.089500
31
0.0
0
LINE
8
0
6
CONTINUOUS
10
0.005136
20
0.086653
30
0.0
11
0.001238
21
0.086406
31
0.0
0
LINE
8
0
6
CONTINUOUS
10
-0.002667
20
0.086321
30
0.0
11
-0.006583
21
0.086399
31
0.0
0
LINE
8
0
6
CONTINUOUS
10
0.023584
20
0.088718
30
0.0
11
0.019732
21
0.088190
31
0.0
0
LINE
8
0
6
CONTINUOUS
10
0.021569
20
0.050594
30
0.0
11
0.026145
21
0.051194
31
0.0
0
LINE
8
0
6
CONTINUOUS
10
-0.010642
20
0.086632
30
0.0
11
-0.055525
21
0.089410
31
0.0
0
LINE
8
0
6
CONTINUOUS
10
-0.056714
20
0.084371
30
0.0
11
-0.056943
21
0.082408
31
0.0
0
LINE
8
0
6
CONTINUOUS
10
-0.007392
20
0.071156
30
0.0
11
-0.006307
21
0.069323
31
0.0
0
LINE
8
0
6
CONTINUOUS
10
-0.056943
20
0.082408
30
0.0
11
-0.057137
21
0.080744
31
0.0
0
LINE
8
0
6
CONTINUOUS
10
-0.008382
20
0.073264
30
0.0
11
-0.009841
21
0.076009
31
0.0
0
LINE
8
0
6
CONTINUOUS
10
-0.057137
20
0.080744
30
0.0
11
-0.057266
21
0.079632
31
0.0
0
LINE
8
0
6
CONTINUOUS
10
-0.057312
20
0.079242
30
0.0
11
-0.056729
21
0.079151
31
0.0
0
LINE
8
0
6
CONTINUOUS
10
-0.056683
20
0.079542
30
0.0
11
-0.057266
21
0.079632
31
0.0
0
LINE
8
0
6
CONTINUOUS
10
-0.006937
20
0.071279
30
0.0
11
-0.005722
21
0.069514
31
0.0
0
LINE
8
0
6
CONTINUOUS
10
0.007240
20
0.048716
30
0.0
11
0.011821
21
0.049316
31
0.0
0
LINE
8
0
6
CONTINUOUS
10
-0.005588
20
0.084768
30
0.0
11
-0.006587
21
0.084617
31
0.0
0
LINE
8
0
6
CONTINUOUS
10
0.024532
20
0.088847
30
0.0
11
0.021492
21
0.088436
31
0.0
0
LINE
8
0
6
CONTINUOUS
10
0.010464
20
0.086926
30
0.0
11
0.005681
21
0.086325
31
0.0
0
LINE
8
0
6
CONTINUOUS
10
-0.010063
20
0.074228
30
0.0
11
-0.008742
21
0.073152
31
0.0
0
LINE
8
0
6
CONTINUOUS
10
0.035792
20
0.052458
30
0.0
11
0.035631
21
0.053344
31
0.0
0
LINE
8
0
6
CONTINUOUS
10
0.035089
20
0.052366
30
0.0
11
0.035792
21
0.052458
31
0.0
0
LINE
8
0
6
CONTINUOUS
10
-0.005714
20
0.067908
30
0.0
11
-0.005410
21
0.066043
31
0.0
0
LINE
8
0
6
CONTINUOUS
10
0.018153
20
0.087983
30
0.0
11
0.014732
21
0.087518
31
0.0
0
LINE
8
0
6
CONTINUOUS
10
-0.009906
20
0.074673
30
0.0
11
-0.009841
21
0.076009
31
0.0
0
LINE
8
0
6
CONTINUOUS
10
-0.011778
20
0.075164
30
0.0
11
-0.010063
21
0.074228
31
0.0
0
LINE
8
0
6
CONTINUOUS
10
-0.006583
20
0.086399
30
0.0
11
-0.008367
21
0.086502
31
0.0
0
LINE
8
0
6
CONTINUOUS
10
-0.010274
20
0.086040
30
0.0
11
-0.008562
21
0.085902
31
0.0
0
LINE
8
0
6
CONTINUOUS
10
-0.056729
20
0.079151
30
0.0
11
-0.013961
21
0.075808
31
0.0
0
LINE
8
0
6
CONTINUOUS
10
-0.056683
20
0.079542
30
0.0
11
-0.013811
21
0.076205
31
0.0
0
LINE
8
0
6
CONTINUOUS
10
-0.013739
20
0.077392
30
0.0
11
-0.056554
21
0.080654
31
0.0
0
LINE
8
0
6
CONTINUOUS
10
-0.006307
20
0.069323
30
0.0
11
-0.005714
21
0.067908
31
0.0
0
LINE
8
0
6
CONTINUOUS
10
0.009052
20
0.086745
30
0.0
11
0.005136
21
0.086653
31
0.0
0
LINE
8
0
6
CONTINUOUS
10
-0.005722
20
0.069514
30
0.0
11
-0.004995
21
0.068276
31
0.0
0
LINE
8
0
6
CONTINUOUS
10
0.021492
20
0.088436
30
0.0
11
0.018153
21
0.087983
31
0.0
0
LINE
8
0
6
CONTINUOUS
10
0.001238
20
0.086406
30
0.0
11
-0.002667
21
0.086321
31
0.0
0
LINE
8
0
6
CONTINUOUS
10
-0.008742
20
0.073152
30
0.0
11
-0.007392
21
0.071156
31
0.0
0
LINE
8
0
6
CONTINUOUS
10
-0.008818
20
0.077786
30
0.0
11
-0.008637
21
0.075557
31
0.0
0
LINE
8
0
6
CONTINUOUS
10
-0.008382
20
0.073264
30
0.0
11
-0.006937
21
0.071279
31
0.0
0
LINE
8
0
6
CONTINUOUS
10
-0.008637
20
0.075557
30
0.0
11
-0.008382
21
0.073264
31
0.0
0
LINE
8
0
6
CONTINUOUS
10
0.023584
20
0.088718
30
0.0
11
0.026547
21
0.089124
31
0.0
0
LINE
8
0
6
CONTINUOUS
10
-0.005588
20
0.084768
30
0.0
11
-0.002635
21
0.085161
31
0.0
0
LINE
8
0
6
CONTINUOUS
10
-0.007454
20
0.084555
30
0.0
11
-0.006587
21
0.084617
31
0.0
0
LINE
8
0
6
CONTINUOUS
10
-0.008395
20
0.084578
30
0.0
11
-0.009386
21
0.084644
31
0.0
0
LINE
8
0
6
CONTINUOUS
10
-0.007454
20
0.084555
30
0.0
11
-0.008395
21
0.084578
31
0.0
0
LINE
8
0
6
CONTINUOUS
10
-0.010455
20
0.084799
30
0.0
11
-0.010342
21
0.083839
31
0.0
0
LINE
8
0
6
CONTINUOUS
10
-0.010455
20
0.084799
30
0.0
11
-0.009386
21
0.084644
31
0.0
0
LINE
8
0
6
CONTINUOUS
10
-0.056285
20
0.087998
30
0.0
11
-0.056396
21
0.087067
31
0.0
0
LINE
8
0
6
CONTINUOUS
10
-0.013961
20
0.075808
30
0.0
11
-0.011778
21
0.075164
31
0.0
0
LINE
8
0
6
CONTINUOUS
10
0.003194
20
0.048185
30
0.0
11
0.007240
21
0.048716
31
0.0
0
LINE
8
0
6
CONTINUOUS
10
0.028414
20
0.089381
30
0.0
11
0.026547
21
0.089124
31
0.0
0
LINE
8
0
6
CONTINUOUS
10
0.002324
20
0.085828
30
0.0
11
-0.005364
21
0.084798
31
0.0
0
LINE
8
0
6
CONTINUOUS
10
0.013347
20
0.087330
30
0.0
11
0.011199
21
0.087037
31
0.0
0
LINE
8
0
6
CONTINUOUS
10
-0.057312
20
0.079242
30
0.0
11
-0.057266
21
0.079632
31
0.0
0
LINE
8
0
6
CONTINUOUS
10
-0.056229
20
0.088480
30
0.0
11
-0.056285
21
0.087998
31
0.0
0
LINE
8
0
6
CONTINUOUS
10
-0.013811
20
0.076205
30
0.0
11
-0.011624
21
0.075579
31
0.0
0
LINE
8
0
6
CONTINUOUS
10
-0.013739
20
0.077392
30
0.0
11
-0.011556
21
0.076823
31
0.0
0
LINE
8
0
6
CONTINUOUS
10
-0.056482
20
0.086334
30
0.0
11
-0.056714
21
0.084371
31
0.0
0
LINE
8
0
6
CONTINUOUS
10
-0.056396
20
0.087067
30
0.0
11
-0.056482
21
0.086334
31
0.0
0
LINE
8
0
6
CONTINUOUS
10
-0.008367
20
0.086502
30
0.0
11
-0.010642
21
0.086632
31
0.0
0
LINE
8
0
6
CONTINUOUS
10
-0.055571
20
0.089019
30
0.0
11
-0.056154
21
0.089110
31
0.0
0
LINE
8
0
6
CONTINUOUS
10
-0.056154
20
0.089110
30
0.0
11
-0.056229
21
0.088480
31
0.0
0
LINE
8
0
6
CONTINUOUS
10
0.033961
20
0.050799
30
0.0
11
0.033684
21
0.052921
31
0.0
0
LINE
8
0
6
CONTINUOUS
10
0.021569
20
0.050594
30
0.0
11
0.016706
21
0.049957
31
0.0
0
LINE
8
0
6
CONTINUOUS
10
-0.000872
20
0.048392
30
0.0
11
-0.000555
21
0.045983
31
0.0
0
LINE
8
0
6
CONTINUOUS
10
0.001207
20
0.085675
30
0.0
11
-0.002635
21
0.085161
31
0.0
0
LINE
8
0
6
CONTINUOUS
10
0.029251
20
0.088374
30
0.0
11
0.029051
21
0.089468
31
0.0
0
LINE
8
0
6
CONTINUOUS
10
0.029051
20
0.089468
30
0.0
11
0.028414
21
0.089381
31
0.0
0
LINE
8
0
6
CONTINUOUS
10
0.015258
20
0.087578
30
0.0
11
0.010464
21
0.086926
31
0.0
0
LINE
8
0
6
CONTINUOUS
10
0.005681
20
0.086325
30
0.0
11
0.001207
21
0.085675
31
0.0
0
LINE
8
0
6
CONTINUOUS
10
0.019732
20
0.088190
30
0.0
11
0.015258
21
0.087578
31
0.0
0
LINE
8
0
6
CONTINUOUS
10
-0.001692
20
0.047545
30
0.0
11
0.000140
21
0.047785
31
0.0
0
LINE
8
0
6
CONTINUOUS
10
-0.005410
20
0.066043
30
0.0
11
-0.002519
21
0.048309
31
0.0
0
LINE
8
0
6
CONTINUOUS
10
0.032281
20
0.071738
30
0.0
11
0.031776
21
0.074511
31
0.0
0
LINE
8
0
6
CONTINUOUS
10
0.029756
20
0.085601
30
0.0
11
0.029251
21
0.088374
31
0.0
0
LINE
8
0
6
CONTINUOUS
10
0.030261
20
0.082829
30
0.0
11
0.029756
21
0.085601
31
0.0
0
LINE
8
0
6
CONTINUOUS
10
0.030766
20
0.080056
30
0.0
11
0.030261
21
0.082829
31
0.0
0
LINE
8
0
6
CONTINUOUS
10
0.031271
20
0.077283
30
0.0
11
0.030766
21
0.080056
31
0.0
0
LINE
8
0
6
CONTINUOUS
10
0.031776
20
0.074511
30
0.0
11
0.031271
21
0.077283
31
0.0
0
LINE
8
0
6
CONTINUOUS
10
0.033217
20
0.052121
30
0.0
11
0.035089
21
0.052366
31
0.0
0
LINE
8
0
6
CONTINUOUS
10
0.011821
20
0.049316
30
0.0
11
0.016706
21
0.049957
31
0.0
0
LINE
8
0
6
CONTINUOUS
10
0.030201
20
0.051725
30
0.0
11
0.033217
21
0.052121
31
0.0
0
LINE
8
0
6
CONTINUOUS
10
0.000140
20
0.047785
30
0.0
11
0.003194
21
0.048185
31
0.0
0
LINE
8
0
6
CONTINUOUS
10
0.026145
20
0.051194
30
0.0
11
0.030201
21
0.051725
31
0.0
0
LINE
8
0
6
CONTINUOUS
10
-0.002519
20
0.048309
30
0.0
11
-0.002379
21
0.047455
31
0.0
0
LINE
8
0
6
CONTINUOUS
10
-0.002379
20
0.047455
30
0.0
11
-0.001692
21
0.047545
31
0.0
0
LINE
8
0
6
CONTINUOUS
10
0.035631
20
0.053344
30
0.0
11
0.032281
21
0.071738
31
0.0
0
LINE
8
0
6
CONTINUOUS
10
0.012336
20
0.015569
30
0.0
11
0.012141
21
-0.006464
31
0.0
0
LINE
8
0
6
CONTINUOUS
10
0.038577
20
-0.089500
30
0.0
11
0.044531
21
-0.089500
31
0.0
0
LINE
8
0
6
CONTINUOUS
10
0.044531
20
-0.089500
30
0.0
11
0.050078
21
-0.089500
31
0.0
0
LINE
8
0
6
CONTINUOUS
10
0.061580
20
-0.089500
30
0.0
11
0.061413
21
-0.088532
31
0.0
0
LINE
8
0
6
CONTINUOUS
10
0.060796
20
-0.089500
30
0.0
11
0.061580
21
-0.089500
31
0.0
0
LINE
8
0
6
CONTINUOUS
10
0.050078
20
-0.089500
30
0.0
11
0.054842
21
-0.089500
31
0.0
0
LINE
8
0
6
CONTINUOUS
10
0.027076
20
-0.089500
30
0.0
11
0.032624
21
-0.089500
31
0.0
0
LINE
8
0
6
CONTINUOUS
10
0.058498
20
-0.089500
30
0.0
11
0.060796
21
-0.089500
31
0.0
0
LINE
8
0
6
CONTINUOUS
10
0.032624
20
-0.089500
30
0.0
11
0.038577
21
-0.089500
31
0.0
0
LINE
8
0
6
CONTINUOUS
10
0.015460
20
-0.088524
30
0.0
11
0.015575
21
-0.089500
31
0.0
0
LINE
8
0
6
CONTINUOUS
10
0.015575
20
-0.089500
30
0.0
11
0.016358
21
-0.089500
31
0.0
0
LINE
8
0
6
CONTINUOUS
10
0.054842
20
-0.089500
30
0.0
11
0.058498
21
-0.089500
31
0.0
0
LINE
8
0
6
CONTINUOUS
10
0.016358
20
-0.089500
30
0.0
11
0.018656
21
-0.089500
31
0.0
0
LINE
8
0
6
CONTINUOUS
10
0.012141
20
-0.006464
30
0.0
11
0.011720
21
0.015290
31
0.0
0
LINE
8
0
6
CONTINUOUS
10
0.011531
20
-0.006230
30
0.0
11
0.011720
21
0.015290
31
0.0
0
LINE
8
0
6
CONTINUOUS
10
0.011099
20
0.015007
30
0.0
11
0.005845
21
0.033549
31
0.0
0
LINE
8
0
6
CONTINUOUS
10
-0.001133
20
0.038072
30
0.0
11
-0.001003
21
0.037325
31
0.0
0
LINE
8
0
6
CONTINUOUS
10
0.007046
20
-0.017370
30
0.0
11
0.007159
21
-0.018136
31
0.0
0
LINE
8
0
6
CONTINUOUS
10
0.027076
20
-0.089500
30
0.0
11
0.022312
21
-0.089500
31
0.0
0
LINE
8
0
6
CONTINUOUS
10
0.012047
20
0.047887
30
0.0
11
0.007445
21
0.047285
31
0.0
0
LINE
8
0
6
CONTINUOUS
10
0.026517
20
0.049801
30
0.0
11
0.021920
21
0.049189
31
0.0
0
LINE
8
0
6
CONTINUOUS
10
0.003492
20
0.046771
30
0.0
11
0.000459
21
0.046378
31
0.0
0
LINE
8
0
6
CONTINUOUS
10
0.033493
20
0.050735
30
0.0
11
0.030465
21
0.050328
31
0.0
0
LINE
8
0
6
CONTINUOUS
10
0.035396
20
0.050991
30
0.0
11
0.033493
21
0.050735
31
0.0
0
LINE
8
0
6
CONTINUOUS
10
0.000459
20
0.046378
30
0.0
11
-0.001449
21
0.046132
31
0.0
0
LINE
8
0
6
CONTINUOUS
10
0.016984
20
0.048536
30
0.0
11
0.012047
21
0.047887
31
0.0
0
LINE
8
0
6
CONTINUOUS
10
0.021920
20
0.049189
30
0.0
11
0.016984
21
0.048536
31
0.0
0
LINE
8
0
6
CONTINUOUS
10
0.007445
20
0.047285
30
0.0
11
0.003492
21
0.046771
31
0.0
0
LINE
8
0
6
CONTINUOUS
10
0.036045
20
0.051079
30
0.0
11
0.035396
21
0.050991
31
0.0
0
LINE
8
0
6
CONTINUOUS
10
0.036233
20
0.050097
30
0.0
11
0.036045
21
0.051079
31
0.0
0
LINE
8
0
6
CONTINUOUS
10
0.030465
20
0.050328
30
0.0
11
0.026517
21
0.049801
31
0.0
0
LINE
8
0
6
CONTINUOUS
10
-0.002099
20
0.046048
30
0.0
11
-0.001939
21
0.045091
31
0.0
0
LINE
8
0
6
CONTINUOUS
10
-0.002099
20
0.046048
30
0.0
11
-0.001449
21
0.046132
31
0.0
0
LINE
8
0
6
CONTINUOUS
10
-0.045821
20
-0.023701
30
0.0
11
-0.049979
21
-0.019788
31
0.0
0
LINE
8
0
6
CONTINUOUS
10
-0.054958
20
-0.015102
30
0.0
11
-0.049979
21
-0.019788
31
0.0
0
LINE
8
0
6
CONTINUOUS
10
-0.045821
20
-0.023701
30
0.0
11
-0.043666
21
-0.025728
31
0.0
0
LINE
8
0
6
CONTINUOUS
10
-0.044797
20
-0.023317
30
0.0
11
-0.045821
21
-0.023701
31
0.0
0
LINE
8
0
6
CONTINUOUS
10
-0.043666
20
-0.025728
30
0.0
11
-0.042930
21
-0.026420
31
0.0
0
LINE
8
0
6
CONTINUOUS
10
-0.042930
20
-0.026420
30
0.0
11
-0.041920
21
-0.026008
31
0.0
0
LINE
8
0
6
CONTINUOUS
10
-0.054958
20
-0.015102
30
0.0
11
-0.053977
21
-0.014679
31
0.0
0
LINE
8
0
6
CONTINUOUS
10
-0.059861
20
-0.010489
30
0.0
11
-0.054958
21
-0.015102
31
0.0
0
LINE
8
0
6
CONTINUOUS
10
-0.065902
20
-0.003466
30
0.0
11
-0.066867
21
-0.003897
31
0.0
0
LINE
8
0
6
CONTINUOUS
10
-0.066000
20
-0.004712
30
0.0
11
-0.066867
21
-0.003897
31
0.0
0
LINE
8
0
6
CONTINUOUS
10
-0.063554
20
-0.007015
30
0.0
11
-0.066000
21
-0.004712
31
0.0
0
LINE
8
0
6
CONTINUOUS
10
-0.059861
20
-0.010489
30
0.0
11
-0.063554
21
-0.007015
31
0.0
0
LINE
8
0
6
CONTINUOUS
10
-0.041920
20
-0.026008
30
0.0
11
-0.001444
21
-0.009129
31
0.0
0
LINE
8
0
6
CONTINUOUS
10
0.045773
20
-0.002620
30
0.0
11
0.041720
21
0.019646
31
0.0
0
LINE
8
0
6
CONTINUOUS
10
-0.001939
20
0.045091
30
0.0
11
-0.001133
21
0.038072
31
0.0
0
LINE
8
0
6
CONTINUOUS
10
0.007159
20
-0.018136
30
0.0
11
0.015460
21
-0.088524
31
0.0
0
LINE
8
0
6
CONTINUOUS
10
0.011099
20
0.015007
30
0.0
11
0.009731
21
-0.000956
31
0.0
0
LINE
8
0
6
CONTINUOUS
10
0.011099
20
0.015007
30
0.0
11
0.005567
21
0.026537
31
0.0
0
LINE
8
0
6
CONTINUOUS
10
0.009180
20
0.014103
30
0.0
11
0.011099
21
0.015007
31
0.0
0
LINE
8
0
6
CONTINUOUS
10
0.039052
20
0.034302
30
0.0
11
0.036233
21
0.050097
31
0.0
0
LINE
8
0
6
CONTINUOUS
10
0.005567
20
0.026537
30
0.0
11
0.002255
21
0.028822
31
0.0
0
LINE
8
0
6
CONTINUOUS
10
-0.003009
20
0.026928
30
0.0
11
-0.006105
21
0.023742
31
0.0
0
LINE
8
0
6
CONTINUOUS
10
-0.000491
20
0.030551
30
0.0
11
-0.003009
21
0.026928
31
0.0
0
LINE
8
0
6
CONTINUOUS
10
-0.000491
20
0.030551
30
0.0
11
0.000209
21
0.030087
31
0.0
0
LINE
8
0
6
CONTINUOUS
10
-0.001003
20
0.037325
30
0.0
11
-0.000491
21
0.030551
31
0.0
0
LINE
8
0
6
CONTINUOUS
10
0.000209
20
0.030087
30
0.0
11
0.002255
21
0.028822
31
0.0
0
LINE
8
0
6
CONTINUOUS
10
0.003514
20
0.022520
30
0.0
11
0.000455
21
0.019280
31
0.0
0
LINE
8
0
6
CONTINUOUS
10
0.005567
20
0.026537
30
0.0
11
0.003514
21
0.022520
31
0.0
0
LINE
8
0
6
CONTINUOUS
10
0.005291
20
-0.012102
30
0.0
11
0.007046
21
-0.017370
31
0.0
0
LINE
8
0
6
CONTINUOUS
10
0.005291
20
-0.012102
30
0.0
11
0.005892
21
-0.011315
31
0.0
0
LINE
8
0
6
CONTINUOUS
10
0.002187
20
-0.009093
30
0.0
11
0.005291
21
-0.012102
31
0.0
0
LINE
8
0
6
CONTINUOUS
10
0.002187
20
-0.009093
30
0.0
11
0.002783
21
-0.008289
31
0.0
0
LINE
8
0
6
CONTINUOUS
10
-0.001444
20
-0.009129
30
0.0
11
0.002187
21
-0.009093
31
0.0
0
LINE
8
0
6
CONTINUOUS
10
0.005892
20
-0.011315
30
0.0
11
0.007645
21
-0.009000
31
0.0
0
LINE
8
0
6
CONTINUOUS
10
0.002783
20
-0.008289
30
0.0
11
0.004521
21
-0.005932
31
0.0
0
LINE
8
0
6
CONTINUOUS
10
0.006882
20
0.013026
30
0.0
11
0.004578
21
0.011951
31
0.0
0
LINE
8
0
6
CONTINUOUS
10
0.009180
20
0.014103
30
0.0
11
0.006882
21
0.013026
31
0.0
0
LINE
8
0
6
CONTINUOUS
10
0.004521
20
-0.005932
30
0.0
11
0.007645
21
-0.009000
31
0.0
0
LINE
8
0
6
CONTINUOUS
10
0.000881
20
-0.005900
30
0.0
11
0.004521
21
-0.005932
31
0.0
0
LINE
8
0
6
CONTINUOUS
10
-0.006105
20
0.023742
30
0.0
11
-0.065902
21
-0.003466
31
0.0
0
LINE
8
0
6
CONTINUOUS
10
-0.053977
20
-0.014679
30
0.0
11
0.004578
21
0.011951
31
0.0
0
LINE
8
0
6
CONTINUOUS
10
0.041720
20
0.019646
30
0.0
11
0.039052
21
0.034302
31
0.0
0
LINE
8
0
6
CONTINUOUS
10
0.061413
20
-0.088532
30
0.0
11
0.056352
21
-0.060734
31
0.0
0
LINE
8
0
6
CONTINUOUS
10
0.055291
20
-0.054906
30
0.0
11
0.045773
21
-0.002620
31
0.0
0
LINE
8
0
6
CONTINUOUS
10
0.018656
20
-0.089500
30
0.0
11
0.022312
21
-0.089500
31
0.0
0
LINE
8
0
6
CONTINUOUS
10
-0.042652
20
-0.025324
30
0.0
11
-0.000851
21
-0.008307
31
0.0
0
LINE
8
0
6
CONTINUOUS
10
0.000881
20
-0.005900
30
0.0
11
-0.044797
21
-0.023317
31
0.0
0
LINE
8
0
6
CONTINUOUS
10
0.052732
20
-0.068301
30
0.0
11
0.052495
21
-0.067644
31
0.0
0
LINE
8
0
6
CONTINUOUS
10
0.053867
20
-0.069785
30
0.0
11
0.053335
21
-0.069444
31
0.0
0
LINE
8
0
6
CONTINUOUS
10
0.052032
20
-0.064711
30
0.0
11
0.052004
21
-0.063912
31
0.0
0
LINE
8
0
6
CONTINUOUS
10
0.054168
20
-0.069377
30
0.0
11
0.054124
21
-0.069430
31
0.0
0
LINE
8
0
6
CONTINUOUS
10
0.052996
20
-0.069193
30
0.0
11
0.052732
21
-0.068301
31
0.0
0
LINE
8
0
6
CONTINUOUS
10
0.052024
20
-0.062462
30
0.0
11
0.052055
21
-0.062138
31
0.0
0
LINE
8
0
6
CONTINUOUS
10
0.053335
20
-0.069444
30
0.0
11
0.052996
21
-0.069193
31
0.0
0
LINE
8
0
6
CONTINUOUS
10
0.054124
20
-0.069430
30
0.0
11
0.053867
21
-0.069785
31
0.0
0
LINE
8
0
6
CONTINUOUS
10
0.051975
20
-0.063412
30
0.0
11
0.052024
21
-0.062462
31
0.0
0
LINE
8
0
6
CONTINUOUS
10
0.052004
20
-0.063912
30
0.0
11
0.051975
21
-0.063412
31
0.0
0
LINE
8
0
6
CONTINUOUS
10
0.054556
20
-0.068898
30
0.0
11
0.054168
21
-0.069377
31
0.0
0
ENDSEC
0
EOF
