999
Erzeugt mit innoplus bad 
0
SECTION
2
HEADER
9
$ACADVER
1
AC1009
9
$DWGCODEPAGE
3
ISO8859-1
0
ENDSEC
0
SECTION
2
TABLES
0
TABLE
2
LAYER
70
1
0
LAYER
2
0
70
0
62
7
6
CONTINUOUS
0
ENDTAB
0
ENDSEC
0
SECTION
2
ENTITIES
0
LINE
8
0
6
CONTINUOUS
10
0.013959
20
0.020956
30
0.0
11
0.014363
21
0.022986
31
0.0
0
LINE
8
0
6
CONTINUOUS
10
0.014363
20
0.022986
30
0.0
11
0.014629
21
0.023718
31
0.0
0
LINE
8
0
6
CONTINUOUS
10
-0.018950
20
0.022986
30
0.0
11
-0.018546
21
0.020956
31
0.0
0
LINE
8
0
6
CONTINUOUS
10
-0.019278
20
0.023884
30
0.0
11
-0.019217
21
0.023718
31
0.0
0
LINE
8
0
6
CONTINUOUS
10
-0.016257
20
0.020665
30
0.0
11
-0.015737
21
0.020247
31
0.0
0
LINE
8
0
6
CONTINUOUS
10
0.013932
20
0.018960
30
0.0
11
0.013959
21
0.020956
31
0.0
0
LINE
8
0
6
CONTINUOUS
10
0.011150
20
0.020247
30
0.0
11
0.011670
21
0.020665
31
0.0
0
LINE
8
0
6
CONTINUOUS
10
0.019922
20
0.039640
30
0.0
11
0.017625
21
0.045188
31
0.0
0
LINE
8
0
6
CONTINUOUS
10
0.013970
20
0.049952
30
0.0
11
0.013910
21
0.049998
31
0.0
0
LINE
8
0
6
CONTINUOUS
10
0.010832
20
0.052360
30
0.0
11
0.009206
21
0.053607
31
0.0
0
LINE
8
0
6
CONTINUOUS
10
0.019922
20
0.027733
30
0.0
11
0.020706
21
0.033687
31
0.0
0
LINE
8
0
6
CONTINUOUS
10
0.003659
20
0.055905
30
0.0
11
-0.002294
21
0.056689
31
0.0
0
LINE
8
0
6
CONTINUOUS
10
0.013970
20
0.017421
30
0.0
11
0.017625
21
0.022185
31
0.0
0
LINE
8
0
6
CONTINUOUS
10
0.020706
20
0.033687
30
0.0
11
0.019922
21
0.039640
31
0.0
0
LINE
8
0
6
CONTINUOUS
10
0.017625
20
0.045188
30
0.0
11
0.013970
21
0.049952
31
0.0
0
LINE
8
0
6
CONTINUOUS
10
0.009206
20
0.053607
30
0.0
11
0.003659
21
0.055905
31
0.0
0
LINE
8
0
6
CONTINUOUS
10
0.017625
20
0.022185
30
0.0
11
0.019922
21
0.027733
31
0.0
0
LINE
8
0
6
CONTINUOUS
10
-0.022212
20
0.045188
30
0.0
11
-0.024510
21
0.039640
31
0.0
0
LINE
8
0
6
CONTINUOUS
10
-0.013794
20
0.053607
30
0.0
11
-0.018557
21
0.049952
31
0.0
0
LINE
8
0
6
CONTINUOUS
10
-0.025294
20
0.033687
30
0.0
11
-0.024510
21
0.027733
31
0.0
0
LINE
8
0
6
CONTINUOUS
10
-0.002294
20
0.056689
30
0.0
11
-0.008247
21
0.055905
31
0.0
0
LINE
8
0
6
CONTINUOUS
10
-0.022212
20
0.022185
30
0.0
11
-0.018557
21
0.017421
31
0.0
0
LINE
8
0
6
CONTINUOUS
10
-0.024510
20
0.039640
30
0.0
11
-0.025294
21
0.033687
31
0.0
0
LINE
8
0
6
CONTINUOUS
10
-0.018557
20
0.049952
30
0.0
11
-0.022212
21
0.045188
31
0.0
0
LINE
8
0
6
CONTINUOUS
10
-0.008247
20
0.055905
30
0.0
11
-0.013794
21
0.053607
31
0.0
0
LINE
8
0
6
CONTINUOUS
10
-0.024510
20
0.027733
30
0.0
11
-0.022212
21
0.022185
31
0.0
0
LINE
8
0
6
CONTINUOUS
10
0.016059
20
0.028773
30
0.0
11
0.014161
21
0.024191
31
0.0
0
LINE
8
0
6
CONTINUOUS
10
0.014161
20
0.043191
30
0.0
11
0.016059
21
0.038608
31
0.0
0
LINE
8
0
6
CONTINUOUS
10
0.011141
20
0.020256
30
0.0
11
0.007206
21
0.017236
31
0.0
0
LINE
8
0
6
CONTINUOUS
10
0.007210
20
0.017230
30
0.0
11
0.011150
21
0.020247
31
0.0
0
LINE
8
0
6
CONTINUOUS
10
0.007206
20
0.050145
30
0.0
11
0.011141
21
0.047126
31
0.0
0
LINE
8
0
6
CONTINUOUS
10
0.002624
20
0.052043
30
0.0
11
0.007206
21
0.050145
31
0.0
0
LINE
8
0
6
CONTINUOUS
10
0.016059
20
0.028773
30
0.0
11
0.016706
21
0.033691
31
0.0
0
LINE
8
0
6
CONTINUOUS
10
0.016059
20
0.038608
30
0.0
11
0.016706
21
0.033691
31
0.0
0
LINE
8
0
6
CONTINUOUS
10
0.014161
20
0.024191
30
0.0
11
0.011141
21
0.020256
31
0.0
0
LINE
8
0
6
CONTINUOUS
10
-0.002294
20
0.052691
30
0.0
11
0.002624
21
0.052043
31
0.0
0
LINE
8
0
6
CONTINUOUS
10
0.011141
20
0.047126
30
0.0
11
0.014161
21
0.043191
31
0.0
0
LINE
8
0
6
CONTINUOUS
10
-0.020646
20
0.028773
30
0.0
11
-0.018748
21
0.024191
31
0.0
0
LINE
8
0
6
CONTINUOUS
10
-0.018748
20
0.043191
30
0.0
11
-0.020646
21
0.038608
31
0.0
0
LINE
8
0
6
CONTINUOUS
10
-0.015729
20
0.020256
30
0.0
11
-0.011794
21
0.017236
31
0.0
0
LINE
8
0
6
CONTINUOUS
10
-0.011794
20
0.050145
30
0.0
11
-0.015729
21
0.047126
31
0.0
0
LINE
8
0
6
CONTINUOUS
10
-0.007211
20
0.052043
30
0.0
11
-0.011794
21
0.050145
31
0.0
0
LINE
8
0
6
CONTINUOUS
10
-0.020646
20
0.028773
30
0.0
11
-0.021294
21
0.033691
31
0.0
0
LINE
8
0
6
CONTINUOUS
10
-0.020646
20
0.038608
30
0.0
11
-0.021294
21
0.033691
31
0.0
0
LINE
8
0
6
CONTINUOUS
10
-0.018748
20
0.024191
30
0.0
11
-0.015729
21
0.020256
31
0.0
0
LINE
8
0
6
CONTINUOUS
10
-0.002294
20
0.052691
30
0.0
11
-0.007211
21
0.052043
31
0.0
0
LINE
8
0
6
CONTINUOUS
10
-0.015729
20
0.047126
30
0.0
11
-0.018748
21
0.043191
31
0.0
0
LINE
8
0
6
CONTINUOUS
10
0.012908
20
-0.055941
30
0.0
11
0.012932
21
-0.054959
31
0.0
0
LINE
8
0
6
CONTINUOUS
10
0.011439
20
-0.060843
30
0.0
11
0.012908
21
-0.055941
31
0.0
0
LINE
8
0
6
CONTINUOUS
10
-0.002294
20
-0.067849
30
0.0
11
0.003326
21
-0.066982
31
0.0
0
LINE
8
0
6
CONTINUOUS
10
0.003326
20
-0.066982
30
0.0
11
0.008117
21
-0.064536
31
0.0
0
LINE
8
0
6
CONTINUOUS
10
0.008117
20
-0.064536
30
0.0
11
0.011439
21
-0.060843
31
0.0
0
LINE
8
0
6
CONTINUOUS
10
-0.017496
20
-0.055941
30
0.0
11
-0.016026
21
-0.060843
31
0.0
0
LINE
8
0
6
CONTINUOUS
10
-0.017519
20
-0.054959
30
0.0
11
-0.017496
21
-0.055941
31
0.0
0
LINE
8
0
6
CONTINUOUS
10
-0.007914
20
-0.066982
30
0.0
11
-0.002294
21
-0.067849
31
0.0
0
LINE
8
0
6
CONTINUOUS
10
-0.012705
20
-0.064536
30
0.0
11
-0.007914
21
-0.066982
31
0.0
0
LINE
8
0
6
CONTINUOUS
10
-0.016026
20
-0.060843
30
0.0
11
-0.012705
21
-0.064536
31
0.0
0
LINE
8
0
6
CONTINUOUS
10
0.011341
20
0.019148
30
0.0
11
0.011238
21
0.020158
31
0.0
0
LINE
8
0
6
CONTINUOUS
10
0.011438
20
0.016553
30
0.0
11
0.011341
21
0.019148
31
0.0
0
LINE
8
0
6
CONTINUOUS
10
-0.018444
20
0.013417
30
0.0
11
-0.017519
21
-0.054959
31
0.0
0
LINE
8
0
6
CONTINUOUS
10
-0.018519
20
0.018960
30
0.0
11
-0.018493
21
0.017015
31
0.0
0
LINE
8
0
6
CONTINUOUS
10
-0.016090
20
0.013057
30
0.0
11
-0.016026
21
0.016553
31
0.0
0
LINE
8
0
6
CONTINUOUS
10
0.013857
20
0.013417
30
0.0
11
0.013905
21
0.017015
31
0.0
0
LINE
8
0
6
CONTINUOUS
10
0.014629
20
0.023718
30
0.0
11
0.014690
21
0.023884
31
0.0
0
LINE
8
0
6
CONTINUOUS
10
0.011438
20
0.016553
30
0.0
11
0.011502
21
0.013057
31
0.0
0
LINE
8
0
6
CONTINUOUS
10
0.013905
20
0.017015
30
0.0
11
0.013932
21
0.018960
31
0.0
0
LINE
8
0
6
CONTINUOUS
10
-0.019217
20
0.023718
30
0.0
11
-0.018950
21
0.022986
31
0.0
0
LINE
8
0
6
CONTINUOUS
10
-0.015826
20
0.020158
30
0.0
11
-0.015929
21
0.019148
31
0.0
0
LINE
8
0
6
CONTINUOUS
10
0.012932
20
-0.054959
30
0.0
11
0.013857
21
0.013417
31
0.0
0
LINE
8
0
6
CONTINUOUS
10
0.011499
20
0.009410
30
0.0
11
0.011502
21
0.013057
31
0.0
0
LINE
8
0
6
CONTINUOUS
10
-0.015737
20
0.020247
30
0.0
11
-0.011821
21
0.017189
31
0.0
0
LINE
8
0
6
CONTINUOUS
10
-0.018493
20
0.017015
30
0.0
11
-0.018444
21
0.013417
31
0.0
0
LINE
8
0
6
CONTINUOUS
10
-0.016087
20
0.009410
30
0.0
11
-0.016090
21
0.013057
31
0.0
0
LINE
8
0
6
CONTINUOUS
10
-0.018546
20
0.020956
30
0.0
11
-0.018519
21
0.018960
31
0.0
0
LINE
8
0
6
CONTINUOUS
10
-0.016026
20
0.016553
30
0.0
11
-0.015929
21
0.019148
31
0.0
0
LINE
8
0
6
CONTINUOUS
10
0.021171
20
0.059483
30
0.0
11
0.024310
21
0.062974
31
0.0
0
LINE
8
0
6
CONTINUOUS
10
0.018630
20
0.056382
30
0.0
11
0.019167
21
0.057111
31
0.0
0
LINE
8
0
6
CONTINUOUS
10
0.018128
20
0.055624
30
0.0
11
0.018630
21
0.056382
31
0.0
0
LINE
8
0
6
CONTINUOUS
10
0.017800
20
0.055199
30
0.0
11
0.018128
21
0.055624
31
0.0
0
LINE
8
0
6
CONTINUOUS
10
0.017277
20
0.054525
30
0.0
11
0.017800
21
0.055199
31
0.0
0
LINE
8
0
6
CONTINUOUS
10
0.016935
20
0.054004
30
0.0
11
0.017277
21
0.054525
31
0.0
0
LINE
8
0
6
CONTINUOUS
10
0.019108
20
0.057074
30
0.0
11
0.021171
21
0.059483
31
0.0
0
LINE
8
0
6
CONTINUOUS
10
0.017090
20
0.055132
30
0.0
11
0.016566
21
0.054279
31
0.0
0
LINE
8
0
6
CONTINUOUS
10
0.016566
20
0.054279
30
0.0
11
0.016023
21
0.053611
31
0.0
0
LINE
8
0
6
CONTINUOUS
10
0.019082
20
0.057194
30
0.0
11
0.021143
21
0.059498
31
0.0
0
LINE
8
0
6
CONTINUOUS
10
0.025294
20
0.064795
30
0.0
11
0.025248
21
0.065641
31
0.0
0
LINE
8
0
6
CONTINUOUS
10
0.025234
20
0.064838
30
0.0
11
0.025188
21
0.065684
31
0.0
0
LINE
8
0
6
CONTINUOUS
10
0.024875
20
0.066203
30
0.0
11
0.023785
21
0.067185
31
0.0
0
LINE
8
0
6
CONTINUOUS
10
0.023785
20
0.067185
30
0.0
11
0.025028
21
0.065918
31
0.0
0
LINE
8
0
6
CONTINUOUS
10
0.024310
20
0.062974
30
0.0
11
0.025294
21
0.064795
31
0.0
0
LINE
8
0
6
CONTINUOUS
10
0.024250
20
0.063018
30
0.0
11
0.025234
21
0.064838
31
0.0
0
LINE
8
0
6
CONTINUOUS
10
0.025028
20
0.065918
30
0.0
11
0.025188
21
0.065684
31
0.0
0
LINE
8
0
6
CONTINUOUS
10
0.025248
20
0.065641
30
0.0
11
0.024875
21
0.066203
31
0.0
0
LINE
8
0
6
CONTINUOUS
10
0.013763
20
0.056221
30
0.0
11
0.010350
21
0.051725
31
0.0
0
LINE
8
0
6
CONTINUOUS
10
0.018838
20
0.057462
30
0.0
11
0.021009
21
0.059598
31
0.0
0
LINE
8
0
6
CONTINUOUS
10
0.012813
20
0.049707
30
0.0
11
0.016023
21
0.053611
31
0.0
0
LINE
8
0
6
CONTINUOUS
10
0.019650
20
0.066230
30
0.0
11
0.017451
21
0.062083
31
0.0
0
LINE
8
0
6
CONTINUOUS
10
0.015913
20
0.059385
30
0.0
11
0.015413
21
0.058631
31
0.0
0
LINE
8
0
6
CONTINUOUS
10
0.015413
20
0.058631
30
0.0
11
0.014873
21
0.057898
31
0.0
0
LINE
8
0
6
CONTINUOUS
10
0.014588
20
0.057444
30
0.0
11
0.014134
21
0.056721
31
0.0
0
LINE
8
0
6
CONTINUOUS
10
0.014873
20
0.057898
30
0.0
11
0.014588
21
0.057444
31
0.0
0
LINE
8
0
6
CONTINUOUS
10
0.014134
20
0.056721
30
0.0
11
0.013763
21
0.056221
31
0.0
0
LINE
8
0
6
CONTINUOUS
10
0.017451
20
0.062083
30
0.0
11
0.015898
21
0.059317
31
0.0
0
LINE
8
0
6
CONTINUOUS
10
0.014148
20
0.055969
30
0.0
11
0.014768
21
0.056754
31
0.0
0
LINE
8
0
6
CONTINUOUS
10
0.013707
20
0.055230
30
0.0
11
0.014148
21
0.055969
31
0.0
0
LINE
8
0
6
CONTINUOUS
10
0.017475
20
0.062061
30
0.0
11
0.016019
21
0.059334
31
0.0
0
LINE
8
0
6
CONTINUOUS
10
0.021832
20
0.068028
30
0.0
11
0.021021
21
0.067780
31
0.0
0
LINE
8
0
6
CONTINUOUS
10
0.021893
20
0.067987
30
0.0
11
0.021082
21
0.067739
31
0.0
0
LINE
8
0
6
CONTINUOUS
10
0.023785
20
0.067185
30
0.0
11
0.022488
21
0.067871
31
0.0
0
LINE
8
0
6
CONTINUOUS
10
0.022167
20
0.067917
30
0.0
11
0.023785
21
0.067185
31
0.0
0
LINE
8
0
6
CONTINUOUS
10
0.021021
20
0.067780
30
0.0
11
0.019650
21
0.066230
31
0.0
0
LINE
8
0
6
CONTINUOUS
10
0.021082
20
0.067739
30
0.0
11
0.019711
21
0.066189
31
0.0
0
LINE
8
0
6
CONTINUOUS
10
0.022488
20
0.067871
30
0.0
11
0.021832
21
0.068028
31
0.0
0
LINE
8
0
6
CONTINUOUS
10
0.021893
20
0.067987
30
0.0
11
0.022167
21
0.067917
31
0.0
0
LINE
8
0
6
CONTINUOUS
10
0.017615
20
0.061970
30
0.0
11
0.016355
21
0.059197
31
0.0
0
LINE
8
0
6
CONTINUOUS
10
0.013707
20
0.055230
30
0.0
11
0.010909
21
0.051157
31
0.0
0
LINE
8
0
6
CONTINUOUS
10
0.013434
20
0.049367
30
0.0
11
0.016935
21
0.054004
31
0.0
0
LINE
8
0
6
CONTINUOUS
10
-0.005960
20
-0.067601
30
0.0
11
-0.002294
21
-0.068028
31
0.0
0
LINE
8
0
6
CONTINUOUS
10
-0.002294
20
-0.068028
30
0.0
11
0.001372
21
-0.067601
31
0.0
0
LINE
8
0
6
CONTINUOUS
10
0.002462
20
-0.033631
30
0.0
11
0.002462
21
-0.033072
31
0.0
0
LINE
8
0
6
CONTINUOUS
10
-0.007050
20
0.006226
30
0.0
11
-0.007050
21
-0.033072
31
0.0
0
LINE
8
0
6
CONTINUOUS
10
-0.004114
20
-0.031914
30
0.0
11
-0.004114
21
-0.032472
31
0.0
0
LINE
8
0
6
CONTINUOUS
10
0.002100
20
-0.033151
30
0.0
11
0.001646
21
-0.032973
31
0.0
0
LINE
8
0
6
CONTINUOUS
10
0.000401
20
-0.032627
30
0.0
11
-0.000474
21
-0.032472
31
0.0
0
LINE
8
0
6
CONTINUOUS
10
-0.004114
20
-0.032472
30
0.0
11
-0.004989
21
-0.032627
31
0.0
0
LINE
8
0
6
CONTINUOUS
10
-0.006234
20
-0.032973
30
0.0
11
-0.006688
21
-0.033151
31
0.0
0
LINE
8
0
6
CONTINUOUS
10
0.001069
20
-0.032744
30
0.0
11
0.000401
21
-0.032627
31
0.0
0
LINE
8
0
6
CONTINUOUS
10
-0.005657
20
-0.032744
30
0.0
11
-0.006234
21
-0.032973
31
0.0
0
LINE
8
0
6
CONTINUOUS
10
-0.002294
20
-0.034877
30
0.0
11
-0.000474
21
-0.034782
31
0.0
0
LINE
8
0
6
CONTINUOUS
10
-0.000474
20
-0.034782
30
0.0
11
0.001069
21
-0.034512
31
0.0
0
LINE
8
0
6
CONTINUOUS
10
0.001069
20
-0.034512
30
0.0
11
0.002100
21
-0.034108
31
0.0
0
LINE
8
0
6
CONTINUOUS
10
0.002100
20
-0.034108
30
0.0
11
0.002462
21
-0.033631
31
0.0
0
LINE
8
0
6
CONTINUOUS
10
0.002462
20
-0.033631
30
0.0
11
0.002100
21
-0.033151
31
0.0
0
LINE
8
0
6
CONTINUOUS
10
-0.004114
20
-0.034782
30
0.0
11
-0.002294
21
-0.034877
31
0.0
0
LINE
8
0
6
CONTINUOUS
10
-0.005657
20
-0.034512
30
0.0
11
-0.004114
21
-0.034782
31
0.0
0
LINE
8
0
6
CONTINUOUS
10
-0.006688
20
-0.034108
30
0.0
11
-0.005657
21
-0.034512
31
0.0
0
LINE
8
0
6
CONTINUOUS
10
-0.007050
20
-0.033631
30
0.0
11
-0.006688
21
-0.034108
31
0.0
0
LINE
8
0
6
CONTINUOUS
10
-0.002294
20
-0.032377
30
0.0
11
-0.004114
21
-0.032472
31
0.0
0
LINE
8
0
6
CONTINUOUS
10
-0.007324
20
0.013130
30
0.0
11
-0.007050
21
0.012120
31
0.0
0
LINE
8
0
6
CONTINUOUS
10
0.001069
20
-0.032744
30
0.0
11
0.001646
21
-0.032973
31
0.0
0
LINE
8
0
6
CONTINUOUS
10
-0.005657
20
-0.032744
30
0.0
11
-0.004989
21
-0.032627
31
0.0
0
LINE
8
0
6
CONTINUOUS
10
0.001665
20
0.013256
30
0.0
11
0.002667
21
0.014529
31
0.0
0
LINE
8
0
6
CONTINUOUS
10
0.004231
20
0.015558
30
0.0
11
0.004922
21
0.016114
31
0.0
0
LINE
8
0
6
CONTINUOUS
10
0.002736
20
0.013130
30
0.0
11
0.003482
21
0.014561
31
0.0
0
LINE
8
0
6
CONTINUOUS
10
0.001105
20
0.006628
30
0.0
11
0.001107
21
0.009437
31
0.0
0
LINE
8
0
6
CONTINUOUS
10
0.015893
20
0.038519
30
0.0
11
0.014081
21
0.043047
31
0.0
0
LINE
8
0
6
CONTINUOUS
10
0.007063
20
0.017314
30
0.0
11
0.011063
21
0.020332
31
0.0
0
LINE
8
0
6
CONTINUOUS
10
0.014081
20
0.024332
30
0.0
11
0.015893
21
0.028860
31
0.0
0
LINE
8
0
6
CONTINUOUS
10
0.011063
20
0.020332
30
0.0
11
0.014081
21
0.024332
31
0.0
0
LINE
8
0
6
CONTINUOUS
10
0.014081
20
0.043047
30
0.0
11
0.011063
21
0.047046
31
0.0
0
LINE
8
0
6
CONTINUOUS
10
0.002536
20
0.051876
30
0.0
11
-0.002294
21
0.052555
31
0.0
0
LINE
8
0
6
CONTINUOUS
10
0.007063
20
0.050065
30
0.0
11
0.002536
21
0.051876
31
0.0
0
LINE
8
0
6
CONTINUOUS
10
0.011063
20
0.047046
30
0.0
11
0.007063
21
0.050065
31
0.0
0
LINE
8
0
6
CONTINUOUS
10
0.015893
20
0.028860
30
0.0
11
0.016572
21
0.033689
31
0.0
0
LINE
8
0
6
CONTINUOUS
10
0.016572
20
0.033689
30
0.0
11
0.015893
21
0.038519
31
0.0
0
LINE
8
0
6
CONTINUOUS
10
0.001069
20
-0.032186
30
0.0
11
0.001105
21
0.006628
31
0.0
0
LINE
8
0
6
CONTINUOUS
10
-0.011651
20
0.017314
30
0.0
11
-0.009107
21
0.016065
31
0.0
0
LINE
8
0
6
CONTINUOUS
10
-0.005693
20
0.006628
30
0.0
11
-0.005695
21
0.009437
31
0.0
0
LINE
8
0
6
CONTINUOUS
10
-0.018669
20
0.043047
30
0.0
11
-0.020480
21
0.038519
31
0.0
0
LINE
8
0
6
CONTINUOUS
10
-0.015651
20
0.020332
30
0.0
11
-0.011651
21
0.017314
31
0.0
0
LINE
8
0
6
CONTINUOUS
10
-0.020480
20
0.028860
30
0.0
11
-0.018669
21
0.024332
31
0.0
0
LINE
8
0
6
CONTINUOUS
10
-0.018669
20
0.024332
30
0.0
11
-0.015651
21
0.020332
31
0.0
0
LINE
8
0
6
CONTINUOUS
10
-0.015651
20
0.047046
30
0.0
11
-0.018669
21
0.043047
31
0.0
0
LINE
8
0
6
CONTINUOUS
10
-0.002294
20
0.052555
30
0.0
11
-0.007123
21
0.051876
31
0.0
0
LINE
8
0
6
CONTINUOUS
10
-0.007123
20
0.051876
30
0.0
11
-0.011651
21
0.050065
31
0.0
0
LINE
8
0
6
CONTINUOUS
10
-0.011651
20
0.050065
30
0.0
11
-0.015651
21
0.047046
31
0.0
0
LINE
8
0
6
CONTINUOUS
10
-0.021160
20
0.033689
30
0.0
11
-0.020480
21
0.028860
31
0.0
0
LINE
8
0
6
CONTINUOUS
10
-0.020480
20
0.038519
30
0.0
11
-0.021160
21
0.033689
31
0.0
0
LINE
8
0
6
CONTINUOUS
10
-0.007050
20
-0.033631
30
0.0
11
-0.006688
21
-0.033151
31
0.0
0
LINE
8
0
6
CONTINUOUS
10
-0.007050
20
-0.033072
30
0.0
11
-0.007050
21
-0.033631
31
0.0
0
LINE
8
0
6
CONTINUOUS
10
-0.007050
20
0.012120
30
0.0
11
-0.007050
21
0.009068
31
0.0
0
LINE
8
0
6
CONTINUOUS
10
-0.008070
20
0.014561
30
0.0
11
-0.007324
21
0.013130
31
0.0
0
LINE
8
0
6
CONTINUOUS
10
0.003482
20
0.014561
30
0.0
11
0.004188
21
0.015541
31
0.0
0
LINE
8
0
6
CONTINUOUS
10
0.002462
20
0.012120
30
0.0
11
0.002736
21
0.013130
31
0.0
0
LINE
8
0
6
CONTINUOUS
10
0.002511
20
0.013222
30
0.0
11
0.003409
21
0.014596
31
0.0
0
LINE
8
0
6
CONTINUOUS
10
0.003409
20
0.014596
30
0.0
11
0.004231
21
0.015558
31
0.0
0
LINE
8
0
6
CONTINUOUS
10
-0.004114
20
0.008749
30
0.0
11
-0.004114
21
-0.031914
31
0.0
0
LINE
8
0
6
CONTINUOUS
10
-0.009510
20
0.016114
30
0.0
11
-0.008819
21
0.015558
31
0.0
0
LINE
8
0
6
CONTINUOUS
10
0.004519
20
0.016065
30
0.0
11
0.003673
21
0.015467
31
0.0
0
LINE
8
0
6
CONTINUOUS
10
0.002100
20
0.012213
30
0.0
11
0.002511
21
0.013222
31
0.0
0
LINE
8
0
6
CONTINUOUS
10
0.002462
20
0.006226
30
0.0
11
0.002462
21
0.009068
31
0.0
0
LINE
8
0
6
CONTINUOUS
10
-0.000474
20
0.008749
30
0.0
11
-0.000474
21
0.011685
31
0.0
0
LINE
8
0
6
CONTINUOUS
10
0.002462
20
-0.033072
30
0.0
11
0.002462
21
0.006226
31
0.0
0
LINE
8
0
6
CONTINUOUS
10
-0.002294
20
0.020200
30
0.0
11
-0.002294
21
0.016290
31
0.0
0
LINE
8
0
6
CONTINUOUS
10
-0.007099
20
0.013222
30
0.0
11
-0.006688
21
0.012213
31
0.0
0
LINE
8
0
6
CONTINUOUS
10
0.002462
20
0.009068
30
0.0
11
0.002462
21
0.012120
31
0.0
0
LINE
8
0
6
CONTINUOUS
10
-0.002294
20
0.009423
30
0.0
11
-0.002294
21
-0.031819
31
0.0
0
LINE
8
0
6
CONTINUOUS
10
-0.002294
20
0.012398
30
0.0
11
-0.002294
21
0.016290
31
0.0
0
LINE
8
0
6
CONTINUOUS
10
-0.005657
20
-0.032186
30
0.0
11
-0.005693
21
0.006628
31
0.0
0
LINE
8
0
6
CONTINUOUS
10
-0.006253
20
0.013256
30
0.0
11
-0.007255
21
0.014529
31
0.0
0
LINE
8
0
6
CONTINUOUS
10
-0.008776
20
0.015541
30
0.0
11
-0.008070
21
0.014561
31
0.0
0
LINE
8
0
6
CONTINUOUS
10
-0.011651
20
0.017314
30
0.0
11
-0.009510
21
0.016114
31
0.0
0
LINE
8
0
6
CONTINUOUS
10
-0.008819
20
0.015558
30
0.0
11
-0.007997
21
0.014596
31
0.0
0
LINE
8
0
6
CONTINUOUS
10
0.004641
20
0.016080
30
0.0
11
0.007063
21
0.017314
31
0.0
0
LINE
8
0
6
CONTINUOUS
10
0.007063
20
0.017314
30
0.0
11
0.004519
21
0.016065
31
0.0
0
LINE
8
0
6
CONTINUOUS
10
-0.002294
20
0.024125
30
0.0
11
-0.002294
21
0.020200
31
0.0
0
LINE
8
0
6
CONTINUOUS
10
-0.007050
20
0.009068
30
0.0
11
-0.007050
21
0.006226
31
0.0
0
LINE
8
0
6
CONTINUOUS
10
-0.002294
20
0.009423
30
0.0
11
-0.002294
21
0.012398
31
0.0
0
LINE
8
0
6
CONTINUOUS
10
-0.000340
20
0.014251
30
0.0
11
-0.000474
21
0.011685
31
0.0
0
LINE
8
0
6
CONTINUOUS
10
-0.008261
20
0.015467
30
0.0
11
-0.009107
21
0.016065
31
0.0
0
LINE
8
0
6
CONTINUOUS
10
-0.011651
20
0.017314
30
0.0
11
-0.009229
21
0.016080
31
0.0
0
LINE
8
0
6
CONTINUOUS
10
-0.007255
20
0.014529
30
0.0
11
-0.008261
21
0.015467
31
0.0
0
LINE
8
0
6
CONTINUOUS
10
0.003673
20
0.015467
30
0.0
11
0.002667
21
0.014529
31
0.0
0
LINE
8
0
6
CONTINUOUS
10
0.004922
20
0.016114
30
0.0
11
0.007063
21
0.017314
31
0.0
0
LINE
8
0
6
CONTINUOUS
10
-0.004114
20
0.008749
30
0.0
11
-0.004114
21
0.011685
31
0.0
0
LINE
8
0
6
CONTINUOUS
10
0.001127
20
0.012226
30
0.0
11
0.001607
21
0.012219
31
0.0
0
LINE
8
0
6
CONTINUOUS
10
0.001665
20
0.013256
30
0.0
11
0.001127
21
0.012226
31
0.0
0
LINE
8
0
6
CONTINUOUS
10
-0.002294
20
0.028067
30
0.0
11
-0.002294
21
0.024125
31
0.0
0
LINE
8
0
6
CONTINUOUS
10
-0.005715
20
0.012226
30
0.0
11
-0.005695
21
0.009437
31
0.0
0
LINE
8
0
6
CONTINUOUS
10
-0.000474
20
-0.032472
30
0.0
11
-0.000474
21
-0.031914
31
0.0
0
LINE
8
0
6
CONTINUOUS
10
-0.002294
20
-0.032377
30
0.0
11
-0.000474
21
-0.032472
31
0.0
0
LINE
8
0
6
CONTINUOUS
10
-0.002294
20
-0.031819
30
0.0
11
-0.002294
21
-0.032377
31
0.0
0
LINE
8
0
6
CONTINUOUS
10
-0.005715
20
0.012226
30
0.0
11
-0.006253
21
0.013256
31
0.0
0
LINE
8
0
6
CONTINUOUS
10
-0.000474
20
0.008749
30
0.0
11
-0.000474
21
-0.031914
31
0.0
0
LINE
8
0
6
CONTINUOUS
10
0.013382
20
0.049398
30
0.0
11
0.013247
21
0.049439
31
0.0
0
ENDSEC
0
EOF
