999
Erzeugt mit innoplus bad 
0
SECTION
2
HEADER
9
$ACADVER
1
AC1009
9
$DWGCODEPAGE
3
ISO8859-1
0
ENDSEC
0
SECTION
2
TABLES
0
TABLE
2
LAYER
70
1
0
LAYER
2
0
70
0
62
7
6
CONTINUOUS
0
ENDTAB
0
ENDSEC
0
SECTION
2
ENTITIES
0
LINE
8
0
6
CONTINUOUS
10
-0.016455
20
0.110000
30
0.0
11
-0.018353
21
0.110000
31
0.0
0
LINE
8
0
6
CONTINUOUS
10
-0.009500
20
0.110000
30
0.0
11
-0.013435
21
0.110000
31
0.0
0
LINE
8
0
6
CONTINUOUS
10
-0.019000
20
0.110000
30
0.0
11
-0.019000
21
0.109610
31
0.0
0
LINE
8
0
6
CONTINUOUS
10
-0.018353
20
0.110000
30
0.0
11
-0.019000
21
0.110000
31
0.0
0
LINE
8
0
6
CONTINUOUS
10
-0.013435
20
0.110000
30
0.0
11
-0.016455
21
0.110000
31
0.0
0
LINE
8
0
6
CONTINUOUS
10
-0.004918
20
0.110000
30
0.0
11
-0.009500
21
0.110000
31
0.0
0
LINE
8
0
6
CONTINUOUS
10
-0.019000
20
0.109610
30
0.0
11
-0.019000
21
0.060193
31
0.0
0
LINE
8
0
6
CONTINUOUS
10
-0.000000
20
0.110000
30
0.0
11
-0.004918
21
0.110000
31
0.0
0
LINE
8
0
6
CONTINUOUS
10
-0.000000
20
0.100949
30
0.0
11
-0.000697
21
0.100994
31
0.0
0
LINE
8
0
6
CONTINUOUS
10
-0.001062
20
0.100509
30
0.0
11
-0.001062
21
0.069293
31
0.0
0
LINE
8
0
6
CONTINUOUS
10
-0.001577
20
0.101289
30
0.0
11
-0.001063
21
0.101017
31
0.0
0
LINE
8
0
6
CONTINUOUS
10
-0.001577
20
0.101289
30
0.0
11
-0.004601
21
0.103386
31
0.0
0
LINE
8
0
6
CONTINUOUS
10
-0.004601
20
0.103386
30
0.0
11
-0.001550
21
0.103268
31
0.0
0
LINE
8
0
6
CONTINUOUS
10
-0.000690
20
0.106142
30
0.0
11
-0.001062
21
0.106139
31
0.0
0
LINE
8
0
6
CONTINUOUS
10
-0.004918
20
0.102445
30
0.0
11
-0.004918
21
0.067357
31
0.0
0
LINE
8
0
6
CONTINUOUS
10
-0.001063
20
0.101017
30
0.0
11
-0.001062
21
0.100509
31
0.0
0
LINE
8
0
6
CONTINUOUS
10
-0.001073
20
0.101622
30
0.0
11
-0.001063
21
0.101017
31
0.0
0
LINE
8
0
6
CONTINUOUS
10
-0.001063
20
0.101017
30
0.0
11
-0.000697
21
0.100994
31
0.0
0
LINE
8
0
6
CONTINUOUS
10
-0.004918
20
0.103014
30
0.0
11
-0.004918
21
0.102445
31
0.0
0
LINE
8
0
6
CONTINUOUS
10
-0.004918
20
0.103585
30
0.0
11
-0.004918
21
0.103014
31
0.0
0
LINE
8
0
6
CONTINUOUS
10
-0.000000
20
0.106148
30
0.0
11
-0.000690
21
0.106142
31
0.0
0
LINE
8
0
6
CONTINUOUS
10
-0.004918
20
0.103705
30
0.0
11
-0.004918
21
0.103585
31
0.0
0
LINE
8
0
6
CONTINUOUS
10
-0.004290
20
0.106110
30
0.0
11
-0.004918
21
0.106104
31
0.0
0
LINE
8
0
6
CONTINUOUS
10
-0.004918
20
0.106104
30
0.0
11
-0.004918
21
0.105949
31
0.0
0
LINE
8
0
6
CONTINUOUS
10
-0.001540
20
0.106134
30
0.0
11
-0.004290
21
0.106110
31
0.0
0
LINE
8
0
6
CONTINUOUS
10
-0.001062
20
0.106139
30
0.0
11
-0.001540
21
0.106134
31
0.0
0
LINE
8
0
6
CONTINUOUS
10
-0.004918
20
0.104827
30
0.0
11
-0.004918
21
0.103705
31
0.0
0
LINE
8
0
6
CONTINUOUS
10
-0.004448
20
0.104731
30
0.0
11
-0.004918
21
0.103705
31
0.0
0
LINE
8
0
6
CONTINUOUS
10
-0.004918
20
0.105949
30
0.0
11
-0.004918
21
0.104827
31
0.0
0
LINE
8
0
6
CONTINUOUS
10
-0.004448
20
0.104731
30
0.0
11
-0.004573
21
0.103632
31
0.0
0
LINE
8
0
6
CONTINUOUS
10
-0.001548
20
0.104010
30
0.0
11
-0.004573
21
0.103632
31
0.0
0
LINE
8
0
6
CONTINUOUS
10
-0.004573
20
0.103632
30
0.0
11
-0.001550
21
0.103268
31
0.0
0
LINE
8
0
6
CONTINUOUS
10
-0.018353
20
0.059802
30
0.0
11
-0.016455
21
0.059802
31
0.0
0
LINE
8
0
6
CONTINUOUS
10
-0.013435
20
0.059802
30
0.0
11
-0.009500
21
0.059802
31
0.0
0
LINE
8
0
6
CONTINUOUS
10
-0.019000
20
0.059802
30
0.0
11
-0.018353
21
0.059802
31
0.0
0
LINE
8
0
6
CONTINUOUS
10
-0.019000
20
0.060193
30
0.0
11
-0.019000
21
0.059802
31
0.0
0
LINE
8
0
6
CONTINUOUS
10
-0.016455
20
0.059802
30
0.0
11
-0.013435
21
0.059802
31
0.0
0
LINE
8
0
6
CONTINUOUS
10
-0.009500
20
0.059802
30
0.0
11
-0.004918
21
0.059802
31
0.0
0
LINE
8
0
6
CONTINUOUS
10
-0.004918
20
0.059802
30
0.0
11
-0.000000
21
0.059802
31
0.0
0
LINE
8
0
6
CONTINUOUS
10
-0.000697
20
0.068809
30
0.0
11
-0.000000
21
0.068853
31
0.0
0
LINE
8
0
6
CONTINUOUS
10
-0.001063
20
0.068785
30
0.0
11
-0.001577
21
0.068513
31
0.0
0
LINE
8
0
6
CONTINUOUS
10
-0.001577
20
0.068513
30
0.0
11
-0.004601
21
0.066416
31
0.0
0
LINE
8
0
6
CONTINUOUS
10
-0.004601
20
0.066416
30
0.0
11
-0.001550
21
0.066534
31
0.0
0
LINE
8
0
6
CONTINUOUS
10
-0.001062
20
0.063664
30
0.0
11
-0.000690
21
0.063660
31
0.0
0
LINE
8
0
6
CONTINUOUS
10
-0.001062
20
0.069293
30
0.0
11
-0.001063
21
0.068785
31
0.0
0
LINE
8
0
6
CONTINUOUS
10
-0.000697
20
0.068809
30
0.0
11
-0.001063
21
0.068785
31
0.0
0
LINE
8
0
6
CONTINUOUS
10
-0.001063
20
0.068785
30
0.0
11
-0.001073
21
0.068180
31
0.0
0
LINE
8
0
6
CONTINUOUS
10
-0.004918
20
0.067357
30
0.0
11
-0.004918
21
0.066788
31
0.0
0
LINE
8
0
6
CONTINUOUS
10
-0.004918
20
0.066788
30
0.0
11
-0.004918
21
0.066217
31
0.0
0
LINE
8
0
6
CONTINUOUS
10
-0.000690
20
0.063660
30
0.0
11
-0.000000
21
0.063654
31
0.0
0
LINE
8
0
6
CONTINUOUS
10
-0.004918
20
0.066217
30
0.0
11
-0.004918
21
0.066097
31
0.0
0
LINE
8
0
6
CONTINUOUS
10
-0.004918
20
0.063853
30
0.0
11
-0.004918
21
0.063698
31
0.0
0
LINE
8
0
6
CONTINUOUS
10
-0.004918
20
0.063698
30
0.0
11
-0.004290
21
0.063692
31
0.0
0
LINE
8
0
6
CONTINUOUS
10
-0.004290
20
0.063692
30
0.0
11
-0.001540
21
0.063668
31
0.0
0
LINE
8
0
6
CONTINUOUS
10
-0.001540
20
0.063668
30
0.0
11
-0.001062
21
0.063664
31
0.0
0
LINE
8
0
6
CONTINUOUS
10
-0.004448
20
0.065071
30
0.0
11
-0.004918
21
0.066097
31
0.0
0
LINE
8
0
6
CONTINUOUS
10
-0.004918
20
0.066097
30
0.0
11
-0.004918
21
0.064975
31
0.0
0
LINE
8
0
6
CONTINUOUS
10
-0.004918
20
0.064975
30
0.0
11
-0.004918
21
0.063853
31
0.0
0
LINE
8
0
6
CONTINUOUS
10
-0.001550
20
0.066534
30
0.0
11
-0.004573
21
0.066170
31
0.0
0
LINE
8
0
6
CONTINUOUS
10
-0.001548
20
0.065792
30
0.0
11
-0.004573
21
0.066170
31
0.0
0
LINE
8
0
6
CONTINUOUS
10
-0.004573
20
0.066170
30
0.0
11
-0.004448
21
0.065071
31
0.0
0
LINE
8
0
6
CONTINUOUS
10
0.018353
20
0.110000
30
0.0
11
0.016455
21
0.110000
31
0.0
0
LINE
8
0
6
CONTINUOUS
10
0.013435
20
0.110000
30
0.0
11
0.009500
21
0.110000
31
0.0
0
LINE
8
0
6
CONTINUOUS
10
0.019000
20
0.110000
30
0.0
11
0.018353
21
0.110000
31
0.0
0
LINE
8
0
6
CONTINUOUS
10
0.019000
20
0.109610
30
0.0
11
0.019000
21
0.110000
31
0.0
0
LINE
8
0
6
CONTINUOUS
10
0.016455
20
0.110000
30
0.0
11
0.013435
21
0.110000
31
0.0
0
LINE
8
0
6
CONTINUOUS
10
0.009500
20
0.110000
30
0.0
11
0.004918
21
0.110000
31
0.0
0
LINE
8
0
6
CONTINUOUS
10
0.019000
20
0.060193
30
0.0
11
0.019000
21
0.109610
31
0.0
0
LINE
8
0
6
CONTINUOUS
10
0.004918
20
0.110000
30
0.0
11
-0.000000
21
0.110000
31
0.0
0
LINE
8
0
6
CONTINUOUS
10
-0.000000
20
0.101605
30
0.0
11
-0.000000
21
0.100949
31
0.0
0
LINE
8
0
6
CONTINUOUS
10
-0.000000
20
0.100949
30
0.0
11
-0.000000
21
0.100445
31
0.0
0
LINE
8
0
6
CONTINUOUS
10
0.000697
20
0.100994
30
0.0
11
-0.000000
21
0.100949
31
0.0
0
LINE
8
0
6
CONTINUOUS
10
0.001062
20
0.069293
30
0.0
11
0.001062
21
0.100509
31
0.0
0
LINE
8
0
6
CONTINUOUS
10
0.001063
20
0.101017
30
0.0
11
0.001577
21
0.101289
31
0.0
0
LINE
8
0
6
CONTINUOUS
10
0.001577
20
0.101289
30
0.0
11
0.004601
21
0.103386
31
0.0
0
LINE
8
0
6
CONTINUOUS
10
0.004601
20
0.103386
30
0.0
11
0.001550
21
0.103268
31
0.0
0
LINE
8
0
6
CONTINUOUS
10
0.001062
20
0.106139
30
0.0
11
0.000690
21
0.106142
31
0.0
0
LINE
8
0
6
CONTINUOUS
10
0.004918
20
0.067357
30
0.0
11
0.004918
21
0.102445
31
0.0
0
LINE
8
0
6
CONTINUOUS
10
0.001062
20
0.100509
30
0.0
11
0.001063
21
0.101017
31
0.0
0
LINE
8
0
6
CONTINUOUS
10
0.000697
20
0.100994
30
0.0
11
0.001063
21
0.101017
31
0.0
0
LINE
8
0
6
CONTINUOUS
10
0.001063
20
0.101017
30
0.0
11
0.001073
21
0.101622
31
0.0
0
LINE
8
0
6
CONTINUOUS
10
0.004918
20
0.102445
30
0.0
11
0.004918
21
0.103014
31
0.0
0
LINE
8
0
6
CONTINUOUS
10
0.004918
20
0.103014
30
0.0
11
0.004918
21
0.103585
31
0.0
0
LINE
8
0
6
CONTINUOUS
10
0.000690
20
0.106142
30
0.0
11
-0.000000
21
0.106148
31
0.0
0
LINE
8
0
6
CONTINUOUS
10
0.004918
20
0.103585
30
0.0
11
0.004918
21
0.103705
31
0.0
0
LINE
8
0
6
CONTINUOUS
10
0.004918
20
0.105949
30
0.0
11
0.004918
21
0.106104
31
0.0
0
LINE
8
0
6
CONTINUOUS
10
0.004918
20
0.106104
30
0.0
11
0.004290
21
0.106110
31
0.0
0
LINE
8
0
6
CONTINUOUS
10
0.004290
20
0.106110
30
0.0
11
0.001540
21
0.106134
31
0.0
0
LINE
8
0
6
CONTINUOUS
10
0.001540
20
0.106134
30
0.0
11
0.001062
21
0.106139
31
0.0
0
LINE
8
0
6
CONTINUOUS
10
0.004448
20
0.104731
30
0.0
11
0.004918
21
0.103705
31
0.0
0
LINE
8
0
6
CONTINUOUS
10
0.004918
20
0.103705
30
0.0
11
0.004918
21
0.104827
31
0.0
0
LINE
8
0
6
CONTINUOUS
10
0.004918
20
0.104827
30
0.0
11
0.004918
21
0.105949
31
0.0
0
LINE
8
0
6
CONTINUOUS
10
0.001550
20
0.103268
30
0.0
11
0.004573
21
0.103632
31
0.0
0
LINE
8
0
6
CONTINUOUS
10
0.001548
20
0.104010
30
0.0
11
0.004573
21
0.103632
31
0.0
0
LINE
8
0
6
CONTINUOUS
10
0.004573
20
0.103632
30
0.0
11
0.004448
21
0.104731
31
0.0
0
LINE
8
0
6
CONTINUOUS
10
0.016455
20
0.059802
30
0.0
11
0.018353
21
0.059802
31
0.0
0
LINE
8
0
6
CONTINUOUS
10
0.009500
20
0.059802
30
0.0
11
0.013435
21
0.059802
31
0.0
0
LINE
8
0
6
CONTINUOUS
10
0.019000
20
0.059802
30
0.0
11
0.019000
21
0.060193
31
0.0
0
LINE
8
0
6
CONTINUOUS
10
0.018353
20
0.059802
30
0.0
11
0.019000
21
0.059802
31
0.0
0
LINE
8
0
6
CONTINUOUS
10
0.013435
20
0.059802
30
0.0
11
0.016455
21
0.059802
31
0.0
0
LINE
8
0
6
CONTINUOUS
10
0.004918
20
0.059802
30
0.0
11
0.009500
21
0.059802
31
0.0
0
LINE
8
0
6
CONTINUOUS
10
-0.000000
20
0.059802
30
0.0
11
0.004918
21
0.059802
31
0.0
0
LINE
8
0
6
CONTINUOUS
10
-0.000000
20
0.068853
30
0.0
11
-0.000000
21
0.068197
31
0.0
0
LINE
8
0
6
CONTINUOUS
10
-0.000000
20
0.068853
30
0.0
11
0.000697
21
0.068809
31
0.0
0
LINE
8
0
6
CONTINUOUS
10
-0.000000
20
0.069358
30
0.0
11
-0.000000
21
0.068853
31
0.0
0
LINE
8
0
6
CONTINUOUS
10
0.001577
20
0.068513
30
0.0
11
0.001063
21
0.068785
31
0.0
0
LINE
8
0
6
CONTINUOUS
10
0.001577
20
0.068513
30
0.0
11
0.004601
21
0.066416
31
0.0
0
LINE
8
0
6
CONTINUOUS
10
0.004601
20
0.066416
30
0.0
11
0.001550
21
0.066534
31
0.0
0
LINE
8
0
6
CONTINUOUS
10
0.000690
20
0.063660
30
0.0
11
0.001062
21
0.063664
31
0.0
0
LINE
8
0
6
CONTINUOUS
10
0.001063
20
0.068785
30
0.0
11
0.001062
21
0.069293
31
0.0
0
LINE
8
0
6
CONTINUOUS
10
0.001073
20
0.068180
30
0.0
11
0.001063
21
0.068785
31
0.0
0
LINE
8
0
6
CONTINUOUS
10
0.001063
20
0.068785
30
0.0
11
0.000697
21
0.068809
31
0.0
0
LINE
8
0
6
CONTINUOUS
10
0.004918
20
0.066788
30
0.0
11
0.004918
21
0.067357
31
0.0
0
LINE
8
0
6
CONTINUOUS
10
0.004918
20
0.066217
30
0.0
11
0.004918
21
0.066788
31
0.0
0
LINE
8
0
6
CONTINUOUS
10
-0.000000
20
0.063654
30
0.0
11
0.000690
21
0.063660
31
0.0
0
LINE
8
0
6
CONTINUOUS
10
0.004918
20
0.066097
30
0.0
11
0.004918
21
0.066217
31
0.0
0
LINE
8
0
6
CONTINUOUS
10
0.004290
20
0.063692
30
0.0
11
0.004918
21
0.063698
31
0.0
0
LINE
8
0
6
CONTINUOUS
10
0.004918
20
0.063698
30
0.0
11
0.004918
21
0.063853
31
0.0
0
LINE
8
0
6
CONTINUOUS
10
0.001540
20
0.063668
30
0.0
11
0.004290
21
0.063692
31
0.0
0
LINE
8
0
6
CONTINUOUS
10
0.001062
20
0.063664
30
0.0
11
0.001540
21
0.063668
31
0.0
0
LINE
8
0
6
CONTINUOUS
10
0.004918
20
0.064975
30
0.0
11
0.004918
21
0.066097
31
0.0
0
LINE
8
0
6
CONTINUOUS
10
0.004448
20
0.065071
30
0.0
11
0.004918
21
0.066097
31
0.0
0
LINE
8
0
6
CONTINUOUS
10
0.004918
20
0.063853
30
0.0
11
0.004918
21
0.064975
31
0.0
0
LINE
8
0
6
CONTINUOUS
10
0.004448
20
0.065071
30
0.0
11
0.004573
21
0.066170
31
0.0
0
LINE
8
0
6
CONTINUOUS
10
0.001548
20
0.065792
30
0.0
11
0.004573
21
0.066170
31
0.0
0
LINE
8
0
6
CONTINUOUS
10
0.004573
20
0.066170
30
0.0
11
0.001550
21
0.066534
31
0.0
0
LINE
8
0
6
CONTINUOUS
10
-0.000000
20
0.069358
30
0.0
11
-0.000000
21
0.100445
31
0.0
0
LINE
8
0
6
CONTINUOUS
10
-0.006973
20
-0.003623
30
0.0
11
-0.003666
21
-0.002484
31
0.0
0
LINE
8
0
6
CONTINUOUS
10
-0.009598
20
-0.005396
30
0.0
11
-0.006973
21
-0.003623
31
0.0
0
LINE
8
0
6
CONTINUOUS
10
-0.011283
20
-0.007632
30
0.0
11
-0.009598
21
-0.005396
31
0.0
0
LINE
8
0
6
CONTINUOUS
10
-0.011863
20
-0.009472
30
0.0
11
-0.011863
21
-0.010109
31
0.0
0
LINE
8
0
6
CONTINUOUS
10
-0.011863
20
-0.010109
30
0.0
11
-0.011283
21
-0.007632
31
0.0
0
LINE
8
0
6
CONTINUOUS
10
-0.011863
20
-0.010109
30
0.0
11
-0.011283
21
-0.012587
31
0.0
0
LINE
8
0
6
CONTINUOUS
10
-0.011283
20
-0.012587
30
0.0
11
-0.009598
21
-0.014822
31
0.0
0
LINE
8
0
6
CONTINUOUS
10
-0.009598
20
-0.014822
30
0.0
11
-0.006973
21
-0.016596
31
0.0
0
LINE
8
0
6
CONTINUOUS
10
-0.006973
20
-0.016596
30
0.0
11
-0.003666
21
-0.017735
31
0.0
0
LINE
8
0
6
CONTINUOUS
10
-0.003666
20
-0.017735
30
0.0
11
-0.000000
21
-0.018127
31
0.0
0
LINE
8
0
6
CONTINUOUS
10
-0.000000
20
-0.018127
30
0.0
11
0.003666
21
-0.017735
31
0.0
0
LINE
8
0
6
CONTINUOUS
10
0.003666
20
-0.017735
30
0.0
11
0.006973
21
-0.016596
31
0.0
0
LINE
8
0
6
CONTINUOUS
10
0.006973
20
-0.016596
30
0.0
11
0.009598
21
-0.014822
31
0.0
0
LINE
8
0
6
CONTINUOUS
10
0.009598
20
-0.014822
30
0.0
11
0.011283
21
-0.012587
31
0.0
0
LINE
8
0
6
CONTINUOUS
10
0.011283
20
-0.012587
30
0.0
11
0.011863
21
-0.010109
31
0.0
0
LINE
8
0
6
CONTINUOUS
10
0.011863
20
-0.010109
30
0.0
11
0.011863
21
-0.009472
31
0.0
0
LINE
8
0
6
CONTINUOUS
10
0.011283
20
-0.007632
30
0.0
11
0.011863
21
-0.010109
31
0.0
0
LINE
8
0
6
CONTINUOUS
10
0.009598
20
-0.005396
30
0.0
11
0.011283
21
-0.007632
31
0.0
0
LINE
8
0
6
CONTINUOUS
10
0.006973
20
-0.003623
30
0.0
11
0.009598
21
-0.005396
31
0.0
0
LINE
8
0
6
CONTINUOUS
10
0.003666
20
-0.002484
30
0.0
11
0.006973
21
-0.003623
31
0.0
0
LINE
8
0
6
CONTINUOUS
10
-0.000000
20
-0.002091
30
0.0
11
0.003666
21
-0.002484
31
0.0
0
LINE
8
0
6
CONTINUOUS
10
-0.003666
20
-0.002484
30
0.0
11
-0.000000
21
-0.002091
31
0.0
0
LINE
8
0
6
CONTINUOUS
10
0.011863
20
-0.009472
30
0.0
11
0.011863
21
-0.006447
31
0.0
0
LINE
8
0
6
CONTINUOUS
10
-0.011863
20
-0.006447
30
0.0
11
-0.011863
21
-0.009472
31
0.0
0
LINE
8
0
6
CONTINUOUS
10
-0.005304
20
-0.005177
30
0.0
11
-0.002789
21
-0.004311
31
0.0
0
LINE
8
0
6
CONTINUOUS
10
-0.007300
20
-0.006526
30
0.0
11
-0.005304
21
-0.005177
31
0.0
0
LINE
8
0
6
CONTINUOUS
10
-0.008581
20
-0.008226
30
0.0
11
-0.007300
21
-0.006526
31
0.0
0
LINE
8
0
6
CONTINUOUS
10
-0.009022
20
-0.010109
30
0.0
11
-0.008581
21
-0.008226
31
0.0
0
LINE
8
0
6
CONTINUOUS
10
0.008581
20
-0.008226
30
0.0
11
0.009022
21
-0.010109
31
0.0
0
LINE
8
0
6
CONTINUOUS
10
0.007300
20
-0.006526
30
0.0
11
0.008581
21
-0.008226
31
0.0
0
LINE
8
0
6
CONTINUOUS
10
0.005304
20
-0.005177
30
0.0
11
0.007300
21
-0.006526
31
0.0
0
LINE
8
0
6
CONTINUOUS
10
0.002789
20
-0.004311
30
0.0
11
0.005304
21
-0.005177
31
0.0
0
LINE
8
0
6
CONTINUOUS
10
-0.000000
20
-0.004012
30
0.0
11
0.002789
21
-0.004311
31
0.0
0
LINE
8
0
6
CONTINUOUS
10
-0.002789
20
-0.004311
30
0.0
11
-0.000000
21
-0.004012
31
0.0
0
LINE
8
0
6
CONTINUOUS
10
-0.005304
20
-0.014660
30
0.0
11
-0.007300
21
-0.013311
31
0.0
0
LINE
8
0
6
CONTINUOUS
10
-0.007300
20
-0.013693
30
0.0
11
-0.005304
21
-0.015042
31
0.0
0
LINE
8
0
6
CONTINUOUS
10
0.005304
20
-0.014660
30
0.0
11
0.002789
21
-0.015526
31
0.0
0
LINE
8
0
6
CONTINUOUS
10
0.002789
20
-0.015908
30
0.0
11
0.005304
21
-0.015042
31
0.0
0
LINE
8
0
6
CONTINUOUS
10
0.007300
20
-0.013311
30
0.0
11
0.005304
21
-0.014660
31
0.0
0
LINE
8
0
6
CONTINUOUS
10
0.005304
20
-0.015042
30
0.0
11
0.007300
21
-0.013693
31
0.0
0
LINE
8
0
6
CONTINUOUS
10
-0.002789
20
-0.015526
30
0.0
11
-0.005304
21
-0.014660
31
0.0
0
LINE
8
0
6
CONTINUOUS
10
-0.005304
20
-0.015042
30
0.0
11
-0.002789
21
-0.015908
31
0.0
0
LINE
8
0
6
CONTINUOUS
10
0.008581
20
-0.011611
30
0.0
11
0.007300
21
-0.013311
31
0.0
0
LINE
8
0
6
CONTINUOUS
10
0.007300
20
-0.013693
30
0.0
11
0.008581
21
-0.011993
31
0.0
0
LINE
8
0
6
CONTINUOUS
10
-0.000000
20
-0.015824
30
0.0
11
-0.002789
21
-0.015526
31
0.0
0
LINE
8
0
6
CONTINUOUS
10
-0.002789
20
-0.015908
30
0.0
11
-0.000000
21
-0.016206
31
0.0
0
LINE
8
0
6
CONTINUOUS
10
-0.008581
20
-0.011611
30
0.0
11
-0.009022
21
-0.009727
31
0.0
0
LINE
8
0
6
CONTINUOUS
10
-0.009022
20
-0.010109
30
0.0
11
-0.008581
21
-0.011993
31
0.0
0
LINE
8
0
6
CONTINUOUS
10
0.009022
20
-0.009727
30
0.0
11
0.008581
21
-0.011611
31
0.0
0
LINE
8
0
6
CONTINUOUS
10
0.008581
20
-0.011993
30
0.0
11
0.009022
21
-0.010109
31
0.0
0
LINE
8
0
6
CONTINUOUS
10
0.002789
20
-0.015526
30
0.0
11
-0.000000
21
-0.015824
31
0.0
0
LINE
8
0
6
CONTINUOUS
10
-0.000000
20
-0.016206
30
0.0
11
0.002789
21
-0.015908
31
0.0
0
LINE
8
0
6
CONTINUOUS
10
-0.007300
20
-0.013311
30
0.0
11
-0.008581
21
-0.011611
31
0.0
0
LINE
8
0
6
CONTINUOUS
10
-0.008581
20
-0.011993
30
0.0
11
-0.007300
21
-0.013693
31
0.0
0
LINE
8
0
6
CONTINUOUS
10
-0.016199
20
0.025078
30
0.0
11
-0.016150
21
0.023551
31
0.0
0
LINE
8
0
6
CONTINUOUS
10
0.019224
20
0.043401
30
0.0
11
0.019015
21
0.057401
31
0.0
0
LINE
8
0
6
CONTINUOUS
10
-0.016252
20
0.026751
30
0.0
11
-0.016225
21
0.025904
31
0.0
0
LINE
8
0
6
CONTINUOUS
10
-0.016225
20
0.025904
30
0.0
11
-0.016199
21
0.025078
31
0.0
0
LINE
8
0
6
CONTINUOUS
10
-0.013732
20
0.036176
30
0.0
11
-0.013796
21
0.033203
31
0.0
0
LINE
8
0
6
CONTINUOUS
10
-0.013635
20
0.041197
30
0.0
11
-0.013732
21
0.036176
31
0.0
0
LINE
8
0
6
CONTINUOUS
10
-0.013635
20
0.041197
30
0.0
11
-0.013532
21
0.046920
31
0.0
0
LINE
8
0
6
CONTINUOUS
10
-0.019015
20
0.057401
30
0.0
11
-0.019224
21
0.043401
31
0.0
0
LINE
8
0
6
CONTINUOUS
10
-0.019224
20
0.043401
30
0.0
11
-0.019593
21
0.028401
31
0.0
0
LINE
8
0
6
CONTINUOUS
10
-0.019593
20
0.028401
30
0.0
11
-0.020086
21
0.008387
31
0.0
0
LINE
8
0
6
CONTINUOUS
10
0.016150
20
0.023551
30
0.0
11
0.016199
21
0.025078
31
0.0
0
LINE
8
0
6
CONTINUOUS
10
0.016225
20
0.025904
30
0.0
11
0.016252
21
0.026751
31
0.0
0
LINE
8
0
6
CONTINUOUS
10
0.016199
20
0.025078
30
0.0
11
0.016225
21
0.025904
31
0.0
0
LINE
8
0
6
CONTINUOUS
10
0.013796
20
0.033203
30
0.0
11
0.013732
21
0.036176
31
0.0
0
LINE
8
0
6
CONTINUOUS
10
0.013732
20
0.036176
30
0.0
11
0.013635
21
0.041197
31
0.0
0
LINE
8
0
6
CONTINUOUS
10
0.022975
20
-0.109000
30
0.0
11
0.020835
21
-0.022037
31
0.0
0
LINE
8
0
6
CONTINUOUS
10
0.013532
20
0.046920
30
0.0
11
0.013635
21
0.041197
31
0.0
0
LINE
8
0
6
CONTINUOUS
10
-0.020835
20
-0.022037
30
0.0
11
-0.022975
21
-0.109000
31
0.0
0
LINE
8
0
6
CONTINUOUS
10
0.019593
20
0.028401
30
0.0
11
0.019224
21
0.043401
31
0.0
0
LINE
8
0
6
CONTINUOUS
10
0.020086
20
0.008387
30
0.0
11
0.019593
21
0.028401
31
0.0
0
LINE
8
0
6
CONTINUOUS
10
-0.013732
20
-0.001284
30
0.0
11
-0.010411
21
0.002191
31
0.0
0
LINE
8
0
6
CONTINUOUS
10
-0.010411
20
0.002191
30
0.0
11
-0.005620
21
0.004493
31
0.0
0
LINE
8
0
6
CONTINUOUS
10
-0.005620
20
0.004493
30
0.0
11
-0.000000
21
0.005309
31
0.0
0
LINE
8
0
6
CONTINUOUS
10
-0.015225
20
-0.005473
30
0.0
11
-0.015202
21
-0.005897
31
0.0
0
LINE
8
0
6
CONTINUOUS
10
-0.013732
20
-0.001284
30
0.0
11
-0.015202
21
-0.005897
31
0.0
0
LINE
8
0
6
CONTINUOUS
10
-0.015202
20
-0.005897
30
0.0
11
-0.013699
21
-0.010582
31
0.0
0
LINE
8
0
6
CONTINUOUS
10
-0.013699
20
-0.010582
30
0.0
11
-0.010259
21
-0.014495
31
0.0
0
LINE
8
0
6
CONTINUOUS
10
0.013732
20
-0.001284
30
0.0
11
0.010411
21
0.002191
31
0.0
0
LINE
8
0
6
CONTINUOUS
10
0.010411
20
0.002191
30
0.0
11
0.005620
21
0.004493
31
0.0
0
LINE
8
0
6
CONTINUOUS
10
0.005620
20
0.004493
30
0.0
11
-0.000000
21
0.005309
31
0.0
0
LINE
8
0
6
CONTINUOUS
10
0.015202
20
-0.005897
30
0.0
11
0.015225
21
-0.005473
31
0.0
0
LINE
8
0
6
CONTINUOUS
10
0.013732
20
-0.001284
30
0.0
11
0.015202
21
-0.005897
31
0.0
0
LINE
8
0
6
CONTINUOUS
10
0.013699
20
-0.010582
30
0.0
11
0.015202
21
-0.005897
31
0.0
0
LINE
8
0
6
CONTINUOUS
10
0.010259
20
-0.014495
30
0.0
11
0.013699
21
-0.010582
31
0.0
0
LINE
8
0
6
CONTINUOUS
10
-0.000000
20
0.058401
30
0.0
11
-0.004918
21
0.058401
31
0.0
0
LINE
8
0
6
CONTINUOUS
10
-0.013435
20
0.058401
30
0.0
11
-0.016454
21
0.058401
31
0.0
0
LINE
8
0
6
CONTINUOUS
10
-0.019000
20
0.058401
30
0.0
11
-0.019015
21
0.057401
31
0.0
0
LINE
8
0
6
CONTINUOUS
10
-0.018353
20
0.058401
30
0.0
11
-0.019000
21
0.058401
31
0.0
0
LINE
8
0
6
CONTINUOUS
10
-0.004918
20
0.058401
30
0.0
11
-0.009500
21
0.058401
31
0.0
0
LINE
8
0
6
CONTINUOUS
10
-0.009500
20
0.058401
30
0.0
11
-0.013435
21
0.058401
31
0.0
0
LINE
8
0
6
CONTINUOUS
10
-0.016454
20
0.058401
30
0.0
11
-0.018353
21
0.058401
31
0.0
0
LINE
8
0
6
CONTINUOUS
10
0.004918
20
0.058401
30
0.0
11
-0.000000
21
0.058401
31
0.0
0
LINE
8
0
6
CONTINUOUS
10
0.016454
20
0.058401
30
0.0
11
0.013435
21
0.058401
31
0.0
0
LINE
8
0
6
CONTINUOUS
10
0.019015
20
0.057401
30
0.0
11
0.019000
21
0.058401
31
0.0
0
LINE
8
0
6
CONTINUOUS
10
0.019000
20
0.058401
30
0.0
11
0.018353
21
0.058401
31
0.0
0
LINE
8
0
6
CONTINUOUS
10
0.009500
20
0.058401
30
0.0
11
0.004918
21
0.058401
31
0.0
0
LINE
8
0
6
CONTINUOUS
10
0.013435
20
0.058401
30
0.0
11
0.009500
21
0.058401
31
0.0
0
LINE
8
0
6
CONTINUOUS
10
0.018353
20
0.058401
30
0.0
11
0.016454
21
0.058401
31
0.0
0
LINE
8
0
6
CONTINUOUS
10
-0.016263
20
-0.110000
30
0.0
11
-0.011500
21
-0.110000
31
0.0
0
LINE
8
0
6
CONTINUOUS
10
-0.022216
20
-0.110000
30
0.0
11
-0.019919
21
-0.110000
31
0.0
0
LINE
8
0
6
CONTINUOUS
10
-0.005953
20
-0.110000
30
0.0
11
-0.000000
21
-0.110000
31
0.0
0
LINE
8
0
6
CONTINUOUS
10
-0.019919
20
-0.110000
30
0.0
11
-0.016263
21
-0.110000
31
0.0
0
LINE
8
0
6
CONTINUOUS
10
-0.022975
20
-0.109000
30
0.0
11
-0.023000
21
-0.110000
31
0.0
0
LINE
8
0
6
CONTINUOUS
10
-0.023000
20
-0.110000
30
0.0
11
-0.022216
21
-0.110000
31
0.0
0
LINE
8
0
6
CONTINUOUS
10
-0.011500
20
-0.110000
30
0.0
11
-0.005953
21
-0.110000
31
0.0
0
LINE
8
0
6
CONTINUOUS
10
0.011500
20
-0.110000
30
0.0
11
0.016263
21
-0.110000
31
0.0
0
LINE
8
0
6
CONTINUOUS
10
0.019919
20
-0.110000
30
0.0
11
0.022216
21
-0.110000
31
0.0
0
LINE
8
0
6
CONTINUOUS
10
-0.000000
20
-0.110000
30
0.0
11
0.005953
21
-0.110000
31
0.0
0
LINE
8
0
6
CONTINUOUS
10
0.016263
20
-0.110000
30
0.0
11
0.019919
21
-0.110000
31
0.0
0
LINE
8
0
6
CONTINUOUS
10
0.023000
20
-0.110000
30
0.0
11
0.022975
21
-0.109000
31
0.0
0
LINE
8
0
6
CONTINUOUS
10
0.022216
20
-0.110000
30
0.0
11
0.023000
21
-0.110000
31
0.0
0
LINE
8
0
6
CONTINUOUS
10
0.005953
20
-0.110000
30
0.0
11
0.011500
21
-0.110000
31
0.0
0
LINE
8
0
6
CONTINUOUS
10
0.015225
20
-0.005473
30
0.0
11
0.016150
21
0.023551
31
0.0
0
LINE
8
0
6
CONTINUOUS
10
0.013793
20
0.031501
30
0.0
11
0.013796
21
0.033203
31
0.0
0
LINE
8
0
6
CONTINUOUS
10
-0.013796
20
0.033203
30
0.0
11
-0.013793
21
0.031501
31
0.0
0
LINE
8
0
6
CONTINUOUS
10
-0.016150
20
0.023551
30
0.0
11
-0.015225
21
-0.005473
31
0.0
0
LINE
8
0
6
CONTINUOUS
10
-0.016043
20
0.020172
30
0.0
11
-0.016923
21
0.027618
31
0.0
0
LINE
8
0
6
CONTINUOUS
10
-0.016923
20
0.027618
30
0.0
11
-0.015950
21
0.017264
31
0.0
0
LINE
8
0
6
CONTINUOUS
10
0.016657
20
0.027386
30
0.0
11
0.016034
21
0.019902
31
0.0
0
LINE
8
0
6
CONTINUOUS
10
0.017991
20
0.058401
30
0.0
11
0.017991
21
0.059802
31
0.0
0
LINE
8
0
6
CONTINUOUS
10
-0.017991
20
0.059802
30
0.0
11
-0.017991
21
0.058401
31
0.0
0
LINE
8
0
6
CONTINUOUS
10
-0.020086
20
0.008387
30
0.0
11
-0.020835
21
-0.022037
31
0.0
0
LINE
8
0
6
CONTINUOUS
10
0.020835
20
-0.022037
30
0.0
11
0.020086
21
0.008387
31
0.0
0
LINE
8
0
6
CONTINUOUS
10
-0.000000
20
0.001679
30
0.0
11
0.003666
21
0.001281
31
0.0
0
LINE
8
0
6
CONTINUOUS
10
-0.003666
20
0.001281
30
0.0
11
-0.000000
21
0.001679
31
0.0
0
ENDSEC
0
EOF
