999
Erzeugt mit innoplus bad 
0
SECTION
2
HEADER
9
$ACADVER
1
AC1009
9
$DWGCODEPAGE
3
ISO8859-1
0
ENDSEC
0
SECTION
2
TABLES
0
TABLE
2
LAYER
70
1
0
LAYER
2
0
70
0
62
7
6
CONTINUOUS
0
ENDTAB
0
ENDSEC
0
SECTION
2
ENTITIES
0
LINE
8
0
6
CONTINUOUS
10
-0.022216
20
0.047174
30
0.0
11
-0.023000
21
0.041221
31
0.0
0
LINE
8
0
6
CONTINUOUS
10
-0.019919
20
0.052722
30
0.0
11
-0.022216
21
0.047174
31
0.0
0
LINE
8
0
6
CONTINUOUS
10
0.000000
20
0.064223
30
0.0
11
-0.005953
21
0.063440
31
0.0
0
LINE
8
0
6
CONTINUOUS
10
-0.016263
20
0.057486
30
0.0
11
-0.019919
21
0.052722
31
0.0
0
LINE
8
0
6
CONTINUOUS
10
-0.005953
20
0.063440
30
0.0
11
-0.011500
21
0.061142
31
0.0
0
LINE
8
0
6
CONTINUOUS
10
-0.022216
20
0.035267
30
0.0
11
-0.022185
21
0.035129
31
0.0
0
LINE
8
0
6
CONTINUOUS
10
-0.023000
20
0.041221
30
0.0
11
-0.022216
21
0.035267
31
0.0
0
LINE
8
0
6
CONTINUOUS
10
-0.011500
20
0.061142
30
0.0
11
-0.016263
21
0.057486
31
0.0
0
LINE
8
0
6
CONTINUOUS
10
0.023000
20
0.041221
30
0.0
11
0.022216
21
0.047174
31
0.0
0
LINE
8
0
6
CONTINUOUS
10
0.022216
20
0.047174
30
0.0
11
0.019919
21
0.052722
31
0.0
0
LINE
8
0
6
CONTINUOUS
10
0.005953
20
0.063440
30
0.0
11
0.000000
21
0.064223
31
0.0
0
LINE
8
0
6
CONTINUOUS
10
0.019919
20
0.052722
30
0.0
11
0.016263
21
0.057486
31
0.0
0
LINE
8
0
6
CONTINUOUS
10
0.011500
20
0.061142
30
0.0
11
0.005953
21
0.063440
31
0.0
0
LINE
8
0
6
CONTINUOUS
10
0.022216
20
0.035267
30
0.0
11
0.023000
21
0.041221
31
0.0
0
LINE
8
0
6
CONTINUOUS
10
0.022185
20
0.035129
30
0.0
11
0.022216
21
0.035267
31
0.0
0
LINE
8
0
6
CONTINUOUS
10
0.016263
20
0.057486
30
0.0
11
0.011500
21
0.061142
31
0.0
0
LINE
8
0
6
CONTINUOUS
10
0.018353
20
0.024714
30
0.0
11
0.016454
21
0.029312
31
0.0
0
LINE
8
0
6
CONTINUOUS
10
0.013435
20
0.033260
30
0.0
11
0.009500
21
0.036288
31
0.0
0
LINE
8
0
6
CONTINUOUS
10
0.009500
20
0.036288
30
0.0
11
0.004918
21
0.038191
31
0.0
0
LINE
8
0
6
CONTINUOUS
10
0.019000
20
0.019779
30
0.0
11
0.019015
21
0.019945
31
0.0
0
LINE
8
0
6
CONTINUOUS
10
0.019000
20
0.019779
30
0.0
11
0.018353
21
0.024714
31
0.0
0
LINE
8
0
6
CONTINUOUS
10
0.004918
20
0.038191
30
0.0
11
0.000000
21
0.038840
31
0.0
0
LINE
8
0
6
CONTINUOUS
10
0.016454
20
0.029312
30
0.0
11
0.013435
21
0.033260
31
0.0
0
LINE
8
0
6
CONTINUOUS
10
0.015202
20
-0.052315
30
0.0
11
0.015225
21
-0.051333
31
0.0
0
LINE
8
0
6
CONTINUOUS
10
0.013732
20
-0.057217
30
0.0
11
0.015202
21
-0.052315
31
0.0
0
LINE
8
0
6
CONTINUOUS
10
0.000000
20
-0.064223
30
0.0
11
0.005620
21
-0.063357
31
0.0
0
LINE
8
0
6
CONTINUOUS
10
0.005620
20
-0.063357
30
0.0
11
0.010411
21
-0.060910
31
0.0
0
LINE
8
0
6
CONTINUOUS
10
0.010411
20
-0.060910
30
0.0
11
0.013732
21
-0.057217
31
0.0
0
LINE
8
0
6
CONTINUOUS
10
0.019204
20
0.019416
30
0.0
11
0.019818
21
0.022651
31
0.0
0
LINE
8
0
6
CONTINUOUS
10
0.015225
20
-0.051333
30
0.0
11
0.016570
21
0.002178
31
0.0
0
LINE
8
0
6
CONTINUOUS
10
-0.019818
20
0.022651
30
0.0
11
-0.019204
21
0.019416
31
0.0
0
LINE
8
0
6
CONTINUOUS
10
-0.016454
20
0.029312
30
0.0
11
-0.018353
21
0.024714
31
0.0
0
LINE
8
0
6
CONTINUOUS
10
-0.009500
20
0.036288
30
0.0
11
-0.013435
21
0.033260
31
0.0
0
LINE
8
0
6
CONTINUOUS
10
-0.004918
20
0.038191
30
0.0
11
-0.009500
21
0.036288
31
0.0
0
LINE
8
0
6
CONTINUOUS
10
-0.019015
20
0.019945
30
0.0
11
-0.019000
21
0.019779
31
0.0
0
LINE
8
0
6
CONTINUOUS
10
-0.018353
20
0.024714
30
0.0
11
-0.019000
21
0.019779
31
0.0
0
LINE
8
0
6
CONTINUOUS
10
0.000000
20
0.038840
30
0.0
11
-0.004918
21
0.038191
31
0.0
0
LINE
8
0
6
CONTINUOUS
10
-0.013435
20
0.033260
30
0.0
11
-0.016454
21
0.029312
31
0.0
0
LINE
8
0
6
CONTINUOUS
10
-0.015202
20
-0.052315
30
0.0
11
-0.013732
21
-0.057217
31
0.0
0
LINE
8
0
6
CONTINUOUS
10
-0.015225
20
-0.051333
30
0.0
11
-0.015202
21
-0.052315
31
0.0
0
LINE
8
0
6
CONTINUOUS
10
-0.005620
20
-0.063357
30
0.0
11
0.000000
21
-0.064223
31
0.0
0
LINE
8
0
6
CONTINUOUS
10
-0.010411
20
-0.060910
30
0.0
11
-0.005620
21
-0.063357
31
0.0
0
LINE
8
0
6
CONTINUOUS
10
-0.013732
20
-0.057217
30
0.0
11
-0.010411
21
-0.060910
31
0.0
0
LINE
8
0
6
CONTINUOUS
10
-0.022185
20
0.035129
30
0.0
11
-0.019818
21
0.022651
31
0.0
0
LINE
8
0
6
CONTINUOUS
10
-0.016570
20
0.002178
30
0.0
11
-0.015225
21
-0.051333
31
0.0
0
LINE
8
0
6
CONTINUOUS
10
0.019818
20
0.022651
30
0.0
11
0.022185
21
0.035129
31
0.0
0
LINE
8
0
6
CONTINUOUS
10
-0.018353
20
0.006411
30
0.0
11
-0.016455
21
0.001903
31
0.0
0
LINE
8
0
6
CONTINUOUS
10
-0.016455
20
0.020651
30
0.0
11
-0.018353
21
0.016127
31
0.0
0
LINE
8
0
6
CONTINUOUS
10
-0.019000
20
0.011290
30
0.0
11
-0.018353
21
0.006411
31
0.0
0
LINE
8
0
6
CONTINUOUS
10
-0.019000
20
0.011290
30
0.0
11
-0.018353
21
0.016127
31
0.0
0
LINE
8
0
6
CONTINUOUS
10
-0.013435
20
-0.001984
30
0.0
11
-0.009500
21
-0.004967
31
0.0
0
LINE
8
0
6
CONTINUOUS
10
-0.004918
20
0.029384
30
0.0
11
-0.009500
21
0.027513
31
0.0
0
LINE
8
0
6
CONTINUOUS
10
-0.004918
20
0.029384
30
0.0
11
0.000000
21
0.030020
31
0.0
0
LINE
8
0
6
CONTINUOUS
10
-0.016455
20
0.020651
30
0.0
11
-0.013435
21
0.024535
31
0.0
0
LINE
8
0
6
CONTINUOUS
10
-0.016455
20
0.001903
30
0.0
11
-0.013435
21
-0.001984
31
0.0
0
LINE
8
0
6
CONTINUOUS
10
-0.004918
20
-0.006842
30
0.0
11
0.000000
21
-0.007482
31
0.0
0
LINE
8
0
6
CONTINUOUS
10
-0.009500
20
-0.004967
30
0.0
11
-0.004918
21
-0.006842
31
0.0
0
LINE
8
0
6
CONTINUOUS
10
-0.013435
20
0.024535
30
0.0
11
-0.009500
21
0.027513
31
0.0
0
LINE
8
0
6
CONTINUOUS
10
-0.019000
20
0.019489
30
0.0
11
-0.019000
21
0.011353
31
0.0
0
LINE
8
0
6
CONTINUOUS
10
-0.000697
20
-0.011540
30
0.0
11
0.000000
21
-0.011819
31
0.0
0
LINE
8
0
6
CONTINUOUS
10
-0.001577
20
-0.010641
30
0.0
11
-0.001063
21
-0.011383
31
0.0
0
LINE
8
0
6
CONTINUOUS
10
-0.004200
20
-0.006936
30
0.0
11
-0.001577
21
-0.010641
31
0.0
0
LINE
8
0
6
CONTINUOUS
10
-0.004601
20
-0.006369
30
0.0
11
-0.001550
21
-0.008493
31
0.0
0
LINE
8
0
6
CONTINUOUS
10
-0.001073
20
-0.010836
30
0.0
11
-0.001063
21
-0.011383
31
0.0
0
LINE
8
0
6
CONTINUOUS
10
-0.001063
20
-0.011383
30
0.0
11
-0.000697
21
-0.011540
31
0.0
0
LINE
8
0
6
CONTINUOUS
10
-0.004573
20
-0.006367
30
0.0
11
-0.001550
21
-0.008493
31
0.0
0
LINE
8
0
6
CONTINUOUS
10
-0.016455
20
0.029072
30
0.0
11
-0.018353
21
0.024472
31
0.0
0
LINE
8
0
6
CONTINUOUS
10
-0.019000
20
0.019554
30
0.0
11
-0.019000
21
0.019489
31
0.0
0
LINE
8
0
6
CONTINUOUS
10
-0.018353
20
0.024472
30
0.0
11
-0.019000
21
0.019554
31
0.0
0
LINE
8
0
6
CONTINUOUS
10
-0.004918
20
0.037951
30
0.0
11
-0.009500
21
0.036049
31
0.0
0
LINE
8
0
6
CONTINUOUS
10
0.000000
20
0.038598
30
0.0
11
-0.004918
21
0.037951
31
0.0
0
LINE
8
0
6
CONTINUOUS
10
-0.013435
20
0.033020
30
0.0
11
-0.016455
21
0.029072
31
0.0
0
LINE
8
0
6
CONTINUOUS
10
-0.009500
20
0.036049
30
0.0
11
-0.013435
21
0.033020
31
0.0
0
LINE
8
0
6
CONTINUOUS
10
0.016455
20
0.001903
30
0.0
11
0.018353
21
0.006411
31
0.0
0
LINE
8
0
6
CONTINUOUS
10
0.018353
20
0.016127
30
0.0
11
0.016455
21
0.020651
31
0.0
0
LINE
8
0
6
CONTINUOUS
10
0.018353
20
0.006411
30
0.0
11
0.019000
21
0.011290
31
0.0
0
LINE
8
0
6
CONTINUOUS
10
0.018353
20
0.016127
30
0.0
11
0.019000
21
0.011290
31
0.0
0
LINE
8
0
6
CONTINUOUS
10
0.009500
20
-0.004967
30
0.0
11
0.013435
21
-0.001984
31
0.0
0
LINE
8
0
6
CONTINUOUS
10
0.009500
20
0.027513
30
0.0
11
0.004918
21
0.029384
31
0.0
0
LINE
8
0
6
CONTINUOUS
10
0.000000
20
0.030020
30
0.0
11
0.004918
21
0.029384
31
0.0
0
LINE
8
0
6
CONTINUOUS
10
0.013435
20
0.024535
30
0.0
11
0.016455
21
0.020651
31
0.0
0
LINE
8
0
6
CONTINUOUS
10
0.013435
20
-0.001984
30
0.0
11
0.016455
21
0.001903
31
0.0
0
LINE
8
0
6
CONTINUOUS
10
0.000000
20
-0.007482
30
0.0
11
0.004918
21
-0.006842
31
0.0
0
LINE
8
0
6
CONTINUOUS
10
0.004918
20
-0.006842
30
0.0
11
0.009500
21
-0.004967
31
0.0
0
LINE
8
0
6
CONTINUOUS
10
0.009500
20
0.027513
30
0.0
11
0.013435
21
0.024535
31
0.0
0
LINE
8
0
6
CONTINUOUS
10
0.019000
20
0.011353
30
0.0
11
0.019000
21
0.019489
31
0.0
0
LINE
8
0
6
CONTINUOUS
10
0.000000
20
-0.011819
30
0.0
11
0.000697
21
-0.011540
31
0.0
0
LINE
8
0
6
CONTINUOUS
10
0.000000
20
-0.011098
30
0.0
11
0.000000
21
-0.011819
31
0.0
0
LINE
8
0
6
CONTINUOUS
10
0.001063
20
-0.011383
30
0.0
11
0.001577
21
-0.010641
31
0.0
0
LINE
8
0
6
CONTINUOUS
10
0.001577
20
-0.010641
30
0.0
11
0.004200
21
-0.006936
31
0.0
0
LINE
8
0
6
CONTINUOUS
10
0.004601
20
-0.006369
30
0.0
11
0.001550
21
-0.008493
31
0.0
0
LINE
8
0
6
CONTINUOUS
10
0.000697
20
-0.011540
30
0.0
11
0.001063
21
-0.011383
31
0.0
0
LINE
8
0
6
CONTINUOUS
10
0.001063
20
-0.011383
30
0.0
11
0.001073
21
-0.010836
31
0.0
0
LINE
8
0
6
CONTINUOUS
10
0.001550
20
-0.008493
30
0.0
11
0.004573
21
-0.006367
31
0.0
0
LINE
8
0
6
CONTINUOUS
10
0.018353
20
0.024472
30
0.0
11
0.016455
21
0.029072
31
0.0
0
LINE
8
0
6
CONTINUOUS
10
0.019000
20
0.019554
30
0.0
11
0.018353
21
0.024472
31
0.0
0
LINE
8
0
6
CONTINUOUS
10
0.019000
20
0.019489
30
0.0
11
0.019000
21
0.019554
31
0.0
0
LINE
8
0
6
CONTINUOUS
10
0.009500
20
0.036049
30
0.0
11
0.004918
21
0.037951
31
0.0
0
LINE
8
0
6
CONTINUOUS
10
0.004918
20
0.037951
30
0.0
11
0.000000
21
0.038598
31
0.0
0
LINE
8
0
6
CONTINUOUS
10
0.016455
20
0.029072
30
0.0
11
0.013435
21
0.033020
31
0.0
0
LINE
8
0
6
CONTINUOUS
10
0.013435
20
0.033020
30
0.0
11
0.009500
21
0.036049
31
0.0
0
ENDSEC
0
EOF
