999
Erzeugt mit innoplus bad 
0
SECTION
2
HEADER
9
$ACADVER
1
AC1009
9
$DWGCODEPAGE
3
ISO8859-1
0
ENDSEC
0
SECTION
2
TABLES
0
TABLE
2
LAYER
70
1
0
LAYER
2
0
70
0
62
7
6
CONTINUOUS
0
ENDTAB
0
ENDSEC
0
SECTION
2
ENTITIES
0
LINE
8
0
6
CONTINUOUS
10
0.014980
20
0.010069
30
0.0
11
0.014785
21
-0.011964
31
0.0
0
LINE
8
0
6
CONTINUOUS
10
0.041221
20
-0.095000
30
0.0
11
0.047174
21
-0.095000
31
0.0
0
LINE
8
0
6
CONTINUOUS
10
0.047174
20
-0.095000
30
0.0
11
0.052722
21
-0.095000
31
0.0
0
LINE
8
0
6
CONTINUOUS
10
0.064223
20
-0.095000
30
0.0
11
0.064056
21
-0.094032
31
0.0
0
LINE
8
0
6
CONTINUOUS
10
0.063440
20
-0.095000
30
0.0
11
0.064223
21
-0.095000
31
0.0
0
LINE
8
0
6
CONTINUOUS
10
0.052722
20
-0.095000
30
0.0
11
0.057486
21
-0.095000
31
0.0
0
LINE
8
0
6
CONTINUOUS
10
0.029720
20
-0.095000
30
0.0
11
0.035267
21
-0.095000
31
0.0
0
LINE
8
0
6
CONTINUOUS
10
0.061142
20
-0.095000
30
0.0
11
0.063440
21
-0.095000
31
0.0
0
LINE
8
0
6
CONTINUOUS
10
0.035267
20
-0.095000
30
0.0
11
0.041221
21
-0.095000
31
0.0
0
LINE
8
0
6
CONTINUOUS
10
0.018103
20
-0.094024
30
0.0
11
0.018218
21
-0.095000
31
0.0
0
LINE
8
0
6
CONTINUOUS
10
0.018218
20
-0.095000
30
0.0
11
0.019002
21
-0.095000
31
0.0
0
LINE
8
0
6
CONTINUOUS
10
0.057486
20
-0.095000
30
0.0
11
0.061142
21
-0.095000
31
0.0
0
LINE
8
0
6
CONTINUOUS
10
0.019002
20
-0.095000
30
0.0
11
0.021300
21
-0.095000
31
0.0
0
LINE
8
0
6
CONTINUOUS
10
0.024956
20
-0.095000
30
0.0
11
0.029720
21
-0.095000
31
0.0
0
LINE
8
0
6
CONTINUOUS
10
0.014785
20
-0.011964
30
0.0
11
0.014364
21
0.009790
31
0.0
0
LINE
8
0
6
CONTINUOUS
10
0.014175
20
-0.011730
30
0.0
11
0.014364
21
0.009790
31
0.0
0
LINE
8
0
6
CONTINUOUS
10
0.013743
20
0.009507
30
0.0
11
0.008489
21
0.028049
31
0.0
0
LINE
8
0
6
CONTINUOUS
10
0.001511
20
0.032572
30
0.0
11
0.001641
21
0.031825
31
0.0
0
LINE
8
0
6
CONTINUOUS
10
0.009690
20
-0.022870
30
0.0
11
0.009803
21
-0.023636
31
0.0
0
LINE
8
0
6
CONTINUOUS
10
0.014842
20
0.041247
30
0.0
11
0.010240
21
0.040645
31
0.0
0
LINE
8
0
6
CONTINUOUS
10
0.029312
20
0.043160
30
0.0
11
0.024714
21
0.042549
31
0.0
0
LINE
8
0
6
CONTINUOUS
10
0.006287
20
0.040131
30
0.0
11
0.003253
21
0.039738
31
0.0
0
LINE
8
0
6
CONTINUOUS
10
0.036288
20
0.044095
30
0.0
11
0.033260
21
0.043688
31
0.0
0
LINE
8
0
6
CONTINUOUS
10
0.038191
20
0.044351
30
0.0
11
0.036288
21
0.044095
31
0.0
0
LINE
8
0
6
CONTINUOUS
10
0.003253
20
0.039738
30
0.0
11
0.001346
21
0.039492
31
0.0
0
LINE
8
0
6
CONTINUOUS
10
0.019779
20
0.041896
30
0.0
11
0.014842
21
0.041247
31
0.0
0
LINE
8
0
6
CONTINUOUS
10
0.024714
20
0.042549
30
0.0
11
0.019779
21
0.041896
31
0.0
0
LINE
8
0
6
CONTINUOUS
10
0.010240
20
0.040645
30
0.0
11
0.006287
21
0.040131
31
0.0
0
LINE
8
0
6
CONTINUOUS
10
0.038840
20
0.044439
30
0.0
11
0.038191
21
0.044351
31
0.0
0
LINE
8
0
6
CONTINUOUS
10
0.039028
20
0.043457
30
0.0
11
0.038840
21
0.044439
31
0.0
0
LINE
8
0
6
CONTINUOUS
10
0.033260
20
0.043688
30
0.0
11
0.029312
21
0.043160
31
0.0
0
LINE
8
0
6
CONTINUOUS
10
0.001346
20
0.039492
30
0.0
11
0.000695
21
0.039408
31
0.0
0
LINE
8
0
6
CONTINUOUS
10
0.000695
20
0.039408
30
0.0
11
0.000856
21
0.038450
31
0.0
0
LINE
8
0
6
CONTINUOUS
10
-0.043177
20
-0.029201
30
0.0
11
-0.047336
21
-0.025288
31
0.0
0
LINE
8
0
6
CONTINUOUS
10
-0.052315
20
-0.020602
30
0.0
11
-0.047336
21
-0.025288
31
0.0
0
LINE
8
0
6
CONTINUOUS
10
-0.043177
20
-0.029201
30
0.0
11
-0.041022
21
-0.031228
31
0.0
0
LINE
8
0
6
CONTINUOUS
10
-0.042153
20
-0.028817
30
0.0
11
-0.043177
21
-0.029201
31
0.0
0
LINE
8
0
6
CONTINUOUS
10
-0.041022
20
-0.031228
30
0.0
11
-0.040287
21
-0.031920
31
0.0
0
LINE
8
0
6
CONTINUOUS
10
-0.040287
20
-0.031920
30
0.0
11
-0.039277
21
-0.031508
31
0.0
0
LINE
8
0
6
CONTINUOUS
10
-0.052315
20
-0.020602
30
0.0
11
-0.051333
21
-0.020179
31
0.0
0
LINE
8
0
6
CONTINUOUS
10
-0.057217
20
-0.015989
30
0.0
11
-0.052315
21
-0.020602
31
0.0
0
LINE
8
0
6
CONTINUOUS
10
-0.064223
20
-0.009397
30
0.0
11
-0.063357
21
-0.010212
31
0.0
0
LINE
8
0
6
CONTINUOUS
10
-0.063258
20
-0.008966
30
0.0
11
-0.064223
21
-0.009397
31
0.0
0
LINE
8
0
6
CONTINUOUS
10
-0.060910
20
-0.012515
30
0.0
11
-0.063357
21
-0.010212
31
0.0
0
LINE
8
0
6
CONTINUOUS
10
-0.057217
20
-0.015989
30
0.0
11
-0.060910
21
-0.012515
31
0.0
0
LINE
8
0
6
CONTINUOUS
10
-0.039277
20
-0.031508
30
0.0
11
0.001199
21
-0.014629
31
0.0
0
LINE
8
0
6
CONTINUOUS
10
0.048417
20
-0.008120
30
0.0
11
0.044364
21
0.014146
31
0.0
0
LINE
8
0
6
CONTINUOUS
10
0.000856
20
0.038450
30
0.0
11
0.001511
21
0.032572
31
0.0
0
LINE
8
0
6
CONTINUOUS
10
0.009803
20
-0.023636
30
0.0
11
0.018103
21
-0.094024
31
0.0
0
LINE
8
0
6
CONTINUOUS
10
0.013743
20
0.009507
30
0.0
11
0.012374
21
-0.006456
31
0.0
0
LINE
8
0
6
CONTINUOUS
10
0.011824
20
0.008603
30
0.0
11
0.013743
21
0.009507
31
0.0
0
LINE
8
0
6
CONTINUOUS
10
0.041696
20
0.028801
30
0.0
11
0.039028
21
0.043457
31
0.0
0
LINE
8
0
6
CONTINUOUS
10
0.007966
20
0.022061
30
0.0
11
0.008054
21
0.027535
31
0.0
0
LINE
8
0
6
CONTINUOUS
10
-0.000365
20
0.021428
30
0.0
11
-0.003461
21
0.018242
31
0.0
0
LINE
8
0
6
CONTINUOUS
10
-0.000365
20
0.021428
30
0.0
11
0.000391
21
0.020917
31
0.0
0
LINE
8
0
6
CONTINUOUS
10
0.001497
20
0.026406
30
0.0
11
-0.000365
21
0.021428
31
0.0
0
LINE
8
0
6
CONTINUOUS
10
0.001641
20
0.031825
30
0.0
11
0.001497
21
0.026406
31
0.0
0
LINE
8
0
6
CONTINUOUS
10
0.006157
20
0.017020
30
0.0
11
0.003098
21
0.013780
31
0.0
0
LINE
8
0
6
CONTINUOUS
10
0.007934
20
-0.017602
30
0.0
11
0.009690
21
-0.022870
31
0.0
0
LINE
8
0
6
CONTINUOUS
10
0.007934
20
-0.017602
30
0.0
11
0.008535
21
-0.016815
31
0.0
0
LINE
8
0
6
CONTINUOUS
10
0.004831
20
-0.014593
30
0.0
11
0.007934
21
-0.017602
31
0.0
0
LINE
8
0
6
CONTINUOUS
10
0.004831
20
-0.014593
30
0.0
11
0.005427
21
-0.013789
31
0.0
0
LINE
8
0
6
CONTINUOUS
10
0.001199
20
-0.014629
30
0.0
11
0.004831
21
-0.014593
31
0.0
0
LINE
8
0
6
CONTINUOUS
10
0.008535
20
-0.016815
30
0.0
11
0.010289
21
-0.014500
31
0.0
0
LINE
8
0
6
CONTINUOUS
10
0.005427
20
-0.013789
30
0.0
11
0.007165
21
-0.011432
31
0.0
0
LINE
8
0
6
CONTINUOUS
10
0.009526
20
0.007526
30
0.0
11
0.007222
21
0.006451
31
0.0
0
LINE
8
0
6
CONTINUOUS
10
0.011824
20
0.008603
30
0.0
11
0.009526
21
0.007526
31
0.0
0
LINE
8
0
6
CONTINUOUS
10
0.007165
20
-0.011432
30
0.0
11
0.010289
21
-0.014500
31
0.0
0
LINE
8
0
6
CONTINUOUS
10
0.003524
20
-0.011400
30
0.0
11
0.007165
21
-0.011432
31
0.0
0
LINE
8
0
6
CONTINUOUS
10
-0.003461
20
0.018242
30
0.0
11
-0.063258
21
-0.008966
31
0.0
0
LINE
8
0
6
CONTINUOUS
10
-0.051333
20
-0.020179
30
0.0
11
0.007222
21
0.006451
31
0.0
0
LINE
8
0
6
CONTINUOUS
10
0.044364
20
0.014146
30
0.0
11
0.041696
21
0.028801
31
0.0
0
LINE
8
0
6
CONTINUOUS
10
0.064056
20
-0.094032
30
0.0
11
0.048417
21
-0.008120
31
0.0
0
LINE
8
0
6
CONTINUOUS
10
0.021300
20
-0.095000
30
0.0
11
0.024956
21
-0.095000
31
0.0
0
LINE
8
0
6
CONTINUOUS
10
-0.040009
20
-0.030824
30
0.0
11
0.001793
21
-0.013807
31
0.0
0
LINE
8
0
6
CONTINUOUS
10
0.003524
20
-0.011400
30
0.0
11
-0.042153
21
-0.028817
31
0.0
0
LINE
8
0
6
CONTINUOUS
10
-0.011741
20
0.078610
30
0.0
11
-0.006874
21
0.049097
31
0.0
0
LINE
8
0
6
CONTINUOUS
10
0.006411
20
0.090945
30
0.0
11
0.001903
21
0.090182
31
0.0
0
LINE
8
0
6
CONTINUOUS
10
0.020651
20
0.093378
30
0.0
11
0.016127
21
0.092601
31
0.0
0
LINE
8
0
6
CONTINUOUS
10
-0.001984
20
0.089527
30
0.0
11
-0.004967
21
0.089027
31
0.0
0
LINE
8
0
6
CONTINUOUS
10
0.016127
20
0.092601
30
0.0
11
0.011290
21
0.091774
31
0.0
0
LINE
8
0
6
CONTINUOUS
10
0.027513
20
0.094564
30
0.0
11
0.029384
21
0.094889
31
0.0
0
LINE
8
0
6
CONTINUOUS
10
0.011290
20
0.091774
30
0.0
11
0.006411
21
0.090945
31
0.0
0
LINE
8
0
6
CONTINUOUS
10
0.030020
20
0.095000
30
0.0
11
0.029384
21
0.094889
31
0.0
0
LINE
8
0
6
CONTINUOUS
10
0.030086
20
0.094619
30
0.0
11
0.030020
21
0.095000
31
0.0
0
LINE
8
0
6
CONTINUOUS
10
0.024535
20
0.094048
30
0.0
11
0.020651
21
0.093378
31
0.0
0
LINE
8
0
6
CONTINUOUS
10
0.001903
20
0.090182
30
0.0
11
-0.001984
21
0.089527
31
0.0
0
LINE
8
0
6
CONTINUOUS
10
-0.004967
20
0.089027
30
0.0
11
-0.006842
21
0.088713
31
0.0
0
LINE
8
0
6
CONTINUOUS
10
0.027513
20
0.094564
30
0.0
11
0.024535
21
0.094048
31
0.0
0
LINE
8
0
6
CONTINUOUS
10
0.038531
20
0.046202
30
0.0
11
0.030086
21
0.094619
31
0.0
0
LINE
8
0
6
CONTINUOUS
10
-0.007482
20
0.088606
30
0.0
11
-0.007405
21
0.088142
31
0.0
0
LINE
8
0
6
CONTINUOUS
10
-0.006842
20
0.088713
30
0.0
11
-0.007482
21
0.088606
31
0.0
0
LINE
8
0
6
CONTINUOUS
10
-0.011098
20
0.079840
30
0.0
11
-0.011819
21
0.079088
31
0.0
0
LINE
8
0
6
CONTINUOUS
10
-0.011819
20
0.079088
30
0.0
11
-0.011741
21
0.078610
31
0.0
0
LINE
8
0
6
CONTINUOUS
10
-0.011540
20
0.079175
30
0.0
11
-0.011819
21
0.079088
31
0.0
0
LINE
8
0
6
CONTINUOUS
10
-0.006415
20
0.049097
30
0.0
11
-0.011307
21
0.078742
31
0.0
0
LINE
8
0
6
CONTINUOUS
10
-0.011383
20
0.079223
30
0.0
11
-0.010641
21
0.079606
31
0.0
0
LINE
8
0
6
CONTINUOUS
10
-0.010641
20
0.079606
30
0.0
11
-0.006369
21
0.082337
31
0.0
0
LINE
8
0
6
CONTINUOUS
10
-0.006369
20
0.082337
30
0.0
11
-0.008493
21
0.081878
31
0.0
0
LINE
8
0
6
CONTINUOUS
10
-0.006757
20
0.084959
30
0.0
11
-0.006806
21
0.084954
31
0.0
0
LINE
8
0
6
CONTINUOUS
10
-0.000108
20
0.048064
30
0.0
11
-0.005674
21
0.081530
31
0.0
0
LINE
8
0
6
CONTINUOUS
10
-0.011307
20
0.078742
30
0.0
11
-0.011383
21
0.079223
31
0.0
0
LINE
8
0
6
CONTINUOUS
10
-0.011540
20
0.079175
30
0.0
11
-0.011383
21
0.079223
31
0.0
0
LINE
8
0
6
CONTINUOUS
10
-0.011383
20
0.079223
30
0.0
11
-0.010836
21
0.079898
31
0.0
0
LINE
8
0
6
CONTINUOUS
10
-0.005674
20
0.081530
30
0.0
11
-0.005763
21
0.082072
31
0.0
0
LINE
8
0
6
CONTINUOUS
10
-0.005763
20
0.082072
30
0.0
11
-0.005853
21
0.082614
31
0.0
0
LINE
8
0
6
CONTINUOUS
10
-0.006897
20
0.084945
30
0.0
11
-0.007619
21
0.083571
31
0.0
0
LINE
8
0
6
CONTINUOUS
10
-0.006806
20
0.084954
30
0.0
11
-0.006897
21
0.084945
31
0.0
0
LINE
8
0
6
CONTINUOUS
10
-0.005853
20
0.082614
30
0.0
11
-0.005872
21
0.082728
31
0.0
0
LINE
8
0
6
CONTINUOUS
10
-0.006225
20
0.084862
30
0.0
11
-0.006250
21
0.085009
31
0.0
0
LINE
8
0
6
CONTINUOUS
10
-0.006250
20
0.085009
30
0.0
11
-0.006332
21
0.085001
31
0.0
0
LINE
8
0
6
CONTINUOUS
10
-0.006332
20
0.085001
30
0.0
11
-0.006694
21
0.084965
31
0.0
0
LINE
8
0
6
CONTINUOUS
10
-0.006694
20
0.084965
30
0.0
11
-0.006757
21
0.084959
31
0.0
0
LINE
8
0
6
CONTINUOUS
10
-0.009089
20
0.081675
30
0.0
11
-0.011098
21
0.079840
31
0.0
0
LINE
8
0
6
CONTINUOUS
10
-0.006357
20
0.083651
30
0.0
11
-0.005872
21
0.082728
31
0.0
0
LINE
8
0
6
CONTINUOUS
10
-0.005872
20
0.082728
30
0.0
11
-0.006049
21
0.083795
31
0.0
0
LINE
8
0
6
CONTINUOUS
10
-0.006347
20
0.084725
30
0.0
11
-0.006049
21
0.083795
31
0.0
0
LINE
8
0
6
CONTINUOUS
10
-0.006049
20
0.083795
30
0.0
11
-0.006225
21
0.084862
31
0.0
0
LINE
8
0
6
CONTINUOUS
10
-0.008493
20
0.081878
30
0.0
11
-0.006367
21
0.082577
31
0.0
0
LINE
8
0
6
CONTINUOUS
10
-0.007596
20
0.082746
30
0.0
11
-0.006367
21
0.082577
31
0.0
0
LINE
8
0
6
CONTINUOUS
10
-0.006367
20
0.082577
30
0.0
11
-0.006357
21
0.083651
31
0.0
0
LINE
8
0
6
CONTINUOUS
10
-0.008162
20
0.082524
30
0.0
11
-0.009089
21
0.081675
31
0.0
0
LINE
8
0
6
CONTINUOUS
10
-0.007619
20
0.083571
30
0.0
11
-0.008162
21
0.082524
31
0.0
0
LINE
8
0
6
CONTINUOUS
10
0.010011
20
0.041996
30
0.0
11
0.014594
21
0.042600
31
0.0
0
LINE
8
0
6
CONTINUOUS
10
0.029072
20
0.044530
30
0.0
11
0.024472
21
0.043913
31
0.0
0
LINE
8
0
6
CONTINUOUS
10
0.019554
20
0.043258
30
0.0
11
0.024472
21
0.043913
31
0.0
0
LINE
8
0
6
CONTINUOUS
10
0.006060
20
0.041478
30
0.0
11
0.003028
21
0.041083
31
0.0
0
LINE
8
0
6
CONTINUOUS
10
0.037951
20
0.045730
30
0.0
11
0.036049
21
0.045472
31
0.0
0
LINE
8
0
6
CONTINUOUS
10
0.014594
20
0.042600
30
0.0
11
0.019554
21
0.043258
31
0.0
0
LINE
8
0
6
CONTINUOUS
10
0.038598
20
0.045818
30
0.0
11
0.038531
21
0.046202
31
0.0
0
LINE
8
0
6
CONTINUOUS
10
0.037951
20
0.045730
30
0.0
11
0.038598
21
0.045818
31
0.0
0
LINE
8
0
6
CONTINUOUS
10
0.029072
20
0.044530
30
0.0
11
0.033020
21
0.045062
31
0.0
0
LINE
8
0
6
CONTINUOUS
10
0.006060
20
0.041478
30
0.0
11
0.010011
21
0.041996
31
0.0
0
LINE
8
0
6
CONTINUOUS
10
0.001121
20
0.040834
30
0.0
11
0.003028
21
0.041083
31
0.0
0
LINE
8
0
6
CONTINUOUS
10
0.033020
20
0.045062
30
0.0
11
0.036049
21
0.045472
31
0.0
0
LINE
8
0
6
CONTINUOUS
10
0.000471
20
0.040750
30
0.0
11
0.001121
21
0.040834
31
0.0
0
LINE
8
0
6
CONTINUOUS
10
0.000393
20
0.041218
30
0.0
11
0.000471
21
0.040750
31
0.0
0
LINE
8
0
6
CONTINUOUS
10
-0.006795
20
0.048617
30
0.0
11
-0.005859
21
0.048105
31
0.0
0
LINE
8
0
6
CONTINUOUS
10
-0.006795
20
0.048617
30
0.0
11
-0.006498
21
0.048614
31
0.0
0
LINE
8
0
6
CONTINUOUS
10
-0.006874
20
0.049097
30
0.0
11
-0.006795
21
0.048617
31
0.0
0
LINE
8
0
6
CONTINUOUS
10
-0.005497
20
0.048462
30
0.0
11
-0.006332
21
0.048613
31
0.0
0
LINE
8
0
6
CONTINUOUS
10
-0.005497
20
0.048462
30
0.0
11
-0.000511
21
0.047089
31
0.0
0
LINE
8
0
6
CONTINUOUS
10
-0.000511
20
0.047089
30
0.0
11
-0.002698
21
0.046909
31
0.0
0
LINE
8
0
6
CONTINUOUS
10
-0.000074
20
0.044452
30
0.0
11
-0.000026
21
0.044462
31
0.0
0
LINE
8
0
6
CONTINUOUS
10
-0.006332
20
0.048613
30
0.0
11
-0.006415
21
0.049097
31
0.0
0
LINE
8
0
6
CONTINUOUS
10
-0.005589
20
0.048125
30
0.0
11
-0.006332
21
0.048613
31
0.0
0
LINE
8
0
6
CONTINUOUS
10
-0.006332
20
0.048613
30
0.0
11
-0.006498
21
0.048614
31
0.0
0
LINE
8
0
6
CONTINUOUS
10
-0.000016
20
0.047519
30
0.0
11
-0.000108
21
0.048064
31
0.0
0
LINE
8
0
6
CONTINUOUS
10
0.000075
20
0.046973
30
0.0
11
-0.000016
21
0.047519
31
0.0
0
LINE
8
0
6
CONTINUOUS
10
-0.000165
20
0.044434
30
0.0
11
-0.000074
21
0.044452
31
0.0
0
LINE
8
0
6
CONTINUOUS
10
-0.001307
20
0.045541
30
0.0
11
-0.000165
21
0.044434
31
0.0
0
LINE
8
0
6
CONTINUOUS
10
0.000094
20
0.046858
30
0.0
11
0.000075
21
0.046973
31
0.0
0
LINE
8
0
6
CONTINUOUS
10
0.000396
20
0.044546
30
0.0
11
0.000478
21
0.044562
31
0.0
0
LINE
8
0
6
CONTINUOUS
10
0.000478
20
0.044562
30
0.0
11
0.000453
21
0.044711
31
0.0
0
LINE
8
0
6
CONTINUOUS
10
0.000037
20
0.044474
30
0.0
11
0.000396
21
0.044546
31
0.0
0
LINE
8
0
6
CONTINUOUS
10
-0.000026
20
0.044462
30
0.0
11
0.000037
21
0.044474
31
0.0
0
LINE
8
0
6
CONTINUOUS
10
-0.005859
20
0.048105
30
0.0
11
-0.003335
21
0.046930
31
0.0
0
LINE
8
0
6
CONTINUOUS
10
0.000273
20
0.045785
30
0.0
11
0.000094
21
0.046858
31
0.0
0
LINE
8
0
6
CONTINUOUS
10
0.000453
20
0.044711
30
0.0
11
0.000273
21
0.045785
31
0.0
0
LINE
8
0
6
CONTINUOUS
10
0.000291
20
0.044806
30
0.0
11
0.000273
21
0.045785
31
0.0
0
LINE
8
0
6
CONTINUOUS
10
-0.000069
20
0.045833
30
0.0
11
-0.000430
21
0.046859
31
0.0
0
LINE
8
0
6
CONTINUOUS
10
-0.001554
20
0.046338
30
0.0
11
-0.000430
21
0.046859
31
0.0
0
LINE
8
0
6
CONTINUOUS
10
-0.000430
20
0.046859
30
0.0
11
-0.002698
21
0.046909
31
0.0
0
LINE
8
0
6
CONTINUOUS
10
-0.003335
20
0.046930
30
0.0
11
-0.002170
21
0.046386
31
0.0
0
LINE
8
0
6
CONTINUOUS
10
-0.002170
20
0.046386
30
0.0
11
-0.001307
21
0.045541
31
0.0
0
LINE
8
0
6
CONTINUOUS
10
0.003650
20
0.041164
30
0.0
11
0.003876
21
0.039821
31
0.0
0
LINE
8
0
6
CONTINUOUS
10
0.030777
20
0.044759
30
0.0
11
0.027485
21
0.044317
31
0.0
0
LINE
8
0
6
CONTINUOUS
10
-0.045424
20
-0.033411
30
0.0
11
-0.044866
21
-0.032774
31
0.0
0
LINE
8
0
6
CONTINUOUS
10
-0.045852
20
-0.033019
30
0.0
11
-0.045424
21
-0.033411
31
0.0
0
LINE
8
0
6
CONTINUOUS
10
-0.047093
20
-0.031880
30
0.0
11
-0.045852
21
-0.033019
31
0.0
0
LINE
8
0
6
CONTINUOUS
10
-0.049025
20
-0.030106
30
0.0
11
-0.047093
21
-0.031880
31
0.0
0
LINE
8
0
6
CONTINUOUS
10
-0.051460
20
-0.027871
30
0.0
11
-0.049025
21
-0.030106
31
0.0
0
LINE
8
0
6
CONTINUOUS
10
-0.054159
20
-0.025393
30
0.0
11
-0.051460
21
-0.027871
31
0.0
0
LINE
8
0
6
CONTINUOUS
10
-0.056858
20
-0.022916
30
0.0
11
-0.054159
21
-0.025393
31
0.0
0
LINE
8
0
6
CONTINUOUS
10
-0.059293
20
-0.020681
30
0.0
11
-0.056858
21
-0.022916
31
0.0
0
LINE
8
0
6
CONTINUOUS
10
-0.061225
20
-0.018907
30
0.0
11
-0.059293
21
-0.020681
31
0.0
0
LINE
8
0
6
CONTINUOUS
10
-0.062466
20
-0.017768
30
0.0
11
-0.061225
21
-0.018907
31
0.0
0
LINE
8
0
6
CONTINUOUS
10
-0.062335
20
-0.016738
30
0.0
11
-0.062893
21
-0.017375
31
0.0
0
LINE
8
0
6
CONTINUOUS
10
-0.062893
20
-0.017375
30
0.0
11
-0.062466
21
-0.017768
31
0.0
0
LINE
8
0
6
CONTINUOUS
10
-0.044866
20
-0.032774
30
0.0
11
-0.042323
21
-0.030004
31
0.0
0
LINE
8
0
6
CONTINUOUS
10
-0.059594
20
-0.013753
30
0.0
11
-0.062335
21
-0.016738
31
0.0
0
ENDSEC
0
EOF
