999
Erzeugt mit innoplus bad 
0
SECTION
2
HEADER
9
$ACADVER
1
AC1009
9
$DWGCODEPAGE
3
ISO8859-1
0
ENDSEC
0
SECTION
2
TABLES
0
TABLE
2
LAYER
70
1
0
LAYER
2
0
70
0
62
7
6
CONTINUOUS
0
ENDTAB
0
ENDSEC
0
SECTION
2
ENTITIES
0
LINE
8
0
6
CONTINUOUS
10
0.017440
20
-0.025427
30
0.0
11
0.017440
21
-0.025739
31
0.0
0
LINE
8
0
6
CONTINUOUS
10
0.017440
20
-0.025739
30
0.0
11
0.017778
21
-0.025739
31
0.0
0
LINE
8
0
6
CONTINUOUS
10
0.017440
20
-0.024538
30
0.0
11
0.017440
21
-0.025427
31
0.0
0
LINE
8
0
6
CONTINUOUS
10
0.017440
20
-0.023207
30
0.0
11
0.017440
21
-0.024538
31
0.0
0
LINE
8
0
6
CONTINUOUS
10
0.017440
20
-0.021637
30
0.0
11
0.017440
21
-0.023207
31
0.0
0
LINE
8
0
6
CONTINUOUS
10
0.017440
20
-0.020068
30
0.0
11
0.017440
21
-0.021637
31
0.0
0
LINE
8
0
6
CONTINUOUS
10
0.017440
20
-0.021637
30
0.0
11
0.017778
21
-0.021637
31
0.0
0
LINE
8
0
6
CONTINUOUS
10
0.017440
20
-0.018737
30
0.0
11
0.017440
21
-0.020068
31
0.0
0
LINE
8
0
6
CONTINUOUS
10
0.017440
20
-0.017535
30
0.0
11
0.017440
21
-0.017848
31
0.0
0
LINE
8
0
6
CONTINUOUS
10
0.017778
20
-0.017535
30
0.0
11
0.017440
21
-0.017535
31
0.0
0
LINE
8
0
6
CONTINUOUS
10
0.017440
20
-0.017848
30
0.0
11
0.017440
21
-0.018737
31
0.0
0
LINE
8
0
6
CONTINUOUS
10
0.018000
20
-0.017535
30
0.0
11
0.017778
21
-0.017535
31
0.0
0
LINE
8
0
6
CONTINUOUS
10
0.018000
20
-0.021637
30
0.0
11
0.017778
21
-0.021637
31
0.0
0
LINE
8
0
6
CONTINUOUS
10
0.017778
20
-0.025739
30
0.0
11
0.018000
21
-0.025739
31
0.0
0
LINE
8
0
6
CONTINUOUS
10
0.009500
20
-0.023428
30
0.0
11
0.009773
21
-0.023428
31
0.0
0
LINE
8
0
6
CONTINUOUS
10
0.009773
20
0.026624
30
0.0
11
0.009500
21
0.026624
31
0.0
0
LINE
8
0
6
CONTINUOUS
10
0.009773
20
-0.023428
30
0.0
11
0.017440
21
-0.023428
31
0.0
0
LINE
8
0
6
CONTINUOUS
10
0.018000
20
0.026624
30
0.0
11
0.009773
21
0.026624
31
0.0
0
LINE
8
0
6
CONTINUOUS
10
0.005790
20
-0.018910
30
0.0
11
0.009679
21
-0.019869
31
0.0
0
LINE
8
0
6
CONTINUOUS
10
0.008663
20
0.022553
30
0.0
11
0.005790
21
0.021844
31
0.0
0
LINE
8
0
6
CONTINUOUS
10
0.008662
20
0.013735
30
0.0
11
0.008683
21
0.007869
31
0.0
0
LINE
8
0
6
CONTINUOUS
10
0.009500
20
0.008047
30
0.0
11
0.009500
21
0.014015
31
0.0
0
LINE
8
0
6
CONTINUOUS
10
0.008662
20
0.022790
30
0.0
11
0.008663
21
0.022553
31
0.0
0
LINE
8
0
6
CONTINUOUS
10
0.008683
20
-0.004673
30
0.0
11
0.008662
21
-0.010539
31
0.0
0
LINE
8
0
6
CONTINUOUS
10
0.009500
20
-0.010819
30
0.0
11
0.009500
21
-0.004851
31
0.0
0
LINE
8
0
6
CONTINUOUS
10
0.008676
20
-0.015659
30
0.0
11
0.008662
21
-0.019594
31
0.0
0
LINE
8
0
6
CONTINUOUS
10
0.009500
20
-0.020059
30
0.0
11
0.009500
21
-0.016017
31
0.0
0
LINE
8
0
6
CONTINUOUS
10
0.008680
20
0.001598
30
0.0
11
0.008683
21
-0.004673
31
0.0
0
LINE
8
0
6
CONTINUOUS
10
0.009500
20
-0.004851
30
0.0
11
0.009500
21
0.001598
31
0.0
0
LINE
8
0
6
CONTINUOUS
10
0.008680
20
-0.022850
30
0.0
11
0.009500
21
-0.023428
31
0.0
0
LINE
8
0
6
CONTINUOUS
10
0.008683
20
-0.021988
30
0.0
11
0.008680
21
-0.022850
31
0.0
0
LINE
8
0
6
CONTINUOUS
10
0.009500
20
-0.023428
30
0.0
11
0.009500
21
-0.022562
31
0.0
0
LINE
8
0
6
CONTINUOUS
10
0.008683
20
0.025184
30
0.0
11
0.008662
21
0.022790
31
0.0
0
LINE
8
0
6
CONTINUOUS
10
0.009500
20
0.023255
30
0.0
11
0.009500
21
0.025758
31
0.0
0
LINE
8
0
6
CONTINUOUS
10
0.008662
20
0.022790
30
0.0
11
0.008676
21
0.018855
31
0.0
0
LINE
8
0
6
CONTINUOUS
10
0.009500
20
0.019213
30
0.0
11
0.009500
21
0.023255
31
0.0
0
LINE
8
0
6
CONTINUOUS
10
0.008662
20
-0.010539
30
0.0
11
0.008676
21
-0.015659
31
0.0
0
LINE
8
0
6
CONTINUOUS
10
0.009500
20
-0.016017
30
0.0
11
0.009500
21
-0.010819
31
0.0
0
LINE
8
0
6
CONTINUOUS
10
0.008683
20
0.007869
30
0.0
11
0.008680
21
0.001598
31
0.0
0
LINE
8
0
6
CONTINUOUS
10
0.009500
20
0.001598
30
0.0
11
0.009500
21
0.008047
31
0.0
0
LINE
8
0
6
CONTINUOUS
10
0.008680
20
0.026046
30
0.0
11
0.008683
21
0.025184
31
0.0
0
LINE
8
0
6
CONTINUOUS
10
0.009500
20
0.026624
30
0.0
11
0.008680
21
0.026046
31
0.0
0
LINE
8
0
6
CONTINUOUS
10
0.009500
20
0.025758
30
0.0
11
0.009500
21
0.026624
31
0.0
0
LINE
8
0
6
CONTINUOUS
10
0.008662
20
-0.019594
30
0.0
11
0.008683
21
-0.021988
31
0.0
0
LINE
8
0
6
CONTINUOUS
10
0.009500
20
-0.022562
30
0.0
11
0.009500
21
-0.020059
31
0.0
0
LINE
8
0
6
CONTINUOUS
10
0.008676
20
0.018855
30
0.0
11
0.008662
21
0.013735
31
0.0
0
LINE
8
0
6
CONTINUOUS
10
0.009500
20
0.014015
30
0.0
11
0.009500
21
0.019213
31
0.0
0
LINE
8
0
6
CONTINUOUS
10
0.006004
20
0.001539
30
0.0
11
0.006004
21
0.007232
31
0.0
0
LINE
8
0
6
CONTINUOUS
10
0.006004
20
0.017134
30
0.0
11
0.006004
21
0.020643
31
0.0
0
LINE
8
0
6
CONTINUOUS
10
0.006004
20
0.012560
30
0.0
11
0.006004
21
0.017134
31
0.0
0
LINE
8
0
6
CONTINUOUS
10
0.006004
20
0.007232
30
0.0
11
0.006004
21
0.012560
31
0.0
0
LINE
8
0
6
CONTINUOUS
10
0.006004
20
0.020643
30
0.0
11
0.006004
21
0.022848
31
0.0
0
LINE
8
0
6
CONTINUOUS
10
0.006004
20
0.023598
30
0.0
11
0.005453
21
0.023598
31
0.0
0
LINE
8
0
6
CONTINUOUS
10
0.006004
20
0.022848
30
0.0
11
0.006004
21
0.023598
31
0.0
0
LINE
8
0
6
CONTINUOUS
10
0.006004
20
-0.004183
30
0.0
11
0.006004
21
0.001539
31
0.0
0
LINE
8
0
6
CONTINUOUS
10
0.006004
20
-0.009505
30
0.0
11
0.006004
21
-0.004183
31
0.0
0
LINE
8
0
6
CONTINUOUS
10
0.006004
20
-0.014076
30
0.0
11
0.006004
21
-0.009505
31
0.0
0
LINE
8
0
6
CONTINUOUS
10
0.006004
20
-0.017583
30
0.0
11
0.006004
21
-0.014076
31
0.0
0
LINE
8
0
6
CONTINUOUS
10
0.006004
20
-0.019788
30
0.0
11
0.006004
21
-0.017583
31
0.0
0
LINE
8
0
6
CONTINUOUS
10
0.006004
20
-0.020540
30
0.0
11
0.006004
21
-0.019788
31
0.0
0
LINE
8
0
6
CONTINUOUS
10
0.005453
20
-0.020540
30
0.0
11
0.006004
21
-0.020540
31
0.0
0
LINE
8
0
6
CONTINUOUS
10
-0.006930
20
-0.020540
30
0.0
11
0.005453
21
-0.020540
31
0.0
0
LINE
8
0
6
CONTINUOUS
10
-0.030000
20
-0.014170
30
0.0
11
-0.030000
21
-0.029870
31
0.0
0
LINE
8
0
6
CONTINUOUS
10
-0.030000
20
-0.068231
30
0.0
11
-0.030000
21
-0.072372
31
0.0
0
LINE
8
0
6
CONTINUOUS
10
-0.030000
20
-0.029870
30
0.0
11
-0.030000
21
-0.042302
31
0.0
0
LINE
8
0
6
CONTINUOUS
10
-0.030000
20
-0.042302
30
0.0
11
-0.030000
21
-0.068231
31
0.0
0
LINE
8
0
6
CONTINUOUS
10
-0.030000
20
0.001529
30
0.0
11
-0.030000
21
-0.014170
31
0.0
0
LINE
8
0
6
CONTINUOUS
10
-0.030000
20
-0.072372
30
0.0
11
-0.030000
21
-0.075338
31
0.0
0
LINE
8
0
6
CONTINUOUS
10
-0.029449
20
-0.072372
30
0.0
11
-0.030000
21
-0.072372
31
0.0
0
LINE
8
0
6
CONTINUOUS
10
-0.030000
20
-0.076413
30
0.0
11
-0.029449
21
-0.076413
31
0.0
0
LINE
8
0
6
CONTINUOUS
10
-0.030000
20
-0.075338
30
0.0
11
-0.030000
21
-0.076413
31
0.0
0
LINE
8
0
6
CONTINUOUS
10
-0.029449
20
-0.075338
30
0.0
11
-0.030000
21
-0.075338
31
0.0
0
LINE
8
0
6
CONTINUOUS
10
-0.030000
20
0.007241
30
0.0
11
-0.030000
21
0.001529
31
0.0
0
LINE
8
0
6
CONTINUOUS
10
-0.030000
20
0.012563
30
0.0
11
-0.030000
21
0.007241
31
0.0
0
LINE
8
0
6
CONTINUOUS
10
-0.030000
20
0.017134
30
0.0
11
-0.030000
21
0.012563
31
0.0
0
LINE
8
0
6
CONTINUOUS
10
-0.030000
20
0.020641
30
0.0
11
-0.030000
21
0.017134
31
0.0
0
LINE
8
0
6
CONTINUOUS
10
-0.030000
20
0.022846
30
0.0
11
-0.030000
21
0.020641
31
0.0
0
LINE
8
0
6
CONTINUOUS
10
-0.030000
20
0.023598
30
0.0
11
-0.030000
21
0.022846
31
0.0
0
LINE
8
0
6
CONTINUOUS
10
-0.029449
20
0.023598
30
0.0
11
-0.030000
21
0.023598
31
0.0
0
LINE
8
0
6
CONTINUOUS
10
-0.024856
20
0.023598
30
0.0
11
-0.029449
21
0.023598
31
0.0
0
LINE
8
0
6
CONTINUOUS
10
-0.029449
20
-0.076413
30
0.0
11
-0.028181
21
-0.076413
31
0.0
0
LINE
8
0
6
CONTINUOUS
10
-0.026884
20
-0.071863
30
0.0
11
-0.029449
21
-0.072372
31
0.0
0
LINE
8
0
6
CONTINUOUS
10
-0.017703
20
-0.025020
30
0.0
11
-0.014906
21
-0.022586
31
0.0
0
LINE
8
0
6
CONTINUOUS
10
-0.016772
20
0.023598
30
0.0
11
-0.019425
21
0.023598
31
0.0
0
LINE
8
0
6
CONTINUOUS
10
-0.026884
20
-0.071863
30
0.0
11
-0.027672
21
-0.074846
31
0.0
0
LINE
8
0
6
CONTINUOUS
10
-0.026712
20
-0.074039
30
0.0
11
-0.025714
21
-0.071188
31
0.0
0
LINE
8
0
6
CONTINUOUS
10
-0.023149
20
-0.026309
30
0.0
11
-0.022953
21
-0.012282
31
0.0
0
LINE
8
0
6
CONTINUOUS
10
-0.011465
20
0.023598
30
0.0
11
-0.014118
21
0.023598
31
0.0
0
LINE
8
0
6
CONTINUOUS
10
-0.014118
20
0.023598
30
0.0
11
-0.016772
21
0.023598
31
0.0
0
LINE
8
0
6
CONTINUOUS
10
-0.019425
20
0.023598
30
0.0
11
-0.021414
21
0.023598
31
0.0
0
LINE
8
0
6
CONTINUOUS
10
-0.021414
20
0.023598
30
0.0
11
-0.022690
21
0.023598
31
0.0
0
LINE
8
0
6
CONTINUOUS
10
-0.022690
20
0.023598
30
0.0
11
-0.024856
21
0.023598
31
0.0
0
LINE
8
0
6
CONTINUOUS
10
-0.026072
20
-0.064380
30
0.0
11
-0.026884
21
-0.071863
31
0.0
0
LINE
8
0
6
CONTINUOUS
10
-0.028181
20
-0.076413
30
0.0
11
-0.026907
21
-0.074947
31
0.0
0
LINE
8
0
6
CONTINUOUS
10
-0.026907
20
-0.074947
30
0.0
11
-0.025407
21
-0.071985
31
0.0
0
LINE
8
0
6
CONTINUOUS
10
-0.025407
20
-0.071985
30
0.0
11
-0.024117
21
-0.066902
31
0.0
0
LINE
8
0
6
CONTINUOUS
10
-0.025480
20
-0.044276
30
0.0
11
-0.023149
21
-0.026309
31
0.0
0
LINE
8
0
6
CONTINUOUS
10
-0.021306
20
-0.041252
30
0.0
11
-0.019425
21
-0.028336
31
0.0
0
LINE
8
0
6
CONTINUOUS
10
-0.021368
20
-0.029094
30
0.0
11
-0.019425
21
-0.013417
31
0.0
0
LINE
8
0
6
CONTINUOUS
10
-0.021321
20
-0.019637
30
0.0
11
-0.019425
21
-0.006220
31
0.0
0
LINE
8
0
6
CONTINUOUS
10
-0.019425
20
-0.028336
30
0.0
11
-0.017703
21
-0.025020
31
0.0
0
LINE
8
0
6
CONTINUOUS
10
-0.014906
20
-0.022586
30
0.0
11
-0.011465
21
-0.021137
31
0.0
0
LINE
8
0
6
CONTINUOUS
10
-0.017677
20
-0.024083
30
0.0
11
-0.017595
21
-0.021340
31
0.0
0
LINE
8
0
6
CONTINUOUS
10
-0.019425
20
-0.024339
30
0.0
11
-0.019425
21
-0.027319
31
0.0
0
LINE
8
0
6
CONTINUOUS
10
-0.017595
20
-0.021340
30
0.0
11
-0.017440
21
-0.017005
31
0.0
0
LINE
8
0
6
CONTINUOUS
10
-0.019425
20
-0.019597
30
0.0
11
-0.019425
21
-0.024339
31
0.0
0
LINE
8
0
6
CONTINUOUS
10
-0.017440
20
-0.017005
30
0.0
11
-0.017199
21
-0.011432
31
0.0
0
LINE
8
0
6
CONTINUOUS
10
-0.019425
20
-0.013417
30
0.0
11
-0.019425
21
-0.019597
31
0.0
0
LINE
8
0
6
CONTINUOUS
10
-0.019425
20
-0.006220
30
0.0
11
-0.019425
21
-0.013417
31
0.0
0
LINE
8
0
6
CONTINUOUS
10
-0.011465
20
-0.021137
30
0.0
11
-0.006930
21
-0.020540
31
0.0
0
LINE
8
0
6
CONTINUOUS
10
-0.021368
20
-0.029094
30
0.0
11
-0.021321
21
-0.019637
31
0.0
0
LINE
8
0
6
CONTINUOUS
10
-0.023332
20
-0.043117
30
0.0
11
-0.021321
21
-0.019637
31
0.0
0
LINE
8
0
6
CONTINUOUS
10
-0.022931
20
-0.057486
30
0.0
11
-0.021306
21
-0.041252
31
0.0
0
LINE
8
0
6
CONTINUOUS
10
-0.024117
20
-0.066978
30
0.0
11
-0.022931
21
-0.057486
31
0.0
0
LINE
8
0
6
CONTINUOUS
10
-0.025480
20
-0.044276
30
0.0
11
-0.026072
21
-0.064380
31
0.0
0
LINE
8
0
6
CONTINUOUS
10
-0.024563
20
-0.063114
30
0.0
11
-0.023332
21
-0.043117
31
0.0
0
LINE
8
0
6
CONTINUOUS
10
-0.027672
20
-0.074846
30
0.0
11
-0.028181
21
-0.076413
31
0.0
0
LINE
8
0
6
CONTINUOUS
10
-0.028181
20
-0.076413
30
0.0
11
-0.026875
21
-0.074817
31
0.0
0
LINE
8
0
6
CONTINUOUS
10
-0.006930
20
0.023598
30
0.0
11
-0.011465
21
0.023598
31
0.0
0
LINE
8
0
6
CONTINUOUS
10
0.005453
20
0.023598
30
0.0
11
-0.006930
21
0.023598
31
0.0
0
LINE
8
0
6
CONTINUOUS
10
0.018000
20
0.041624
30
0.0
11
0.018000
21
0.028309
31
0.0
0
LINE
8
0
6
CONTINUOUS
10
0.018000
20
0.062550
30
0.0
11
0.018000
21
0.052806
31
0.0
0
LINE
8
0
6
CONTINUOUS
10
0.018000
20
0.074718
30
0.0
11
0.018000
21
0.069981
31
0.0
0
LINE
8
0
6
CONTINUOUS
10
0.018000
20
0.076413
30
0.0
11
0.018000
21
0.074718
31
0.0
0
LINE
8
0
6
CONTINUOUS
10
0.019000
20
0.076413
30
0.0
11
0.018000
21
0.076413
31
0.0
0
LINE
8
0
6
CONTINUOUS
10
0.018000
20
0.069981
30
0.0
11
0.018000
21
0.062550
31
0.0
0
LINE
8
0
6
CONTINUOUS
10
0.018000
20
0.052806
30
0.0
11
0.018000
21
0.041624
31
0.0
0
LINE
8
0
6
CONTINUOUS
10
0.018000
20
0.028309
30
0.0
11
0.018000
21
0.014170
31
0.0
0
LINE
8
0
6
CONTINUOUS
10
0.018000
20
0.014170
30
0.0
11
0.018000
21
-0.000507
31
0.0
0
LINE
8
0
6
CONTINUOUS
10
0.018000
20
-0.000507
30
0.0
11
0.018000
21
-0.015091
31
0.0
0
LINE
8
0
6
CONTINUOUS
10
0.018000
20
-0.015091
30
0.0
11
0.018000
21
-0.029035
31
0.0
0
LINE
8
0
6
CONTINUOUS
10
0.018000
20
-0.029035
30
0.0
11
0.018000
21
-0.041802
31
0.0
0
LINE
8
0
6
CONTINUOUS
10
0.018000
20
-0.041802
30
0.0
11
0.018000
21
-0.052901
31
0.0
0
LINE
8
0
6
CONTINUOUS
10
0.018000
20
-0.052901
30
0.0
11
0.018000
21
-0.061906
31
0.0
0
LINE
8
0
6
CONTINUOUS
10
0.018000
20
-0.061906
30
0.0
11
0.018000
21
-0.068470
31
0.0
0
LINE
8
0
6
CONTINUOUS
10
0.018000
20
-0.068470
30
0.0
11
0.018000
21
-0.072342
31
0.0
0
LINE
8
0
6
CONTINUOUS
10
0.018000
20
-0.073372
30
0.0
11
0.019000
21
-0.073372
31
0.0
0
LINE
8
0
6
CONTINUOUS
10
0.018000
20
-0.072342
30
0.0
11
0.018000
21
-0.073372
31
0.0
0
LINE
8
0
6
CONTINUOUS
10
0.029000
20
0.076413
30
0.0
11
0.019000
21
0.076413
31
0.0
0
LINE
8
0
6
CONTINUOUS
10
0.019000
20
-0.073372
30
0.0
11
0.029000
21
-0.073372
31
0.0
0
LINE
8
0
6
CONTINUOUS
10
0.030000
20
0.028309
30
0.0
11
0.030000
21
0.041624
31
0.0
0
LINE
8
0
6
CONTINUOUS
10
0.030000
20
0.052806
30
0.0
11
0.030000
21
0.062550
31
0.0
0
LINE
8
0
6
CONTINUOUS
10
0.030000
20
0.069981
30
0.0
11
0.030000
21
0.074718
31
0.0
0
LINE
8
0
6
CONTINUOUS
10
0.030000
20
0.076413
30
0.0
11
0.029000
21
0.076413
31
0.0
0
LINE
8
0
6
CONTINUOUS
10
0.030000
20
0.074718
30
0.0
11
0.030000
21
0.076413
31
0.0
0
LINE
8
0
6
CONTINUOUS
10
0.030000
20
0.062550
30
0.0
11
0.030000
21
0.069981
31
0.0
0
LINE
8
0
6
CONTINUOUS
10
0.030000
20
0.041624
30
0.0
11
0.030000
21
0.052806
31
0.0
0
LINE
8
0
6
CONTINUOUS
10
0.030000
20
0.014170
30
0.0
11
0.030000
21
0.028309
31
0.0
0
LINE
8
0
6
CONTINUOUS
10
0.030000
20
-0.000507
30
0.0
11
0.030000
21
0.014170
31
0.0
0
LINE
8
0
6
CONTINUOUS
10
0.030000
20
-0.015091
30
0.0
11
0.030000
21
-0.000507
31
0.0
0
LINE
8
0
6
CONTINUOUS
10
0.030000
20
-0.029035
30
0.0
11
0.030000
21
-0.015091
31
0.0
0
LINE
8
0
6
CONTINUOUS
10
0.030000
20
-0.041802
30
0.0
11
0.030000
21
-0.029035
31
0.0
0
LINE
8
0
6
CONTINUOUS
10
0.030000
20
-0.052901
30
0.0
11
0.030000
21
-0.041802
31
0.0
0
LINE
8
0
6
CONTINUOUS
10
0.030000
20
-0.061906
30
0.0
11
0.030000
21
-0.052901
31
0.0
0
LINE
8
0
6
CONTINUOUS
10
0.030000
20
-0.068470
30
0.0
11
0.030000
21
-0.061906
31
0.0
0
LINE
8
0
6
CONTINUOUS
10
0.030000
20
-0.072342
30
0.0
11
0.030000
21
-0.068470
31
0.0
0
LINE
8
0
6
CONTINUOUS
10
0.030000
20
-0.073372
30
0.0
11
0.030000
21
-0.072342
31
0.0
0
LINE
8
0
6
CONTINUOUS
10
0.029000
20
-0.073372
30
0.0
11
0.030000
21
-0.073372
31
0.0
0
ENDSEC
0
EOF
