999
Erzeugt mit innoplus bad 
0
SECTION
2
HEADER
9
$ACADVER
1
AC1009
9
$DWGCODEPAGE
3
ISO8859-1
0
ENDSEC
0
SECTION
2
TABLES
0
TABLE
2
LAYER
70
1
0
LAYER
2
0
70
0
62
7
6
CONTINUOUS
0
ENDTAB
0
ENDSEC
0
SECTION
2
ENTITIES
0
LINE
8
0
6
CONTINUOUS
10
-0.021100
20
-0.017848
30
0.0
11
-0.022669
21
-0.017535
31
0.0
0
LINE
8
0
6
CONTINUOUS
10
-0.020444
20
-0.018285
30
0.0
11
-0.021100
21
-0.017848
31
0.0
0
LINE
8
0
6
CONTINUOUS
10
-0.021100
20
-0.025427
30
0.0
11
-0.019923
21
-0.024641
31
0.0
0
LINE
8
0
6
CONTINUOUS
10
-0.022669
20
-0.025739
30
0.0
11
-0.021100
21
-0.025427
31
0.0
0
LINE
8
0
6
CONTINUOUS
10
-0.024239
20
-0.025427
30
0.0
11
-0.022669
21
-0.025739
31
0.0
0
LINE
8
0
6
CONTINUOUS
10
-0.025570
20
-0.024538
30
0.0
11
-0.024239
21
-0.025427
31
0.0
0
LINE
8
0
6
CONTINUOUS
10
-0.026459
20
-0.023207
30
0.0
11
-0.025570
21
-0.024538
31
0.0
0
LINE
8
0
6
CONTINUOUS
10
-0.026771
20
-0.021637
30
0.0
11
-0.026459
21
-0.023207
31
0.0
0
LINE
8
0
6
CONTINUOUS
10
-0.026459
20
-0.020068
30
0.0
11
-0.026771
21
-0.021637
31
0.0
0
LINE
8
0
6
CONTINUOUS
10
-0.025570
20
-0.018737
30
0.0
11
-0.026459
21
-0.020068
31
0.0
0
LINE
8
0
6
CONTINUOUS
10
-0.024239
20
-0.017848
30
0.0
11
-0.025570
21
-0.018737
31
0.0
0
LINE
8
0
6
CONTINUOUS
10
-0.022669
20
-0.017535
30
0.0
11
-0.024239
21
-0.017848
31
0.0
0
LINE
8
0
6
CONTINUOUS
10
0.022671
20
-0.017535
30
0.0
11
0.021101
21
-0.017848
31
0.0
0
LINE
8
0
6
CONTINUOUS
10
0.021101
20
-0.017848
30
0.0
11
0.020446
21
-0.018285
31
0.0
0
LINE
8
0
6
CONTINUOUS
10
0.019925
20
-0.024641
30
0.0
11
0.021101
21
-0.025427
31
0.0
0
LINE
8
0
6
CONTINUOUS
10
0.021101
20
-0.025427
30
0.0
11
0.022671
21
-0.025739
31
0.0
0
LINE
8
0
6
CONTINUOUS
10
0.022671
20
-0.025739
30
0.0
11
0.024240
21
-0.025427
31
0.0
0
LINE
8
0
6
CONTINUOUS
10
0.024240
20
-0.025427
30
0.0
11
0.025571
21
-0.024538
31
0.0
0
LINE
8
0
6
CONTINUOUS
10
0.025571
20
-0.024538
30
0.0
11
0.026460
21
-0.023207
31
0.0
0
LINE
8
0
6
CONTINUOUS
10
0.026460
20
-0.023207
30
0.0
11
0.026773
21
-0.021637
31
0.0
0
LINE
8
0
6
CONTINUOUS
10
0.026773
20
-0.021637
30
0.0
11
0.026460
21
-0.020068
31
0.0
0
LINE
8
0
6
CONTINUOUS
10
0.026460
20
-0.020068
30
0.0
11
0.025571
21
-0.018737
31
0.0
0
LINE
8
0
6
CONTINUOUS
10
0.025571
20
-0.018737
30
0.0
11
0.024240
21
-0.017848
31
0.0
0
LINE
8
0
6
CONTINUOUS
10
0.024240
20
-0.017848
30
0.0
11
0.022671
21
-0.017535
31
0.0
0
LINE
8
0
6
CONTINUOUS
10
-0.012416
20
0.023255
30
0.0
11
-0.017614
21
0.019213
31
0.0
0
LINE
8
0
6
CONTINUOUS
10
0.024161
20
0.008047
30
0.0
11
0.021658
21
0.014015
31
0.0
0
LINE
8
0
6
CONTINUOUS
10
-0.024159
20
0.008047
30
0.0
11
-0.025026
21
0.001598
31
0.0
0
LINE
8
0
6
CONTINUOUS
10
-0.024447
20
0.001598
30
0.0
11
-0.023585
21
0.007869
31
0.0
0
LINE
8
0
6
CONTINUOUS
10
-0.012137
20
0.022790
30
0.0
11
-0.017256
21
0.018855
31
0.0
0
LINE
8
0
6
CONTINUOUS
10
0.023587
20
-0.004673
30
0.0
11
0.021192
21
-0.010539
31
0.0
0
LINE
8
0
6
CONTINUOUS
10
0.021658
20
-0.010819
30
0.0
11
0.024161
21
-0.004851
31
0.0
0
LINE
8
0
6
CONTINUOUS
10
-0.025026
20
0.001598
30
0.0
11
-0.024159
21
-0.004851
31
0.0
0
LINE
8
0
6
CONTINUOUS
10
-0.023585
20
-0.004673
30
0.0
11
-0.024447
21
0.001598
31
0.0
0
LINE
8
0
6
CONTINUOUS
10
-0.023585
20
0.007869
30
0.0
11
-0.021191
21
0.013735
31
0.0
0
LINE
8
0
6
CONTINUOUS
10
-0.021657
20
0.014015
30
0.0
11
-0.024159
21
0.008047
31
0.0
0
LINE
8
0
6
CONTINUOUS
10
-0.021191
20
0.013735
30
0.0
11
-0.017256
21
0.018855
31
0.0
0
LINE
8
0
6
CONTINUOUS
10
-0.017614
20
0.019213
30
0.0
11
-0.021657
21
0.014015
31
0.0
0
LINE
8
0
6
CONTINUOUS
10
0.024448
20
0.001598
30
0.0
11
0.023587
21
-0.004673
31
0.0
0
LINE
8
0
6
CONTINUOUS
10
0.024161
20
-0.004851
30
0.0
11
0.025027
21
0.001598
31
0.0
0
LINE
8
0
6
CONTINUOUS
10
0.006272
20
0.025184
30
0.0
11
0.012138
21
0.022790
31
0.0
0
LINE
8
0
6
CONTINUOUS
10
0.012418
20
0.023255
30
0.0
11
0.006450
21
0.025758
31
0.0
0
LINE
8
0
6
CONTINUOUS
10
0.023587
20
0.007869
30
0.0
11
0.021192
21
0.013735
31
0.0
0
LINE
8
0
6
CONTINUOUS
10
0.012138
20
0.022790
30
0.0
11
0.017257
21
0.018855
31
0.0
0
LINE
8
0
6
CONTINUOUS
10
0.017615
20
0.019213
30
0.0
11
0.012418
21
0.023255
31
0.0
0
LINE
8
0
6
CONTINUOUS
10
-0.021191
20
-0.010539
30
0.0
11
-0.023585
21
-0.004673
31
0.0
0
LINE
8
0
6
CONTINUOUS
10
-0.024159
20
-0.004851
30
0.0
11
-0.021657
21
-0.010819
31
0.0
0
LINE
8
0
6
CONTINUOUS
10
-0.021066
20
-0.010702
30
0.0
11
-0.021191
21
-0.010539
31
0.0
0
LINE
8
0
6
CONTINUOUS
10
-0.021657
20
-0.010819
30
0.0
11
-0.020985
21
-0.011682
31
0.0
0
LINE
8
0
6
CONTINUOUS
10
0.021192
20
-0.010539
30
0.0
11
0.021067
21
-0.010702
31
0.0
0
LINE
8
0
6
CONTINUOUS
10
0.020987
20
-0.011682
30
0.0
11
0.021658
21
-0.010819
31
0.0
0
LINE
8
0
6
CONTINUOUS
10
0.023587
20
0.007869
30
0.0
11
0.024448
21
0.001598
31
0.0
0
LINE
8
0
6
CONTINUOUS
10
0.025027
20
0.001598
30
0.0
11
0.024161
21
0.008047
31
0.0
0
LINE
8
0
6
CONTINUOUS
10
-0.006271
20
0.025184
30
0.0
11
0.000001
21
0.026046
31
0.0
0
LINE
8
0
6
CONTINUOUS
10
0.000001
20
0.026624
30
0.0
11
-0.006448
21
0.025758
31
0.0
0
LINE
8
0
6
CONTINUOUS
10
-0.012137
20
0.022790
30
0.0
11
-0.006271
21
0.025184
31
0.0
0
LINE
8
0
6
CONTINUOUS
10
-0.006448
20
0.025758
30
0.0
11
-0.012416
21
0.023255
31
0.0
0
LINE
8
0
6
CONTINUOUS
10
0.000001
20
0.026046
30
0.0
11
0.006272
21
0.025184
31
0.0
0
LINE
8
0
6
CONTINUOUS
10
0.006450
20
0.025758
30
0.0
11
0.000001
21
0.026624
31
0.0
0
LINE
8
0
6
CONTINUOUS
10
0.017257
20
0.018855
30
0.0
11
0.021192
21
0.013735
31
0.0
0
LINE
8
0
6
CONTINUOUS
10
0.021658
20
0.014015
30
0.0
11
0.017615
21
0.019213
31
0.0
0
LINE
8
0
6
CONTINUOUS
10
0.020783
20
-0.014170
30
0.0
11
0.019496
21
-0.029870
31
0.0
0
LINE
8
0
6
CONTINUOUS
10
0.014934
20
-0.072372
30
0.0
11
0.016352
21
-0.068231
31
0.0
0
LINE
8
0
6
CONTINUOUS
10
0.019496
20
-0.029870
30
0.0
11
0.018477
21
-0.042302
31
0.0
0
LINE
8
0
6
CONTINUOUS
10
0.000001
20
-0.076413
30
0.0
11
0.003736
21
-0.076413
31
0.0
0
LINE
8
0
6
CONTINUOUS
10
0.018477
20
-0.042302
30
0.0
11
0.016352
21
-0.068231
31
0.0
0
LINE
8
0
6
CONTINUOUS
10
0.020783
20
-0.014170
30
0.0
11
0.022070
21
0.001529
31
0.0
0
LINE
8
0
6
CONTINUOUS
10
0.003736
20
-0.076413
30
0.0
11
0.007471
21
-0.076413
31
0.0
0
LINE
8
0
6
CONTINUOUS
10
0.011714
20
-0.075338
30
0.0
11
0.014934
21
-0.072372
31
0.0
0
LINE
8
0
6
CONTINUOUS
10
0.007471
20
-0.076413
30
0.0
11
0.011714
21
-0.075338
31
0.0
0
LINE
8
0
6
CONTINUOUS
10
0.022070
20
0.001529
30
0.0
11
0.021318
21
0.007241
31
0.0
0
LINE
8
0
6
CONTINUOUS
10
0.021318
20
0.007241
30
0.0
11
0.019113
21
0.012563
31
0.0
0
LINE
8
0
6
CONTINUOUS
10
0.019113
20
0.012563
30
0.0
11
0.015606
21
0.017134
31
0.0
0
LINE
8
0
6
CONTINUOUS
10
0.015606
20
0.017134
30
0.0
11
0.011035
21
0.020641
31
0.0
0
LINE
8
0
6
CONTINUOUS
10
0.011035
20
0.020641
30
0.0
11
0.005713
21
0.022846
31
0.0
0
LINE
8
0
6
CONTINUOUS
10
0.005713
20
0.022846
30
0.0
11
0.000001
21
0.023598
31
0.0
0
LINE
8
0
6
CONTINUOUS
10
-0.020781
20
-0.014170
30
0.0
11
-0.019495
21
-0.029870
31
0.0
0
LINE
8
0
6
CONTINUOUS
10
-0.016350
20
-0.068231
30
0.0
11
-0.014932
21
-0.072372
31
0.0
0
LINE
8
0
6
CONTINUOUS
10
-0.019495
20
-0.029870
30
0.0
11
-0.018476
21
-0.042302
31
0.0
0
LINE
8
0
6
CONTINUOUS
10
-0.003735
20
-0.076413
30
0.0
11
0.000001
21
-0.076413
31
0.0
0
LINE
8
0
6
CONTINUOUS
10
-0.016350
20
-0.068231
30
0.0
11
-0.018476
21
-0.042302
31
0.0
0
LINE
8
0
6
CONTINUOUS
10
-0.022068
20
0.001529
30
0.0
11
-0.020781
21
-0.014170
31
0.0
0
LINE
8
0
6
CONTINUOUS
10
-0.007470
20
-0.076413
30
0.0
11
-0.003735
21
-0.076413
31
0.0
0
LINE
8
0
6
CONTINUOUS
10
-0.014932
20
-0.072372
30
0.0
11
-0.011713
21
-0.075338
31
0.0
0
LINE
8
0
6
CONTINUOUS
10
-0.011713
20
-0.075338
30
0.0
11
-0.007470
21
-0.076413
31
0.0
0
LINE
8
0
6
CONTINUOUS
10
-0.021316
20
0.007241
30
0.0
11
-0.022068
21
0.001529
31
0.0
0
LINE
8
0
6
CONTINUOUS
10
-0.019112
20
0.012563
30
0.0
11
-0.021316
21
0.007241
31
0.0
0
LINE
8
0
6
CONTINUOUS
10
-0.015604
20
0.017134
30
0.0
11
-0.019112
21
0.012563
31
0.0
0
LINE
8
0
6
CONTINUOUS
10
-0.011034
20
0.020641
30
0.0
11
-0.015604
21
0.017134
31
0.0
0
LINE
8
0
6
CONTINUOUS
10
-0.005711
20
0.022846
30
0.0
11
-0.011034
21
0.020641
31
0.0
0
LINE
8
0
6
CONTINUOUS
10
0.000001
20
0.023598
30
0.0
11
-0.005711
21
0.022846
31
0.0
0
LINE
8
0
6
CONTINUOUS
10
0.070035
20
0.028309
30
0.0
11
0.063624
21
0.041624
31
0.0
0
LINE
8
0
6
CONTINUOUS
10
0.054190
20
0.052806
30
0.0
11
0.043286
21
0.062550
31
0.0
0
LINE
8
0
6
CONTINUOUS
10
0.030625
20
0.069981
30
0.0
11
0.016690
21
0.074718
31
0.0
0
LINE
8
0
6
CONTINUOUS
10
0.002084
20
0.076413
30
0.0
11
-0.012551
21
0.075629
31
0.0
0
LINE
8
0
6
CONTINUOUS
10
0.002084
20
0.076413
30
0.0
11
0.016690
21
0.074718
31
0.0
0
LINE
8
0
6
CONTINUOUS
10
0.043286
20
0.062550
30
0.0
11
0.030625
21
0.069981
31
0.0
0
LINE
8
0
6
CONTINUOUS
10
0.063624
20
0.041624
30
0.0
11
0.054190
21
0.052806
31
0.0
0
LINE
8
0
6
CONTINUOUS
10
0.073949
20
0.014170
30
0.0
11
0.070035
21
0.028309
31
0.0
0
LINE
8
0
6
CONTINUOUS
10
0.074970
20
-0.000507
30
0.0
11
0.073949
21
0.014170
31
0.0
0
LINE
8
0
6
CONTINUOUS
10
0.073120
20
-0.015091
30
0.0
11
0.074970
21
-0.000507
31
0.0
0
LINE
8
0
6
CONTINUOUS
10
0.068460
20
-0.029035
30
0.0
11
0.073120
21
-0.015091
31
0.0
0
LINE
8
0
6
CONTINUOUS
10
0.061168
20
-0.041802
30
0.0
11
0.068460
21
-0.029035
31
0.0
0
LINE
8
0
6
CONTINUOUS
10
0.051525
20
-0.052901
30
0.0
11
0.061168
21
-0.041802
31
0.0
0
LINE
8
0
6
CONTINUOUS
10
0.039903
20
-0.061906
30
0.0
11
0.051525
21
-0.052901
31
0.0
0
LINE
8
0
6
CONTINUOUS
10
0.039903
20
-0.061906
30
0.0
11
0.026747
21
-0.068470
31
0.0
0
LINE
8
0
6
CONTINUOUS
10
0.026747
20
-0.068470
30
0.0
11
0.015189
21
-0.071625
31
0.0
0
LINE
8
0
6
CONTINUOUS
10
-0.015157
20
-0.071716
30
0.0
11
-0.016688
21
-0.071522
31
0.0
0
LINE
8
0
6
CONTINUOUS
10
-0.016688
20
-0.071522
30
0.0
11
-0.030632
21
-0.066861
31
0.0
0
LINE
8
0
6
CONTINUOUS
10
-0.030632
20
-0.066861
30
0.0
11
-0.043399
21
-0.059569
31
0.0
0
LINE
8
0
6
CONTINUOUS
10
-0.043399
20
-0.059569
30
0.0
11
-0.054498
21
-0.049927
31
0.0
0
LINE
8
0
6
CONTINUOUS
10
-0.054498
20
-0.049927
30
0.0
11
-0.063503
21
-0.038304
31
0.0
0
LINE
8
0
6
CONTINUOUS
10
-0.063503
20
-0.038304
30
0.0
11
-0.070067
21
-0.025149
31
0.0
0
LINE
8
0
6
CONTINUOUS
10
-0.070067
20
-0.025149
30
0.0
11
-0.073939
21
-0.010965
31
0.0
0
LINE
8
0
6
CONTINUOUS
10
-0.073939
20
-0.010965
30
0.0
11
-0.074970
21
0.003701
31
0.0
0
LINE
8
0
6
CONTINUOUS
10
-0.073119
20
0.018287
30
0.0
11
-0.074970
21
0.003701
31
0.0
0
LINE
8
0
6
CONTINUOUS
10
-0.073119
20
0.018287
30
0.0
11
-0.068458
21
0.032231
31
0.0
0
LINE
8
0
6
CONTINUOUS
10
-0.061166
20
0.044999
30
0.0
11
-0.068458
21
0.032231
31
0.0
0
LINE
8
0
6
CONTINUOUS
10
-0.051524
20
0.056094
30
0.0
11
-0.061166
21
0.044999
31
0.0
0
LINE
8
0
6
CONTINUOUS
10
-0.039900
20
0.065114
30
0.0
11
-0.051524
21
0.056094
31
0.0
0
LINE
8
0
6
CONTINUOUS
10
-0.026751
20
0.071629
30
0.0
11
-0.039900
21
0.065114
31
0.0
0
LINE
8
0
6
CONTINUOUS
10
-0.012551
20
0.075629
30
0.0
11
-0.026751
21
0.071629
31
0.0
0
ENDSEC
0
EOF
