999
Erzeugt mit innoplus bad 
0
SECTION
2
HEADER
9
$ACADVER
1
AC1009
9
$DWGCODEPAGE
3
ISO8859-1
0
ENDSEC
0
SECTION
2
TABLES
0
TABLE
2
LAYER
70
1
0
LAYER
2
0
70
0
62
7
6
CONTINUOUS
0
ENDTAB
0
ENDSEC
0
SECTION
2
ENTITIES
0
LINE
8
0
6
CONTINUOUS
10
-0.039620
20
-0.108734
30
0.0
11
-0.039620
21
-0.109000
31
0.0
0
LINE
8
0
6
CONTINUOUS
10
-0.039620
20
-0.109000
30
0.0
11
-0.038868
21
-0.109000
31
0.0
0
LINE
8
0
6
CONTINUOUS
10
-0.038868
20
-0.109000
30
0.0
11
-0.036649
21
-0.109000
31
0.0
0
LINE
8
0
6
CONTINUOUS
10
-0.036649
20
-0.109000
30
0.0
11
-0.033075
21
-0.109000
31
0.0
0
LINE
8
0
6
CONTINUOUS
10
-0.033075
20
-0.109000
30
0.0
11
-0.028324
21
-0.109000
31
0.0
0
LINE
8
0
6
CONTINUOUS
10
-0.028324
20
-0.109000
30
0.0
11
-0.022636
21
-0.109000
31
0.0
0
LINE
8
0
6
CONTINUOUS
10
-0.022636
20
-0.109000
30
0.0
11
-0.016295
21
-0.109000
31
0.0
0
LINE
8
0
6
CONTINUOUS
10
-0.016295
20
-0.109000
30
0.0
11
-0.009620
21
-0.109000
31
0.0
0
LINE
8
0
6
CONTINUOUS
10
-0.009620
20
-0.109000
30
0.0
11
-0.002944
21
-0.109000
31
0.0
0
LINE
8
0
6
CONTINUOUS
10
-0.002944
20
-0.109000
30
0.0
11
0.003397
21
-0.109000
31
0.0
0
LINE
8
0
6
CONTINUOUS
10
0.003397
20
-0.109000
30
0.0
11
0.009085
21
-0.109000
31
0.0
0
LINE
8
0
6
CONTINUOUS
10
0.009085
20
-0.109000
30
0.0
11
0.013835
21
-0.109000
31
0.0
0
LINE
8
0
6
CONTINUOUS
10
0.013835
20
-0.109000
30
0.0
11
0.017409
21
-0.109000
31
0.0
0
LINE
8
0
6
CONTINUOUS
10
0.017409
20
-0.109000
30
0.0
11
0.019628
21
-0.109000
31
0.0
0
LINE
8
0
6
CONTINUOUS
10
0.020380
20
-0.109000
30
0.0
11
0.020380
21
-0.108734
31
0.0
0
LINE
8
0
6
CONTINUOUS
10
0.019628
20
-0.109000
30
0.0
11
0.020380
21
-0.109000
31
0.0
0
LINE
8
0
6
CONTINUOUS
10
-0.038868
20
-0.103000
30
0.0
11
-0.039620
21
-0.103000
31
0.0
0
LINE
8
0
6
CONTINUOUS
10
-0.039620
20
-0.103000
30
0.0
11
-0.039620
21
-0.103266
31
0.0
0
LINE
8
0
6
CONTINUOUS
10
-0.036649
20
-0.103000
30
0.0
11
-0.038868
21
-0.103000
31
0.0
0
LINE
8
0
6
CONTINUOUS
10
-0.033075
20
-0.103000
30
0.0
11
-0.036649
21
-0.103000
31
0.0
0
LINE
8
0
6
CONTINUOUS
10
-0.028324
20
-0.103000
30
0.0
11
-0.033075
21
-0.103000
31
0.0
0
LINE
8
0
6
CONTINUOUS
10
-0.022636
20
-0.103000
30
0.0
11
-0.028324
21
-0.103000
31
0.0
0
LINE
8
0
6
CONTINUOUS
10
-0.016295
20
-0.103000
30
0.0
11
-0.022636
21
-0.103000
31
0.0
0
LINE
8
0
6
CONTINUOUS
10
-0.009620
20
-0.103000
30
0.0
11
-0.016295
21
-0.103000
31
0.0
0
LINE
8
0
6
CONTINUOUS
10
-0.002944
20
-0.103000
30
0.0
11
-0.009620
21
-0.103000
31
0.0
0
LINE
8
0
6
CONTINUOUS
10
0.003397
20
-0.103000
30
0.0
11
-0.002944
21
-0.103000
31
0.0
0
LINE
8
0
6
CONTINUOUS
10
0.009085
20
-0.103000
30
0.0
11
0.003397
21
-0.103000
31
0.0
0
LINE
8
0
6
CONTINUOUS
10
0.013835
20
-0.103000
30
0.0
11
0.009085
21
-0.103000
31
0.0
0
LINE
8
0
6
CONTINUOUS
10
0.017409
20
-0.103000
30
0.0
11
0.013835
21
-0.103000
31
0.0
0
LINE
8
0
6
CONTINUOUS
10
0.019628
20
-0.103000
30
0.0
11
0.017409
21
-0.103000
31
0.0
0
LINE
8
0
6
CONTINUOUS
10
0.020380
20
-0.103000
30
0.0
11
0.019628
21
-0.103000
31
0.0
0
LINE
8
0
6
CONTINUOUS
10
0.020380
20
-0.103266
30
0.0
11
0.020380
21
-0.103000
31
0.0
0
LINE
8
0
6
CONTINUOUS
10
0.020380
20
-0.108734
30
0.0
11
0.020380
21
-0.103266
31
0.0
0
LINE
8
0
6
CONTINUOUS
10
-0.039620
20
-0.103266
30
0.0
11
-0.039620
21
-0.108734
31
0.0
0
LINE
8
0
6
CONTINUOUS
10
0.007869
20
-0.103000
30
0.0
11
0.007869
21
-0.083198
31
0.0
0
LINE
8
0
6
CONTINUOUS
10
-0.027122
20
-0.083198
30
0.0
11
-0.027122
21
-0.103000
31
0.0
0
LINE
8
0
6
CONTINUOUS
10
-0.028627
20
-0.070159
30
0.0
11
-0.028627
21
-0.082724
31
0.0
0
LINE
8
0
6
CONTINUOUS
10
-0.022023
20
-0.053956
30
0.0
11
-0.023428
21
-0.054470
31
0.0
0
LINE
8
0
6
CONTINUOUS
10
-0.028627
20
-0.064521
30
0.0
11
-0.028627
21
-0.067340
31
0.0
0
LINE
8
0
6
CONTINUOUS
10
-0.025296
20
-0.055191
30
0.0
11
-0.026047
21
-0.058875
31
0.0
0
LINE
8
0
6
CONTINUOUS
10
-0.026047
20
-0.058875
30
0.0
11
-0.023036
21
-0.058875
31
0.0
0
LINE
8
0
6
CONTINUOUS
10
-0.023036
20
-0.058875
30
0.0
11
-0.019087
21
-0.058875
31
0.0
0
LINE
8
0
6
CONTINUOUS
10
-0.028627
20
-0.067340
30
0.0
11
-0.028627
21
-0.070159
31
0.0
0
LINE
8
0
6
CONTINUOUS
10
-0.024606
20
-0.052226
30
0.0
11
-0.023718
21
-0.052094
31
0.0
0
LINE
8
0
6
CONTINUOUS
10
-0.020622
20
-0.053470
30
0.0
11
-0.019540
21
-0.052528
31
0.0
0
LINE
8
0
6
CONTINUOUS
10
-0.012843
20
-0.050505
30
0.0
11
-0.009627
21
-0.050505
31
0.0
0
LINE
8
0
6
CONTINUOUS
10
-0.028627
20
-0.058875
30
0.0
11
-0.028627
21
-0.061703
31
0.0
0
LINE
8
0
6
CONTINUOUS
10
-0.018547
20
-0.051711
30
0.0
11
-0.019540
21
-0.052528
31
0.0
0
LINE
8
0
6
CONTINUOUS
10
-0.028627
20
-0.061703
30
0.0
11
-0.028627
21
-0.064521
31
0.0
0
LINE
8
0
6
CONTINUOUS
10
-0.019107
20
-0.062520
30
0.0
11
-0.014534
21
-0.062435
31
0.0
0
LINE
8
0
6
CONTINUOUS
10
-0.023034
20
-0.062700
30
0.0
11
-0.019107
21
-0.062520
31
0.0
0
LINE
8
0
6
CONTINUOUS
10
-0.023032
20
-0.060493
30
0.0
11
-0.026044
21
-0.060830
31
0.0
0
LINE
8
0
6
CONTINUOUS
10
-0.026050
20
-0.063275
30
0.0
11
-0.023034
21
-0.062700
31
0.0
0
LINE
8
0
6
CONTINUOUS
10
-0.019182
20
-0.050882
30
0.0
11
-0.016058
21
-0.050505
31
0.0
0
LINE
8
0
6
CONTINUOUS
10
-0.019182
20
-0.050882
30
0.0
11
-0.016058
21
-0.049591
31
0.0
0
LINE
8
0
6
CONTINUOUS
10
-0.019182
20
-0.050882
30
0.0
11
-0.019609
21
-0.049573
31
0.0
0
LINE
8
0
6
CONTINUOUS
10
-0.021443
20
-0.051442
30
0.0
11
-0.019182
21
-0.050882
31
0.0
0
LINE
8
0
6
CONTINUOUS
10
-0.022779
20
-0.049000
30
0.0
11
-0.022496
21
-0.049000
31
0.0
0
LINE
8
0
6
CONTINUOUS
10
-0.018825
20
-0.049000
30
0.0
11
-0.022779
21
-0.049000
31
0.0
0
LINE
8
0
6
CONTINUOUS
10
-0.009627
20
-0.049000
30
0.0
11
-0.012983
21
-0.049000
31
0.0
0
LINE
8
0
6
CONTINUOUS
10
-0.012983
20
-0.049000
30
0.0
11
-0.012858
21
-0.049000
31
0.0
0
LINE
8
0
6
CONTINUOUS
10
-0.021443
20
-0.051442
30
0.0
11
-0.022325
21
-0.049568
31
0.0
0
LINE
8
0
6
CONTINUOUS
10
-0.022875
20
-0.051988
30
0.0
11
-0.021443
21
-0.051442
31
0.0
0
LINE
8
0
6
CONTINUOUS
10
-0.014544
20
-0.083198
30
0.0
11
-0.009627
21
-0.083198
31
0.0
0
LINE
8
0
6
CONTINUOUS
10
-0.019127
20
-0.083198
30
0.0
11
-0.014544
21
-0.083198
31
0.0
0
LINE
8
0
6
CONTINUOUS
10
-0.023062
20
-0.083198
30
0.0
11
-0.019127
21
-0.083198
31
0.0
0
LINE
8
0
6
CONTINUOUS
10
-0.026081
20
-0.083198
30
0.0
11
-0.023062
21
-0.083198
31
0.0
0
LINE
8
0
6
CONTINUOUS
10
-0.028627
20
-0.082724
30
0.0
11
-0.028627
21
-0.083198
31
0.0
0
LINE
8
0
6
CONTINUOUS
10
-0.028627
20
-0.083198
30
0.0
11
-0.027979
21
-0.083198
31
0.0
0
LINE
8
0
6
CONTINUOUS
10
-0.022023
20
-0.053956
30
0.0
11
-0.020622
21
-0.053470
31
0.0
0
LINE
8
0
6
CONTINUOUS
10
-0.022875
20
-0.051988
30
0.0
11
-0.023718
21
-0.052094
31
0.0
0
LINE
8
0
6
CONTINUOUS
10
-0.016058
20
-0.050505
30
0.0
11
-0.012843
21
-0.050505
31
0.0
0
LINE
8
0
6
CONTINUOUS
10
-0.016058
20
-0.049591
30
0.0
11
-0.016058
21
-0.050505
31
0.0
0
LINE
8
0
6
CONTINUOUS
10
-0.023062
20
-0.049000
30
0.0
11
-0.026081
21
-0.049000
31
0.0
0
LINE
8
0
6
CONTINUOUS
10
-0.027979
20
-0.049000
30
0.0
11
-0.027282
21
-0.049000
31
0.0
0
LINE
8
0
6
CONTINUOUS
10
-0.026081
20
-0.049000
30
0.0
11
-0.027979
21
-0.049000
31
0.0
0
LINE
8
0
6
CONTINUOUS
10
-0.019609
20
-0.049573
30
0.0
11
-0.016058
21
-0.049591
31
0.0
0
LINE
8
0
6
CONTINUOUS
10
-0.016058
20
-0.049000
30
0.0
11
-0.019711
21
-0.049000
31
0.0
0
LINE
8
0
6
CONTINUOUS
10
-0.019609
20
-0.049573
30
0.0
11
-0.019711
21
-0.049000
31
0.0
0
LINE
8
0
6
CONTINUOUS
10
-0.019711
20
-0.049000
30
0.0
11
-0.022483
21
-0.049000
31
0.0
0
LINE
8
0
6
CONTINUOUS
10
-0.012843
20
-0.049000
30
0.0
11
-0.016058
21
-0.049000
31
0.0
0
LINE
8
0
6
CONTINUOUS
10
-0.028627
20
-0.049000
30
0.0
11
-0.028627
21
-0.049552
31
0.0
0
LINE
8
0
6
CONTINUOUS
10
-0.028283
20
-0.049000
30
0.0
11
-0.028627
21
-0.049000
31
0.0
0
LINE
8
0
6
CONTINUOUS
10
-0.024464
20
-0.049000
30
0.0
11
-0.025225
21
-0.049000
31
0.0
0
LINE
8
0
6
CONTINUOUS
10
-0.012843
20
-0.049000
30
0.0
11
-0.009627
21
-0.049000
31
0.0
0
LINE
8
0
6
CONTINUOUS
10
-0.026239
20
-0.049000
30
0.0
11
-0.026746
21
-0.049000
31
0.0
0
LINE
8
0
6
CONTINUOUS
10
-0.022483
20
-0.049000
30
0.0
11
-0.023704
21
-0.049000
31
0.0
0
LINE
8
0
6
CONTINUOUS
10
-0.022325
20
-0.049568
30
0.0
11
-0.022483
21
-0.049000
31
0.0
0
LINE
8
0
6
CONTINUOUS
10
-0.023704
20
-0.049000
30
0.0
11
-0.024464
21
-0.049000
31
0.0
0
LINE
8
0
6
CONTINUOUS
10
-0.025732
20
-0.049000
30
0.0
11
-0.026239
21
-0.049000
31
0.0
0
LINE
8
0
6
CONTINUOUS
10
-0.025225
20
-0.049000
30
0.0
11
-0.025732
21
-0.049000
31
0.0
0
LINE
8
0
6
CONTINUOUS
10
-0.024369
20
-0.054807
30
0.0
11
-0.023428
21
-0.054470
31
0.0
0
LINE
8
0
6
CONTINUOUS
10
-0.024369
20
-0.054807
30
0.0
11
-0.025296
21
-0.055191
31
0.0
0
LINE
8
0
6
CONTINUOUS
10
-0.027515
20
-0.049000
30
0.0
11
-0.028283
21
-0.049000
31
0.0
0
LINE
8
0
6
CONTINUOUS
10
-0.027979
20
-0.083198
30
0.0
11
-0.026081
21
-0.083198
31
0.0
0
LINE
8
0
6
CONTINUOUS
10
-0.028627
20
-0.049552
30
0.0
11
-0.028627
21
-0.052808
31
0.0
0
LINE
8
0
6
CONTINUOUS
10
-0.028627
20
-0.052808
30
0.0
11
-0.028627
21
-0.056065
31
0.0
0
LINE
8
0
6
CONTINUOUS
10
-0.026746
20
-0.049000
30
0.0
11
-0.027515
21
-0.049000
31
0.0
0
LINE
8
0
6
CONTINUOUS
10
-0.028627
20
-0.056065
30
0.0
11
-0.028627
21
-0.058875
31
0.0
0
LINE
8
0
6
CONTINUOUS
10
0.009373
20
-0.082724
30
0.0
11
0.009373
21
-0.070159
31
0.0
0
LINE
8
0
6
CONTINUOUS
10
0.004175
20
-0.054470
30
0.0
11
0.002770
21
-0.053956
31
0.0
0
LINE
8
0
6
CONTINUOUS
10
0.009373
20
-0.067340
30
0.0
11
0.009373
21
-0.064521
31
0.0
0
LINE
8
0
6
CONTINUOUS
10
0.003783
20
-0.058875
30
0.0
11
0.006794
21
-0.058875
31
0.0
0
LINE
8
0
6
CONTINUOUS
10
0.006043
20
-0.055191
30
0.0
11
0.006794
21
-0.058875
31
0.0
0
LINE
8
0
6
CONTINUOUS
10
-0.000166
20
-0.058875
30
0.0
11
0.003783
21
-0.058875
31
0.0
0
LINE
8
0
6
CONTINUOUS
10
0.009373
20
-0.070159
30
0.0
11
0.009373
21
-0.067340
31
0.0
0
LINE
8
0
6
CONTINUOUS
10
0.004464
20
-0.052094
30
0.0
11
0.005352
21
-0.052226
31
0.0
0
LINE
8
0
6
CONTINUOUS
10
0.000287
20
-0.052528
30
0.0
11
0.001369
21
-0.053470
31
0.0
0
LINE
8
0
6
CONTINUOUS
10
-0.009627
20
-0.050505
30
0.0
11
-0.006411
21
-0.050505
31
0.0
0
LINE
8
0
6
CONTINUOUS
10
0.009373
20
-0.061703
30
0.0
11
0.009373
21
-0.058875
31
0.0
0
LINE
8
0
6
CONTINUOUS
10
0.000287
20
-0.052528
30
0.0
11
-0.000707
21
-0.051711
31
0.0
0
LINE
8
0
6
CONTINUOUS
10
0.009373
20
-0.064521
30
0.0
11
0.009373
21
-0.061703
31
0.0
0
LINE
8
0
6
CONTINUOUS
10
-0.004719
20
-0.062435
30
0.0
11
-0.000146
21
-0.062520
31
0.0
0
LINE
8
0
6
CONTINUOUS
10
-0.000146
20
-0.062520
30
0.0
11
0.003781
21
-0.062700
31
0.0
0
LINE
8
0
6
CONTINUOUS
10
0.003781
20
-0.062700
30
0.0
11
0.006796
21
-0.063275
31
0.0
0
LINE
8
0
6
CONTINUOUS
10
0.006790
20
-0.060830
30
0.0
11
0.003779
21
-0.060493
31
0.0
0
LINE
8
0
6
CONTINUOUS
10
-0.000071
20
-0.050882
30
0.0
11
-0.003195
21
-0.049591
31
0.0
0
LINE
8
0
6
CONTINUOUS
10
-0.003195
20
-0.050505
30
0.0
11
-0.000071
21
-0.050882
31
0.0
0
LINE
8
0
6
CONTINUOUS
10
-0.000071
20
-0.050882
30
0.0
11
0.002190
21
-0.051442
31
0.0
0
LINE
8
0
6
CONTINUOUS
10
0.000356
20
-0.049573
30
0.0
11
-0.000071
21
-0.050882
31
0.0
0
LINE
8
0
6
CONTINUOUS
10
0.003526
20
-0.049000
30
0.0
11
-0.000429
21
-0.049000
31
0.0
0
LINE
8
0
6
CONTINUOUS
10
0.003243
20
-0.049000
30
0.0
11
0.003526
21
-0.049000
31
0.0
0
LINE
8
0
6
CONTINUOUS
10
-0.006395
20
-0.049000
30
0.0
11
-0.006270
21
-0.049000
31
0.0
0
LINE
8
0
6
CONTINUOUS
10
-0.006270
20
-0.049000
30
0.0
11
-0.009627
21
-0.049000
31
0.0
0
LINE
8
0
6
CONTINUOUS
10
0.002190
20
-0.051442
30
0.0
11
0.003622
21
-0.051988
31
0.0
0
LINE
8
0
6
CONTINUOUS
10
0.003072
20
-0.049568
30
0.0
11
0.002190
21
-0.051442
31
0.0
0
LINE
8
0
6
CONTINUOUS
10
-0.009627
20
-0.083198
30
0.0
11
-0.004709
21
-0.083198
31
0.0
0
LINE
8
0
6
CONTINUOUS
10
-0.004709
20
-0.083198
30
0.0
11
-0.000127
21
-0.083198
31
0.0
0
LINE
8
0
6
CONTINUOUS
10
-0.000127
20
-0.083198
30
0.0
11
0.003808
21
-0.083198
31
0.0
0
LINE
8
0
6
CONTINUOUS
10
0.003808
20
-0.083198
30
0.0
11
0.006828
21
-0.083198
31
0.0
0
LINE
8
0
6
CONTINUOUS
10
0.008726
20
-0.083198
30
0.0
11
0.009373
21
-0.083198
31
0.0
0
LINE
8
0
6
CONTINUOUS
10
0.009373
20
-0.083198
30
0.0
11
0.009373
21
-0.082724
31
0.0
0
LINE
8
0
6
CONTINUOUS
10
0.004464
20
-0.052094
30
0.0
11
0.003622
21
-0.051988
31
0.0
0
LINE
8
0
6
CONTINUOUS
10
0.001369
20
-0.053470
30
0.0
11
0.002770
21
-0.053956
31
0.0
0
LINE
8
0
6
CONTINUOUS
10
-0.003195
20
-0.050505
30
0.0
11
-0.003195
21
-0.049591
31
0.0
0
LINE
8
0
6
CONTINUOUS
10
-0.006411
20
-0.050505
30
0.0
11
-0.003195
21
-0.050505
31
0.0
0
LINE
8
0
6
CONTINUOUS
10
0.006828
20
-0.049000
30
0.0
11
0.003808
21
-0.049000
31
0.0
0
LINE
8
0
6
CONTINUOUS
10
0.008726
20
-0.049000
30
0.0
11
0.006828
21
-0.049000
31
0.0
0
LINE
8
0
6
CONTINUOUS
10
0.008029
20
-0.049000
30
0.0
11
0.008726
21
-0.049000
31
0.0
0
LINE
8
0
6
CONTINUOUS
10
0.000458
20
-0.049000
30
0.0
11
-0.003195
21
-0.049000
31
0.0
0
LINE
8
0
6
CONTINUOUS
10
-0.003195
20
-0.049591
30
0.0
11
0.000356
21
-0.049573
31
0.0
0
LINE
8
0
6
CONTINUOUS
10
0.003230
20
-0.049000
30
0.0
11
0.000458
21
-0.049000
31
0.0
0
LINE
8
0
6
CONTINUOUS
10
0.000458
20
-0.049000
30
0.0
11
0.000356
21
-0.049573
31
0.0
0
LINE
8
0
6
CONTINUOUS
10
-0.003195
20
-0.049000
30
0.0
11
-0.006411
21
-0.049000
31
0.0
0
LINE
8
0
6
CONTINUOUS
10
0.009373
20
-0.049000
30
0.0
11
0.009030
21
-0.049000
31
0.0
0
LINE
8
0
6
CONTINUOUS
10
0.009373
20
-0.049552
30
0.0
11
0.009373
21
-0.049000
31
0.0
0
LINE
8
0
6
CONTINUOUS
10
0.005972
20
-0.049000
30
0.0
11
0.005211
21
-0.049000
31
0.0
0
LINE
8
0
6
CONTINUOUS
10
-0.009627
20
-0.049000
30
0.0
11
-0.006411
21
-0.049000
31
0.0
0
LINE
8
0
6
CONTINUOUS
10
0.007493
20
-0.049000
30
0.0
11
0.006986
21
-0.049000
31
0.0
0
LINE
8
0
6
CONTINUOUS
10
0.003230
20
-0.049000
30
0.0
11
0.003072
21
-0.049568
31
0.0
0
LINE
8
0
6
CONTINUOUS
10
0.004451
20
-0.049000
30
0.0
11
0.003230
21
-0.049000
31
0.0
0
LINE
8
0
6
CONTINUOUS
10
0.005211
20
-0.049000
30
0.0
11
0.004451
21
-0.049000
31
0.0
0
LINE
8
0
6
CONTINUOUS
10
0.006986
20
-0.049000
30
0.0
11
0.006479
21
-0.049000
31
0.0
0
LINE
8
0
6
CONTINUOUS
10
0.006479
20
-0.049000
30
0.0
11
0.005972
21
-0.049000
31
0.0
0
LINE
8
0
6
CONTINUOUS
10
0.004175
20
-0.054470
30
0.0
11
0.005116
21
-0.054807
31
0.0
0
LINE
8
0
6
CONTINUOUS
10
0.006043
20
-0.055191
30
0.0
11
0.005116
21
-0.054807
31
0.0
0
LINE
8
0
6
CONTINUOUS
10
0.009030
20
-0.049000
30
0.0
11
0.008261
21
-0.049000
31
0.0
0
LINE
8
0
6
CONTINUOUS
10
0.006828
20
-0.083198
30
0.0
11
0.008726
21
-0.083198
31
0.0
0
LINE
8
0
6
CONTINUOUS
10
0.009373
20
-0.052808
30
0.0
11
0.009373
21
-0.049552
31
0.0
0
LINE
8
0
6
CONTINUOUS
10
0.009373
20
-0.056065
30
0.0
11
0.009373
21
-0.052808
31
0.0
0
LINE
8
0
6
CONTINUOUS
10
0.008261
20
-0.049000
30
0.0
11
0.007493
21
-0.049000
31
0.0
0
LINE
8
0
6
CONTINUOUS
10
0.009373
20
-0.058875
30
0.0
11
0.009373
21
-0.056065
31
0.0
0
LINE
8
0
6
CONTINUOUS
10
-0.154620
20
-0.108734
30
0.0
11
-0.154620
21
-0.109000
31
0.0
0
LINE
8
0
6
CONTINUOUS
10
-0.154620
20
-0.109000
30
0.0
11
-0.153742
21
-0.109000
31
0.0
0
LINE
8
0
6
CONTINUOUS
10
-0.153742
20
-0.109000
30
0.0
11
-0.151154
21
-0.109000
31
0.0
0
LINE
8
0
6
CONTINUOUS
10
-0.151154
20
-0.109000
30
0.0
11
-0.146984
21
-0.109000
31
0.0
0
LINE
8
0
6
CONTINUOUS
10
-0.146984
20
-0.109000
30
0.0
11
-0.141442
21
-0.109000
31
0.0
0
LINE
8
0
6
CONTINUOUS
10
-0.141442
20
-0.109000
30
0.0
11
-0.134806
21
-0.109000
31
0.0
0
LINE
8
0
6
CONTINUOUS
10
-0.134806
20
-0.109000
30
0.0
11
-0.127408
21
-0.109000
31
0.0
0
LINE
8
0
6
CONTINUOUS
10
-0.127408
20
-0.109000
30
0.0
11
-0.119620
21
-0.109000
31
0.0
0
LINE
8
0
6
CONTINUOUS
10
-0.119620
20
-0.109000
30
0.0
11
-0.111831
21
-0.109000
31
0.0
0
LINE
8
0
6
CONTINUOUS
10
-0.111831
20
-0.109000
30
0.0
11
-0.104434
21
-0.109000
31
0.0
0
LINE
8
0
6
CONTINUOUS
10
-0.104434
20
-0.109000
30
0.0
11
-0.097798
21
-0.109000
31
0.0
0
LINE
8
0
6
CONTINUOUS
10
-0.097798
20
-0.109000
30
0.0
11
-0.092256
21
-0.109000
31
0.0
0
LINE
8
0
6
CONTINUOUS
10
-0.092256
20
-0.109000
30
0.0
11
-0.088086
21
-0.109000
31
0.0
0
LINE
8
0
6
CONTINUOUS
10
-0.088086
20
-0.109000
30
0.0
11
-0.085497
21
-0.109000
31
0.0
0
LINE
8
0
6
CONTINUOUS
10
-0.084620
20
-0.109000
30
0.0
11
-0.084620
21
-0.108734
31
0.0
0
LINE
8
0
6
CONTINUOUS
10
-0.085497
20
-0.109000
30
0.0
11
-0.084620
21
-0.109000
31
0.0
0
LINE
8
0
6
CONTINUOUS
10
-0.153742
20
-0.103000
30
0.0
11
-0.154620
21
-0.103000
31
0.0
0
LINE
8
0
6
CONTINUOUS
10
-0.154620
20
-0.103000
30
0.0
11
-0.154620
21
-0.103266
31
0.0
0
LINE
8
0
6
CONTINUOUS
10
-0.151154
20
-0.103000
30
0.0
11
-0.153742
21
-0.103000
31
0.0
0
LINE
8
0
6
CONTINUOUS
10
-0.146984
20
-0.103000
30
0.0
11
-0.151154
21
-0.103000
31
0.0
0
LINE
8
0
6
CONTINUOUS
10
-0.141442
20
-0.103000
30
0.0
11
-0.146984
21
-0.103000
31
0.0
0
LINE
8
0
6
CONTINUOUS
10
-0.134806
20
-0.103000
30
0.0
11
-0.141442
21
-0.103000
31
0.0
0
LINE
8
0
6
CONTINUOUS
10
-0.127408
20
-0.103000
30
0.0
11
-0.134806
21
-0.103000
31
0.0
0
LINE
8
0
6
CONTINUOUS
10
-0.119620
20
-0.103000
30
0.0
11
-0.127408
21
-0.103000
31
0.0
0
LINE
8
0
6
CONTINUOUS
10
-0.111831
20
-0.103000
30
0.0
11
-0.119620
21
-0.103000
31
0.0
0
LINE
8
0
6
CONTINUOUS
10
-0.104434
20
-0.103000
30
0.0
11
-0.111831
21
-0.103000
31
0.0
0
LINE
8
0
6
CONTINUOUS
10
-0.097798
20
-0.103000
30
0.0
11
-0.104434
21
-0.103000
31
0.0
0
LINE
8
0
6
CONTINUOUS
10
-0.092256
20
-0.103000
30
0.0
11
-0.097798
21
-0.103000
31
0.0
0
LINE
8
0
6
CONTINUOUS
10
-0.088086
20
-0.103000
30
0.0
11
-0.092256
21
-0.103000
31
0.0
0
LINE
8
0
6
CONTINUOUS
10
-0.085497
20
-0.103000
30
0.0
11
-0.088086
21
-0.103000
31
0.0
0
LINE
8
0
6
CONTINUOUS
10
-0.084620
20
-0.103000
30
0.0
11
-0.085497
21
-0.103000
31
0.0
0
LINE
8
0
6
CONTINUOUS
10
-0.084620
20
-0.103266
30
0.0
11
-0.084620
21
-0.103000
31
0.0
0
LINE
8
0
6
CONTINUOUS
10
-0.084620
20
-0.108734
30
0.0
11
-0.084620
21
-0.103266
31
0.0
0
LINE
8
0
6
CONTINUOUS
10
-0.154620
20
-0.103266
30
0.0
11
-0.154620
21
-0.108734
31
0.0
0
LINE
8
0
6
CONTINUOUS
10
-0.096069
20
-0.031312
30
0.0
11
-0.096069
21
-0.027914
31
0.0
0
LINE
8
0
6
CONTINUOUS
10
-0.143170
20
-0.015406
30
0.0
11
-0.143170
21
-0.027914
31
0.0
0
LINE
8
0
6
CONTINUOUS
10
-0.101696
20
0.022000
30
0.0
11
-0.104106
21
0.022000
31
0.0
0
LINE
8
0
6
CONTINUOUS
10
-0.139158
20
0.012766
30
0.0
11
-0.137913
21
0.008887
31
0.0
0
LINE
8
0
6
CONTINUOUS
10
-0.097857
20
0.022000
30
0.0
11
-0.097903
21
0.022000
31
0.0
0
LINE
8
0
6
CONTINUOUS
10
-0.104106
20
0.022000
30
0.0
11
-0.119620
21
0.022000
31
0.0
0
LINE
8
0
6
CONTINUOUS
10
-0.097903
20
0.022000
30
0.0
11
-0.098722
21
0.022000
31
0.0
0
LINE
8
0
6
CONTINUOUS
10
-0.098722
20
0.022000
30
0.0
11
-0.101696
21
0.022000
31
0.0
0
LINE
8
0
6
CONTINUOUS
10
-0.098838
20
0.021013
30
0.0
11
-0.098722
21
0.022000
31
0.0
0
LINE
8
0
6
CONTINUOUS
10
-0.098505
20
0.016705
30
0.0
11
-0.099256
21
0.012666
31
0.0
0
LINE
8
0
6
CONTINUOUS
10
-0.096074
20
0.021341
30
0.0
11
-0.096080
21
0.021222
31
0.0
0
LINE
8
0
6
CONTINUOUS
10
-0.096069
20
-0.005135
30
0.0
11
-0.095996
21
0.006184
31
0.0
0
LINE
8
0
6
CONTINUOUS
10
-0.096069
20
0.015408
30
0.0
11
-0.096069
21
0.021350
31
0.0
0
LINE
8
0
6
CONTINUOUS
10
-0.099336
20
0.016763
30
0.0
11
-0.098838
21
0.021013
31
0.0
0
LINE
8
0
6
CONTINUOUS
10
-0.095996
20
0.006184
30
0.0
11
-0.096069
21
0.015408
31
0.0
0
LINE
8
0
6
CONTINUOUS
10
-0.139928
20
-0.009548
30
0.0
11
-0.138751
21
-0.015604
31
0.0
0
LINE
8
0
6
CONTINUOUS
10
-0.143170
20
-0.005135
30
0.0
11
-0.143170
21
-0.015406
31
0.0
0
LINE
8
0
6
CONTINUOUS
10
-0.099311
20
-0.009548
30
0.0
11
-0.098378
21
-0.003270
31
0.0
0
LINE
8
0
6
CONTINUOUS
10
-0.119620
20
-0.011989
30
0.0
11
-0.125723
21
-0.010966
31
0.0
0
LINE
8
0
6
CONTINUOUS
10
-0.143170
20
-0.027914
30
0.0
11
-0.143170
21
-0.031312
31
0.0
0
LINE
8
0
6
CONTINUOUS
10
-0.143160
20
0.021222
30
0.0
11
-0.143165
21
0.021341
31
0.0
0
LINE
8
0
6
CONTINUOUS
10
-0.135134
20
0.022000
30
0.0
11
-0.137543
21
0.022000
31
0.0
0
LINE
8
0
6
CONTINUOUS
10
-0.119620
20
-0.009345
30
0.0
11
-0.119620
21
-0.010023
31
0.0
0
LINE
8
0
6
CONTINUOUS
10
-0.143180
20
0.022000
30
0.0
11
-0.143160
21
0.021222
31
0.0
0
LINE
8
0
6
CONTINUOUS
10
-0.141382
20
0.022000
30
0.0
11
-0.143180
21
0.022000
31
0.0
0
LINE
8
0
6
CONTINUOUS
10
-0.141337
20
0.022000
30
0.0
11
-0.141382
21
0.022000
31
0.0
0
LINE
8
0
6
CONTINUOUS
10
-0.119620
20
0.022000
30
0.0
11
-0.135134
21
0.022000
31
0.0
0
LINE
8
0
6
CONTINUOUS
10
-0.140517
20
0.022000
30
0.0
11
-0.141337
21
0.022000
31
0.0
0
LINE
8
0
6
CONTINUOUS
10
-0.140517
20
0.022000
30
0.0
11
-0.140401
21
0.021013
31
0.0
0
LINE
8
0
6
CONTINUOUS
10
-0.137543
20
0.022000
30
0.0
11
-0.140517
21
0.022000
31
0.0
0
LINE
8
0
6
CONTINUOUS
10
-0.096069
20
-0.015406
30
0.0
11
-0.096069
21
-0.005135
31
0.0
0
LINE
8
0
6
CONTINUOUS
10
-0.139158
20
0.012766
30
0.0
11
-0.139903
21
0.016763
31
0.0
0
LINE
8
0
6
CONTINUOUS
10
-0.140861
20
-0.003270
30
0.0
11
-0.141152
21
0.002439
31
0.0
0
LINE
8
0
6
CONTINUOUS
10
-0.135007
20
0.005410
30
0.0
11
-0.137913
21
0.008887
31
0.0
0
LINE
8
0
6
CONTINUOUS
10
-0.130893
20
0.002912
30
0.0
11
-0.135007
21
0.005410
31
0.0
0
LINE
8
0
6
CONTINUOUS
10
-0.096069
20
-0.027914
30
0.0
11
-0.096069
21
-0.015406
31
0.0
0
LINE
8
0
6
CONTINUOUS
10
-0.098087
20
0.002439
30
0.0
11
-0.098378
21
-0.003270
31
0.0
0
LINE
8
0
6
CONTINUOUS
10
-0.139984
20
0.012666
30
0.0
11
-0.140734
21
0.016705
31
0.0
0
LINE
8
0
6
CONTINUOUS
10
-0.139903
20
0.016763
30
0.0
11
-0.140401
21
0.021013
31
0.0
0
LINE
8
0
6
CONTINUOUS
10
-0.100551
20
0.008702
30
0.0
11
-0.099256
21
0.012666
31
0.0
0
LINE
8
0
6
CONTINUOUS
10
-0.100081
20
0.012766
30
0.0
11
-0.101326
21
0.008887
31
0.0
0
LINE
8
0
6
CONTINUOUS
10
-0.143170
20
0.021350
30
0.0
11
-0.143170
21
0.015408
31
0.0
0
LINE
8
0
6
CONTINUOUS
10
-0.099311
20
-0.009548
30
0.0
11
-0.100488
21
-0.015604
31
0.0
0
LINE
8
0
6
CONTINUOUS
10
-0.108346
20
0.002912
30
0.0
11
-0.104232
21
0.005410
31
0.0
0
LINE
8
0
6
CONTINUOUS
10
-0.096060
20
0.022000
30
0.0
11
-0.097857
21
0.022000
31
0.0
0
LINE
8
0
6
CONTINUOUS
10
-0.096080
20
0.021222
30
0.0
11
-0.096060
21
0.022000
31
0.0
0
LINE
8
0
6
CONTINUOUS
10
-0.119620
20
-0.014873
30
0.0
11
-0.119620
21
-0.018915
31
0.0
0
LINE
8
0
6
CONTINUOUS
10
-0.100081
20
0.012766
30
0.0
11
-0.099336
21
0.016763
31
0.0
0
LINE
8
0
6
CONTINUOUS
10
-0.119620
20
-0.011989
30
0.0
11
-0.113516
21
-0.010966
31
0.0
0
LINE
8
0
6
CONTINUOUS
10
-0.119620
20
-0.010023
30
0.0
11
-0.119620
21
-0.011989
31
0.0
0
LINE
8
0
6
CONTINUOUS
10
-0.140861
20
-0.003270
30
0.0
11
-0.139928
21
-0.009548
31
0.0
0
LINE
8
0
6
CONTINUOUS
10
-0.143243
20
0.006184
30
0.0
11
-0.143170
21
-0.005135
31
0.0
0
LINE
8
0
6
CONTINUOUS
10
-0.138688
20
0.008702
30
0.0
11
-0.139984
21
0.012666
31
0.0
0
LINE
8
0
6
CONTINUOUS
10
-0.101326
20
0.008887
30
0.0
11
-0.104232
21
0.005410
31
0.0
0
LINE
8
0
6
CONTINUOUS
10
-0.143170
20
0.015408
30
0.0
11
-0.143243
21
0.006184
31
0.0
0
LINE
8
0
6
CONTINUOUS
10
-0.143170
20
-0.031312
30
0.0
11
-0.143170
21
-0.103000
31
0.0
0
LINE
8
0
6
CONTINUOUS
10
-0.096069
20
-0.103000
30
0.0
11
-0.096069
21
-0.031312
31
0.0
0
LINE
8
0
6
CONTINUOUS
10
-0.127986
20
0.001945
30
0.0
11
-0.127577
21
0.003214
31
0.0
0
LINE
8
0
6
CONTINUOUS
10
-0.127577
20
0.003214
30
0.0
11
-0.126388
21
0.004358
31
0.0
0
LINE
8
0
6
CONTINUOUS
10
-0.126388
20
0.004358
30
0.0
11
-0.124537
21
0.005266
31
0.0
0
LINE
8
0
6
CONTINUOUS
10
-0.124537
20
0.005266
30
0.0
11
-0.122205
21
0.005849
31
0.0
0
LINE
8
0
6
CONTINUOUS
10
-0.122205
20
0.005849
30
0.0
11
-0.119620
21
0.006050
31
0.0
0
LINE
8
0
6
CONTINUOUS
10
-0.119620
20
0.006050
30
0.0
11
-0.117034
21
0.005849
31
0.0
0
LINE
8
0
6
CONTINUOUS
10
-0.117034
20
0.005849
30
0.0
11
-0.114702
21
0.005266
31
0.0
0
LINE
8
0
6
CONTINUOUS
10
-0.114702
20
0.005266
30
0.0
11
-0.112851
21
0.004358
31
0.0
0
LINE
8
0
6
CONTINUOUS
10
-0.112851
20
0.004358
30
0.0
11
-0.111663
21
0.003214
31
0.0
0
LINE
8
0
6
CONTINUOUS
10
-0.111663
20
0.003214
30
0.0
11
-0.111253
21
0.001945
31
0.0
0
LINE
8
0
6
CONTINUOUS
10
-0.124537
20
-0.001376
30
0.0
11
-0.122205
21
-0.001959
31
0.0
0
LINE
8
0
6
CONTINUOUS
10
-0.114702
20
-0.001376
30
0.0
11
-0.112851
21
-0.000467
31
0.0
0
LINE
8
0
6
CONTINUOUS
10
-0.122205
20
-0.001959
30
0.0
11
-0.119620
21
-0.002160
31
0.0
0
LINE
8
0
6
CONTINUOUS
10
-0.127986
20
0.001945
30
0.0
11
-0.127577
21
0.000677
31
0.0
0
LINE
8
0
6
CONTINUOUS
10
-0.112851
20
-0.000467
30
0.0
11
-0.111663
21
0.000677
31
0.0
0
LINE
8
0
6
CONTINUOUS
10
-0.111663
20
0.000677
30
0.0
11
-0.111253
21
0.001945
31
0.0
0
LINE
8
0
6
CONTINUOUS
10
-0.127577
20
0.000677
30
0.0
11
-0.126388
21
-0.000467
31
0.0
0
LINE
8
0
6
CONTINUOUS
10
-0.119620
20
-0.002160
30
0.0
11
-0.117034
21
-0.001959
31
0.0
0
LINE
8
0
6
CONTINUOUS
10
-0.126388
20
-0.000467
30
0.0
11
-0.124537
21
-0.001376
31
0.0
0
LINE
8
0
6
CONTINUOUS
10
-0.119620
20
-0.003586
30
0.0
11
-0.116136
21
-0.003315
31
0.0
0
LINE
8
0
6
CONTINUOUS
10
-0.116136
20
-0.003315
30
0.0
11
-0.112993
21
-0.002529
31
0.0
0
LINE
8
0
6
CONTINUOUS
10
-0.112993
20
-0.002529
30
0.0
11
-0.110499
21
-0.001306
31
0.0
0
LINE
8
0
6
CONTINUOUS
10
-0.110499
20
-0.001306
30
0.0
11
-0.108898
21
0.000236
31
0.0
0
LINE
8
0
6
CONTINUOUS
10
-0.108898
20
0.000236
30
0.0
11
-0.108346
21
0.001945
31
0.0
0
LINE
8
0
6
CONTINUOUS
10
-0.108346
20
0.001945
30
0.0
11
-0.108346
21
0.002381
31
0.0
0
LINE
8
0
6
CONTINUOUS
10
-0.108898
20
0.003654
30
0.0
11
-0.108346
21
0.001945
31
0.0
0
LINE
8
0
6
CONTINUOUS
10
-0.110499
20
0.005196
30
0.0
11
-0.108898
21
0.003654
31
0.0
0
LINE
8
0
6
CONTINUOUS
10
-0.112993
20
0.006420
30
0.0
11
-0.110499
21
0.005196
31
0.0
0
LINE
8
0
6
CONTINUOUS
10
-0.116136
20
0.007205
30
0.0
11
-0.112993
21
0.006420
31
0.0
0
LINE
8
0
6
CONTINUOUS
10
-0.119620
20
0.007476
30
0.0
11
-0.116136
21
0.007205
31
0.0
0
LINE
8
0
6
CONTINUOUS
10
-0.123103
20
0.007205
30
0.0
11
-0.119620
21
0.007476
31
0.0
0
LINE
8
0
6
CONTINUOUS
10
-0.126246
20
0.006420
30
0.0
11
-0.123103
21
0.007205
31
0.0
0
LINE
8
0
6
CONTINUOUS
10
-0.128740
20
0.005196
30
0.0
11
-0.126246
21
0.006420
31
0.0
0
LINE
8
0
6
CONTINUOUS
10
-0.130342
20
0.003654
30
0.0
11
-0.128740
21
0.005196
31
0.0
0
LINE
8
0
6
CONTINUOUS
10
-0.130893
20
0.001945
30
0.0
11
-0.130342
21
0.003654
31
0.0
0
LINE
8
0
6
CONTINUOUS
10
-0.130893
20
0.002381
30
0.0
11
-0.130893
21
0.001945
31
0.0
0
LINE
8
0
6
CONTINUOUS
10
-0.130893
20
0.001945
30
0.0
11
-0.130342
21
0.000236
31
0.0
0
LINE
8
0
6
CONTINUOUS
10
-0.130342
20
0.000236
30
0.0
11
-0.128740
21
-0.001306
31
0.0
0
LINE
8
0
6
CONTINUOUS
10
-0.128740
20
-0.001306
30
0.0
11
-0.126246
21
-0.002529
31
0.0
0
LINE
8
0
6
CONTINUOUS
10
-0.126246
20
-0.002529
30
0.0
11
-0.123103
21
-0.003315
31
0.0
0
LINE
8
0
6
CONTINUOUS
10
-0.123103
20
-0.003315
30
0.0
11
-0.119620
21
-0.003586
31
0.0
0
LINE
8
0
6
CONTINUOUS
10
-0.108346
20
0.002381
30
0.0
11
-0.108346
21
0.004919
31
0.0
0
LINE
8
0
6
CONTINUOUS
10
-0.117034
20
-0.001959
30
0.0
11
-0.114702
21
-0.001376
31
0.0
0
LINE
8
0
6
CONTINUOUS
10
-0.130893
20
0.004919
30
0.0
11
-0.130893
21
0.002381
31
0.0
0
LINE
8
0
6
CONTINUOUS
10
-0.127577
20
0.000925
30
0.0
11
-0.126388
21
-0.000219
31
0.0
0
LINE
8
0
6
CONTINUOUS
10
-0.127986
20
0.002194
30
0.0
11
-0.127577
21
0.000925
31
0.0
0
LINE
8
0
6
CONTINUOUS
10
-0.111663
20
0.000925
30
0.0
11
-0.111253
21
0.002194
31
0.0
0
LINE
8
0
6
CONTINUOUS
10
-0.112851
20
-0.000219
30
0.0
11
-0.111663
21
0.000925
31
0.0
0
LINE
8
0
6
CONTINUOUS
10
-0.114702
20
-0.001127
30
0.0
11
-0.112851
21
-0.000219
31
0.0
0
LINE
8
0
6
CONTINUOUS
10
-0.117034
20
-0.001710
30
0.0
11
-0.114702
21
-0.001127
31
0.0
0
LINE
8
0
6
CONTINUOUS
10
-0.119620
20
-0.001911
30
0.0
11
-0.117034
21
-0.001710
31
0.0
0
LINE
8
0
6
CONTINUOUS
10
-0.122205
20
-0.001710
30
0.0
11
-0.119620
21
-0.001911
31
0.0
0
LINE
8
0
6
CONTINUOUS
10
-0.124537
20
-0.001127
30
0.0
11
-0.122205
21
-0.001710
31
0.0
0
LINE
8
0
6
CONTINUOUS
10
-0.126388
20
-0.000219
30
0.0
11
-0.124537
21
-0.001127
31
0.0
0
LINE
8
0
6
CONTINUOUS
10
0.047229
20
0.068366
30
0.0
11
0.048252
21
0.064001
31
0.0
0
LINE
8
0
6
CONTINUOUS
10
0.085242
20
-0.001202
30
0.0
11
0.086770
21
-0.028350
31
0.0
0
LINE
8
0
6
CONTINUOUS
10
0.091758
20
-0.037310
30
0.0
11
0.090735
21
-0.011196
31
0.0
0
LINE
8
0
6
CONTINUOUS
10
0.084107
20
0.019464
30
0.0
11
0.085242
21
-0.001202
31
0.0
0
LINE
8
0
6
CONTINUOUS
10
0.086834
20
0.010490
30
0.0
11
0.088164
21
-0.009547
31
0.0
0
LINE
8
0
6
CONTINUOUS
10
0.090735
20
-0.011196
30
0.0
11
0.089713
21
0.008772
31
0.0
0
LINE
8
0
6
CONTINUOUS
10
0.083036
20
0.035721
30
0.0
11
0.084107
21
0.019464
31
0.0
0
LINE
8
0
6
CONTINUOUS
10
0.085562
20
0.027245
30
0.0
11
0.086834
21
0.010490
31
0.0
0
LINE
8
0
6
CONTINUOUS
10
0.089713
20
0.008772
30
0.0
11
0.088746
21
0.025845
31
0.0
0
LINE
8
0
6
CONTINUOUS
10
0.082671
20
0.039807
30
0.0
11
0.083036
21
0.035721
31
0.0
0
LINE
8
0
6
CONTINUOUS
10
0.054255
20
0.100858
30
0.0
11
0.050784
21
0.097612
31
0.0
0
LINE
8
0
6
CONTINUOUS
10
0.050784
20
0.097612
30
0.0
11
0.049881
21
0.096292
31
0.0
0
LINE
8
0
6
CONTINUOUS
10
0.046141
20
0.085485
30
0.0
11
0.046169
21
0.084930
31
0.0
0
LINE
8
0
6
CONTINUOUS
10
0.046695
20
0.089298
30
0.0
11
0.046141
21
0.085485
31
0.0
0
LINE
8
0
6
CONTINUOUS
10
0.100380
20
0.109000
30
0.0
11
0.087773
21
0.108737
31
0.0
0
LINE
8
0
6
CONTINUOUS
10
0.100380
20
0.108298
30
0.0
11
0.086944
21
0.107847
31
0.0
0
LINE
8
0
6
CONTINUOUS
10
0.087773
20
0.108737
30
0.0
11
0.075404
21
0.107755
31
0.0
0
LINE
8
0
6
CONTINUOUS
10
0.086944
20
0.107847
30
0.0
11
0.074211
21
0.106757
31
0.0
0
LINE
8
0
6
CONTINUOUS
10
0.075404
20
0.107755
30
0.0
11
0.066443
21
0.106357
31
0.0
0
LINE
8
0
6
CONTINUOUS
10
0.059648
20
0.103938
30
0.0
11
0.054255
21
0.100858
31
0.0
0
LINE
8
0
6
CONTINUOUS
10
0.058575
20
0.102727
30
0.0
11
0.053338
21
0.099651
31
0.0
0
LINE
8
0
6
CONTINUOUS
10
0.066443
20
0.106357
30
0.0
11
0.059648
21
0.103938
31
0.0
0
LINE
8
0
6
CONTINUOUS
10
0.064956
20
0.105023
30
0.0
11
0.058575
21
0.102727
31
0.0
0
LINE
8
0
6
CONTINUOUS
10
0.080875
20
0.042898
30
0.0
11
0.084156
21
0.037251
31
0.0
0
LINE
8
0
6
CONTINUOUS
10
0.076477
20
0.046386
30
0.0
11
0.080875
21
0.042898
31
0.0
0
LINE
8
0
6
CONTINUOUS
10
0.085562
20
0.027245
30
0.0
11
0.084156
21
0.037251
31
0.0
0
LINE
8
0
6
CONTINUOUS
10
0.052870
20
0.056201
30
0.0
11
0.055853
21
0.054199
31
0.0
0
LINE
8
0
6
CONTINUOUS
10
0.059395
20
0.052545
30
0.0
11
0.063080
21
0.051293
31
0.0
0
LINE
8
0
6
CONTINUOUS
10
0.087628
20
0.093009
30
0.0
11
0.074879
21
0.091874
31
0.0
0
LINE
8
0
6
CONTINUOUS
10
0.063080
20
0.051293
30
0.0
11
0.071980
21
0.048629
31
0.0
0
LINE
8
0
6
CONTINUOUS
10
0.048533
20
0.062802
30
0.0
11
0.050388
21
0.058760
31
0.0
0
LINE
8
0
6
CONTINUOUS
10
0.071627
20
0.048756
30
0.0
11
0.076477
21
0.046386
31
0.0
0
LINE
8
0
6
CONTINUOUS
10
0.046169
20
0.084930
30
0.0
11
0.046474
21
0.078376
31
0.0
0
LINE
8
0
6
CONTINUOUS
10
0.053338
20
0.099651
30
0.0
11
0.049881
21
0.096292
31
0.0
0
LINE
8
0
6
CONTINUOUS
10
0.086770
20
-0.028350
30
0.0
11
0.088030
21
-0.040924
31
0.0
0
LINE
8
0
6
CONTINUOUS
10
0.097772
20
-0.051452
30
0.0
11
0.100380
21
-0.051705
31
0.0
0
LINE
8
0
6
CONTINUOUS
10
0.094954
20
-0.050713
30
0.0
11
0.097772
21
-0.051452
31
0.0
0
LINE
8
0
6
CONTINUOUS
10
0.094789
20
-0.050649
30
0.0
11
0.094954
21
-0.050713
31
0.0
0
LINE
8
0
6
CONTINUOUS
10
0.088703
20
-0.044933
30
0.0
11
0.089152
21
-0.046007
31
0.0
0
LINE
8
0
6
CONTINUOUS
10
0.092312
20
-0.049443
30
0.0
11
0.094789
21
-0.050649
31
0.0
0
LINE
8
0
6
CONTINUOUS
10
0.089152
20
-0.046007
30
0.0
11
0.089782
21
-0.046938
31
0.0
0
LINE
8
0
6
CONTINUOUS
10
0.097688
20
-0.051408
30
0.0
11
0.100380
21
-0.051666
31
0.0
0
LINE
8
0
6
CONTINUOUS
10
0.088238
20
-0.043819
30
0.0
11
0.088703
21
-0.044933
31
0.0
0
LINE
8
0
6
CONTINUOUS
10
0.090411
20
-0.047868
30
0.0
11
0.092312
21
-0.049443
31
0.0
0
LINE
8
0
6
CONTINUOUS
10
0.089782
20
-0.046938
30
0.0
11
0.090411
21
-0.047868
31
0.0
0
LINE
8
0
6
CONTINUOUS
10
0.088030
20
-0.040924
30
0.0
11
0.088036
21
-0.041038
31
0.0
0
LINE
8
0
6
CONTINUOUS
10
0.088036
20
-0.041038
30
0.0
11
0.088238
21
-0.043819
31
0.0
0
LINE
8
0
6
CONTINUOUS
10
0.094789
20
-0.050649
30
0.0
11
0.097688
21
-0.051408
31
0.0
0
LINE
8
0
6
CONTINUOUS
10
0.092259
20
0.026309
30
0.0
11
0.089137
21
0.028364
31
0.0
0
LINE
8
0
6
CONTINUOUS
10
0.096546
20
0.025328
30
0.0
11
0.092259
21
0.026309
31
0.0
0
LINE
8
0
6
CONTINUOUS
10
0.100380
20
0.025053
30
0.0
11
0.096546
21
0.025328
31
0.0
0
LINE
8
0
6
CONTINUOUS
10
0.089137
20
0.028364
30
0.0
11
0.086882
21
0.035813
31
0.0
0
LINE
8
0
6
CONTINUOUS
10
0.086882
20
0.035813
30
0.0
11
0.083166
21
0.042202
31
0.0
0
LINE
8
0
6
CONTINUOUS
10
0.082785
20
0.042306
30
0.0
11
0.086551
21
0.035902
31
0.0
0
LINE
8
0
6
CONTINUOUS
10
0.086609
20
0.045389
30
0.0
11
0.093406
21
0.045349
31
0.0
0
LINE
8
0
6
CONTINUOUS
10
0.065932
20
0.090107
30
0.0
11
0.059896
21
0.088084
31
0.0
0
LINE
8
0
6
CONTINUOUS
10
0.074879
20
0.091874
30
0.0
11
0.065932
21
0.090107
31
0.0
0
LINE
8
0
6
CONTINUOUS
10
0.100380
20
0.093352
30
0.0
11
0.087628
21
0.093009
31
0.0
0
LINE
8
0
6
CONTINUOUS
10
0.048157
20
0.074933
30
0.0
11
0.047506
21
0.071214
31
0.0
0
LINE
8
0
6
CONTINUOUS
10
0.059896
20
0.088084
30
0.0
11
0.054765
21
0.085248
31
0.0
0
LINE
8
0
6
CONTINUOUS
10
0.076847
20
0.046332
30
0.0
11
0.077402
21
0.046287
31
0.0
0
LINE
8
0
6
CONTINUOUS
10
0.071980
20
0.048629
30
0.0
11
0.076847
21
0.046332
31
0.0
0
LINE
8
0
6
CONTINUOUS
10
0.054765
20
0.085248
30
0.0
11
0.051374
21
0.081861
31
0.0
0
LINE
8
0
6
CONTINUOUS
10
0.047551
20
0.067134
30
0.0
11
0.048533
21
0.062802
31
0.0
0
LINE
8
0
6
CONTINUOUS
10
0.093406
20
0.045349
30
0.0
11
0.100380
21
0.045358
31
0.0
0
LINE
8
0
6
CONTINUOUS
10
0.080414
20
0.044915
30
0.0
11
0.086609
21
0.045389
31
0.0
0
LINE
8
0
6
CONTINUOUS
10
0.083166
20
0.042202
30
0.0
11
0.080414
21
0.044915
31
0.0
0
LINE
8
0
6
CONTINUOUS
10
0.050388
20
0.058760
30
0.0
11
0.052870
21
0.056201
31
0.0
0
LINE
8
0
6
CONTINUOUS
10
0.055853
20
0.054199
30
0.0
11
0.059395
21
0.052545
31
0.0
0
LINE
8
0
6
CONTINUOUS
10
0.046609
20
0.074129
30
0.0
11
0.047207
21
0.068571
31
0.0
0
LINE
8
0
6
CONTINUOUS
10
0.046386
20
0.080822
30
0.0
11
0.046609
21
0.074129
31
0.0
0
LINE
8
0
6
CONTINUOUS
10
0.047207
20
0.068571
30
0.0
11
0.047229
21
0.068366
31
0.0
0
LINE
8
0
6
CONTINUOUS
10
0.047506
20
0.071214
30
0.0
11
0.047551
21
0.067134
31
0.0
0
LINE
8
0
6
CONTINUOUS
10
0.049881
20
0.096292
30
0.0
11
0.047970
21
0.092932
31
0.0
0
LINE
8
0
6
CONTINUOUS
10
0.051374
20
0.081861
30
0.0
11
0.049529
21
0.078473
31
0.0
0
LINE
8
0
6
CONTINUOUS
10
0.047970
20
0.092932
30
0.0
11
0.046695
21
0.089298
31
0.0
0
LINE
8
0
6
CONTINUOUS
10
0.049529
20
0.078473
30
0.0
11
0.048157
21
0.074933
31
0.0
0
LINE
8
0
6
CONTINUOUS
10
0.152508
20
0.064001
30
0.0
11
0.153532
21
0.068366
31
0.0
0
LINE
8
0
6
CONTINUOUS
10
0.113990
20
-0.028350
30
0.0
11
0.115518
21
-0.001202
31
0.0
0
LINE
8
0
6
CONTINUOUS
10
0.110025
20
-0.011196
30
0.0
11
0.109002
21
-0.037310
31
0.0
0
LINE
8
0
6
CONTINUOUS
10
0.115518
20
-0.001202
30
0.0
11
0.116653
21
0.019464
31
0.0
0
LINE
8
0
6
CONTINUOUS
10
0.111047
20
0.008772
30
0.0
11
0.110025
21
-0.011196
31
0.0
0
LINE
8
0
6
CONTINUOUS
10
0.112596
20
-0.009547
30
0.0
11
0.113926
21
0.010490
31
0.0
0
LINE
8
0
6
CONTINUOUS
10
0.116653
20
0.019464
30
0.0
11
0.117724
21
0.035721
31
0.0
0
LINE
8
0
6
CONTINUOUS
10
0.112014
20
0.025845
30
0.0
11
0.111047
21
0.008772
31
0.0
0
LINE
8
0
6
CONTINUOUS
10
0.113926
20
0.010490
30
0.0
11
0.115198
21
0.027244
31
0.0
0
LINE
8
0
6
CONTINUOUS
10
0.117724
20
0.035721
30
0.0
11
0.118089
21
0.039806
31
0.0
0
LINE
8
0
6
CONTINUOUS
10
0.150879
20
0.096292
30
0.0
11
0.149977
21
0.097612
31
0.0
0
LINE
8
0
6
CONTINUOUS
10
0.149977
20
0.097612
30
0.0
11
0.146505
21
0.100857
31
0.0
0
LINE
8
0
6
CONTINUOUS
10
0.154620
20
0.085485
30
0.0
11
0.154066
21
0.089298
31
0.0
0
LINE
8
0
6
CONTINUOUS
10
0.154592
20
0.084930
30
0.0
11
0.154620
21
0.085485
31
0.0
0
LINE
8
0
6
CONTINUOUS
10
0.112988
20
0.108737
30
0.0
11
0.100380
21
0.109000
31
0.0
0
LINE
8
0
6
CONTINUOUS
10
0.113816
20
0.107847
30
0.0
11
0.100380
21
0.108298
31
0.0
0
LINE
8
0
6
CONTINUOUS
10
0.125357
20
0.107755
30
0.0
11
0.112988
21
0.108737
31
0.0
0
LINE
8
0
6
CONTINUOUS
10
0.126550
20
0.106757
30
0.0
11
0.113816
21
0.107847
31
0.0
0
LINE
8
0
6
CONTINUOUS
10
0.134317
20
0.106357
30
0.0
11
0.125357
21
0.107755
31
0.0
0
LINE
8
0
6
CONTINUOUS
10
0.146505
20
0.100857
30
0.0
11
0.141113
21
0.103938
31
0.0
0
LINE
8
0
6
CONTINUOUS
10
0.147423
20
0.099651
30
0.0
11
0.142186
21
0.102727
31
0.0
0
LINE
8
0
6
CONTINUOUS
10
0.141113
20
0.103938
30
0.0
11
0.134317
21
0.106357
31
0.0
0
LINE
8
0
6
CONTINUOUS
10
0.142186
20
0.102727
30
0.0
11
0.135805
21
0.105023
31
0.0
0
LINE
8
0
6
CONTINUOUS
10
0.116604
20
0.037251
30
0.0
11
0.119885
21
0.042898
31
0.0
0
LINE
8
0
6
CONTINUOUS
10
0.119885
20
0.042898
30
0.0
11
0.124283
21
0.046386
31
0.0
0
LINE
8
0
6
CONTINUOUS
10
0.116604
20
0.037251
30
0.0
11
0.115198
21
0.027244
31
0.0
0
LINE
8
0
6
CONTINUOUS
10
0.144907
20
0.054199
30
0.0
11
0.147890
21
0.056201
31
0.0
0
LINE
8
0
6
CONTINUOUS
10
0.137680
20
0.051293
30
0.0
11
0.141365
21
0.052545
31
0.0
0
LINE
8
0
6
CONTINUOUS
10
0.125882
20
0.091874
30
0.0
11
0.113133
21
0.093009
31
0.0
0
LINE
8
0
6
CONTINUOUS
10
0.128781
20
0.048629
30
0.0
11
0.137680
21
0.051293
31
0.0
0
LINE
8
0
6
CONTINUOUS
10
0.150373
20
0.058760
30
0.0
11
0.152228
21
0.062801
31
0.0
0
LINE
8
0
6
CONTINUOUS
10
0.124283
20
0.046386
30
0.0
11
0.129134
21
0.048756
31
0.0
0
LINE
8
0
6
CONTINUOUS
10
0.154286
20
0.078376
30
0.0
11
0.154592
21
0.084930
31
0.0
0
LINE
8
0
6
CONTINUOUS
10
0.150879
20
0.096292
30
0.0
11
0.147423
21
0.099651
31
0.0
0
LINE
8
0
6
CONTINUOUS
10
0.112730
20
-0.040924
30
0.0
11
0.113990
21
-0.028350
31
0.0
0
LINE
8
0
6
CONTINUOUS
10
0.100380
20
-0.051705
30
0.0
11
0.102988
21
-0.051452
31
0.0
0
LINE
8
0
6
CONTINUOUS
10
0.105806
20
-0.050713
30
0.0
11
0.105971
21
-0.050649
31
0.0
0
LINE
8
0
6
CONTINUOUS
10
0.102988
20
-0.051452
30
0.0
11
0.105806
21
-0.050713
31
0.0
0
LINE
8
0
6
CONTINUOUS
10
0.111608
20
-0.046007
30
0.0
11
0.112057
21
-0.044933
31
0.0
0
LINE
8
0
6
CONTINUOUS
10
0.105971
20
-0.050649
30
0.0
11
0.108448
21
-0.049443
31
0.0
0
LINE
8
0
6
CONTINUOUS
10
0.110978
20
-0.046938
30
0.0
11
0.111608
21
-0.046007
31
0.0
0
LINE
8
0
6
CONTINUOUS
10
0.100380
20
-0.051666
30
0.0
11
0.103072
21
-0.051408
31
0.0
0
LINE
8
0
6
CONTINUOUS
10
0.112057
20
-0.044933
30
0.0
11
0.112522
21
-0.043819
31
0.0
0
LINE
8
0
6
CONTINUOUS
10
0.108448
20
-0.049443
30
0.0
11
0.110349
21
-0.047868
31
0.0
0
LINE
8
0
6
CONTINUOUS
10
0.110349
20
-0.047868
30
0.0
11
0.110978
21
-0.046938
31
0.0
0
LINE
8
0
6
CONTINUOUS
10
0.112522
20
-0.043819
30
0.0
11
0.112724
21
-0.041038
31
0.0
0
LINE
8
0
6
CONTINUOUS
10
0.112724
20
-0.041038
30
0.0
11
0.112730
21
-0.040924
31
0.0
0
LINE
8
0
6
CONTINUOUS
10
0.103072
20
-0.051408
30
0.0
11
0.105971
21
-0.050649
31
0.0
0
LINE
8
0
6
CONTINUOUS
10
0.111623
20
0.028364
30
0.0
11
0.108502
21
0.026309
31
0.0
0
LINE
8
0
6
CONTINUOUS
10
0.108502
20
0.026309
30
0.0
11
0.104214
21
0.025328
31
0.0
0
LINE
8
0
6
CONTINUOUS
10
0.104214
20
0.025328
30
0.0
11
0.100380
21
0.025053
31
0.0
0
LINE
8
0
6
CONTINUOUS
10
0.113879
20
0.035813
30
0.0
11
0.111623
21
0.028364
31
0.0
0
LINE
8
0
6
CONTINUOUS
10
0.114210
20
0.035902
30
0.0
11
0.117976
21
0.042306
31
0.0
0
LINE
8
0
6
CONTINUOUS
10
0.117594
20
0.042201
30
0.0
11
0.113879
21
0.035813
31
0.0
0
LINE
8
0
6
CONTINUOUS
10
0.107355
20
0.045349
30
0.0
11
0.114151
21
0.045389
31
0.0
0
LINE
8
0
6
CONTINUOUS
10
0.140865
20
0.088084
30
0.0
11
0.134829
21
0.090107
31
0.0
0
LINE
8
0
6
CONTINUOUS
10
0.134829
20
0.090107
30
0.0
11
0.125882
21
0.091874
31
0.0
0
LINE
8
0
6
CONTINUOUS
10
0.113133
20
0.093009
30
0.0
11
0.100380
21
0.093352
31
0.0
0
LINE
8
0
6
CONTINUOUS
10
0.153254
20
0.071214
30
0.0
11
0.152604
21
0.074933
31
0.0
0
LINE
8
0
6
CONTINUOUS
10
0.145996
20
0.085248
30
0.0
11
0.140865
21
0.088084
31
0.0
0
LINE
8
0
6
CONTINUOUS
10
0.123913
20
0.046332
30
0.0
11
0.128781
21
0.048629
31
0.0
0
LINE
8
0
6
CONTINUOUS
10
0.123358
20
0.046287
30
0.0
11
0.123913
21
0.046332
31
0.0
0
LINE
8
0
6
CONTINUOUS
10
0.149387
20
0.081860
30
0.0
11
0.145996
21
0.085248
31
0.0
0
LINE
8
0
6
CONTINUOUS
10
0.152228
20
0.062801
30
0.0
11
0.153209
21
0.067134
31
0.0
0
LINE
8
0
6
CONTINUOUS
10
0.101717
20
0.045357
30
0.0
11
0.107355
21
0.045349
31
0.0
0
LINE
8
0
6
CONTINUOUS
10
0.114151
20
0.045389
30
0.0
11
0.120346
21
0.044915
31
0.0
0
LINE
8
0
6
CONTINUOUS
10
0.120346
20
0.044915
30
0.0
11
0.117594
21
0.042201
31
0.0
0
LINE
8
0
6
CONTINUOUS
10
0.147890
20
0.056201
30
0.0
11
0.150373
21
0.058760
31
0.0
0
LINE
8
0
6
CONTINUOUS
10
0.141365
20
0.052545
30
0.0
11
0.144907
21
0.054199
31
0.0
0
LINE
8
0
6
CONTINUOUS
10
0.153554
20
0.068571
30
0.0
11
0.154151
21
0.074129
31
0.0
0
LINE
8
0
6
CONTINUOUS
10
0.154151
20
0.074129
30
0.0
11
0.154375
21
0.080822
31
0.0
0
LINE
8
0
6
CONTINUOUS
10
0.153532
20
0.068366
30
0.0
11
0.153554
21
0.068571
31
0.0
0
LINE
8
0
6
CONTINUOUS
10
0.153209
20
0.067134
30
0.0
11
0.153254
21
0.071214
31
0.0
0
LINE
8
0
6
CONTINUOUS
10
0.152790
20
0.092932
30
0.0
11
0.150879
21
0.096292
31
0.0
0
LINE
8
0
6
CONTINUOUS
10
0.151232
20
0.078473
30
0.0
11
0.149387
21
0.081860
31
0.0
0
LINE
8
0
6
CONTINUOUS
10
0.154066
20
0.089298
30
0.0
11
0.152790
21
0.092932
31
0.0
0
LINE
8
0
6
CONTINUOUS
10
0.152604
20
0.074933
30
0.0
11
0.151232
21
0.078473
31
0.0
0
LINE
8
0
6
CONTINUOUS
10
0.104239
20
0.025701
30
0.0
11
0.108558
21
0.026757
31
0.0
0
LINE
8
0
6
CONTINUOUS
10
0.096533
20
0.025701
30
0.0
11
0.100373
21
0.025418
31
0.0
0
LINE
8
0
6
CONTINUOUS
10
0.114028
20
0.045138
30
0.0
11
0.107295
21
0.045096
31
0.0
0
LINE
8
0
6
CONTINUOUS
10
0.107295
20
0.045096
30
0.0
11
0.100386
21
0.045101
31
0.0
0
LINE
8
0
6
CONTINUOUS
10
0.113383
20
0.035672
30
0.0
11
0.116948
21
0.042015
31
0.0
0
LINE
8
0
6
CONTINUOUS
10
0.116948
20
0.042015
30
0.0
11
0.119699
21
0.044708
31
0.0
0
LINE
8
0
6
CONTINUOUS
10
0.119699
20
0.044708
30
0.0
11
0.114028
21
0.045138
31
0.0
0
LINE
8
0
6
CONTINUOUS
10
0.092214
20
0.026757
30
0.0
11
0.096533
21
0.025701
31
0.0
0
LINE
8
0
6
CONTINUOUS
10
0.083824
20
0.042015
30
0.0
11
0.087389
21
0.035672
31
0.0
0
LINE
8
0
6
CONTINUOUS
10
0.111237
20
0.028518
30
0.0
11
0.113383
21
0.035672
31
0.0
0
LINE
8
0
6
CONTINUOUS
10
0.108558
20
0.026757
30
0.0
11
0.111237
21
0.028518
31
0.0
0
LINE
8
0
6
CONTINUOUS
10
0.086744
20
0.045138
30
0.0
11
0.081073
21
0.044708
31
0.0
0
LINE
8
0
6
CONTINUOUS
10
0.081073
20
0.044708
30
0.0
11
0.083824
21
0.042015
31
0.0
0
LINE
8
0
6
CONTINUOUS
10
0.100373
20
0.025418
30
0.0
11
0.104239
21
0.025701
31
0.0
0
LINE
8
0
6
CONTINUOUS
10
0.089535
20
0.028518
30
0.0
11
0.092214
21
0.026757
31
0.0
0
LINE
8
0
6
CONTINUOUS
10
0.087389
20
0.035672
30
0.0
11
0.089535
21
0.028518
31
0.0
0
LINE
8
0
6
CONTINUOUS
10
0.093477
20
0.045096
30
0.0
11
0.086744
21
0.045138
31
0.0
0
LINE
8
0
6
CONTINUOUS
10
0.100386
20
0.045101
30
0.0
11
0.093477
21
0.045096
31
0.0
0
LINE
8
0
6
CONTINUOUS
10
0.096558
20
0.025328
30
0.0
11
0.100372
21
0.025053
31
0.0
0
LINE
8
0
6
CONTINUOUS
10
0.081073
20
0.044708
30
0.0
11
0.086744
21
0.045138
31
0.0
0
LINE
8
0
6
CONTINUOUS
10
0.108502
20
0.026309
30
0.0
11
0.111635
21
0.028364
31
0.0
0
LINE
8
0
6
CONTINUOUS
10
0.104214
20
0.025328
30
0.0
11
0.108502
21
0.026309
31
0.0
0
LINE
8
0
6
CONTINUOUS
10
0.100372
20
0.025053
30
0.0
11
0.104214
21
0.025328
31
0.0
0
LINE
8
0
6
CONTINUOUS
10
0.111635
20
0.028364
30
0.0
11
0.113890
21
0.035813
31
0.0
0
LINE
8
0
6
CONTINUOUS
10
0.111436
20
0.028875
30
0.0
11
0.111635
21
0.028364
31
0.0
0
LINE
8
0
6
CONTINUOUS
10
0.113890
20
0.035813
30
0.0
11
0.117606
21
0.042202
31
0.0
0
LINE
8
0
6
CONTINUOUS
10
0.117606
20
0.042202
30
0.0
11
0.120358
21
0.044915
31
0.0
0
LINE
8
0
6
CONTINUOUS
10
0.092270
20
0.026309
30
0.0
11
0.096558
21
0.025328
31
0.0
0
LINE
8
0
6
CONTINUOUS
10
0.083166
20
0.042202
30
0.0
11
0.086882
21
0.035814
31
0.0
0
LINE
8
0
6
CONTINUOUS
10
0.089137
20
0.028364
30
0.0
11
0.092270
21
0.026309
31
0.0
0
LINE
8
0
6
CONTINUOUS
10
0.080414
20
0.044915
30
0.0
11
0.083166
21
0.042202
31
0.0
0
LINE
8
0
6
CONTINUOUS
10
0.089137
20
0.028364
30
0.0
11
0.089336
21
0.028875
31
0.0
0
LINE
8
0
6
CONTINUOUS
10
0.086882
20
0.035814
30
0.0
11
0.089137
21
0.028364
31
0.0
0
LINE
8
0
6
CONTINUOUS
10
0.093477
20
0.045096
30
0.0
11
0.100386
21
0.045101
31
0.0
0
LINE
8
0
6
CONTINUOUS
10
0.089535
20
0.028518
30
0.0
11
0.087389
21
0.035672
31
0.0
0
LINE
8
0
6
CONTINUOUS
10
0.089336
20
0.028875
30
0.0
11
0.089535
21
0.028518
31
0.0
0
LINE
8
0
6
CONTINUOUS
10
0.087170
20
0.036062
30
0.0
11
0.089336
21
0.028875
31
0.0
0
LINE
8
0
6
CONTINUOUS
10
0.111436
20
0.028875
30
0.0
11
0.113602
21
0.036062
31
0.0
0
LINE
8
0
6
CONTINUOUS
10
0.111237
20
0.028518
30
0.0
11
0.111436
21
0.028875
31
0.0
0
LINE
8
0
6
CONTINUOUS
10
0.113383
20
0.035672
30
0.0
11
0.111237
21
0.028518
31
0.0
0
LINE
8
0
6
CONTINUOUS
10
0.107295
20
0.045096
30
0.0
11
0.114028
21
0.045138
31
0.0
0
LINE
8
0
6
CONTINUOUS
10
0.100386
20
0.045101
30
0.0
11
0.107295
21
0.045096
31
0.0
0
LINE
8
0
6
CONTINUOUS
10
0.114028
20
0.045138
30
0.0
11
0.119699
21
0.044708
31
0.0
0
LINE
8
0
6
CONTINUOUS
10
0.086744
20
0.045138
30
0.0
11
0.093477
21
0.045096
31
0.0
0
LINE
8
0
6
CONTINUOUS
10
0.070290
20
0.059021
30
0.0
11
0.071353
21
0.057936
31
0.0
0
LINE
8
0
6
CONTINUOUS
10
0.068890
20
0.060813
30
0.0
11
0.070290
21
0.059021
31
0.0
0
LINE
8
0
6
CONTINUOUS
10
0.071353
20
0.057936
30
0.0
11
0.070002
21
0.059665
31
0.0
0
LINE
8
0
6
CONTINUOUS
10
0.068021
20
0.062704
30
0.0
11
0.068890
21
0.060813
31
0.0
0
LINE
8
0
6
CONTINUOUS
10
0.070002
20
0.059665
30
0.0
11
0.069164
21
0.061488
31
0.0
0
LINE
8
0
6
CONTINUOUS
10
0.067723
20
0.064673
30
0.0
11
0.068021
21
0.062704
31
0.0
0
LINE
8
0
6
CONTINUOUS
10
0.069164
20
0.061488
30
0.0
11
0.068876
21
0.063389
31
0.0
0
LINE
8
0
6
CONTINUOUS
10
0.068021
20
0.066643
30
0.0
11
0.067723
21
0.064673
31
0.0
0
LINE
8
0
6
CONTINUOUS
10
0.068876
20
0.063389
30
0.0
11
0.069164
21
0.065290
31
0.0
0
LINE
8
0
6
CONTINUOUS
10
0.068890
20
0.068533
30
0.0
11
0.068021
21
0.066643
31
0.0
0
LINE
8
0
6
CONTINUOUS
10
0.069164
20
0.065290
30
0.0
11
0.070002
21
0.067113
31
0.0
0
LINE
8
0
6
CONTINUOUS
10
0.070290
20
0.070326
30
0.0
11
0.068890
21
0.068533
31
0.0
0
LINE
8
0
6
CONTINUOUS
10
0.070002
20
0.067113
30
0.0
11
0.071353
21
0.068842
31
0.0
0
LINE
8
0
6
CONTINUOUS
10
0.072183
20
0.072003
30
0.0
11
0.070290
21
0.070326
31
0.0
0
LINE
8
0
6
CONTINUOUS
10
0.071353
20
0.068842
30
0.0
11
0.073178
21
0.070460
31
0.0
0
LINE
8
0
6
CONTINUOUS
10
0.074529
20
0.073548
30
0.0
11
0.072183
21
0.072003
31
0.0
0
LINE
8
0
6
CONTINUOUS
10
0.073178
20
0.070460
30
0.0
11
0.075442
21
0.071950
31
0.0
0
LINE
8
0
6
CONTINUOUS
10
0.077290
20
0.074943
30
0.0
11
0.074529
21
0.073548
31
0.0
0
LINE
8
0
6
CONTINUOUS
10
0.075442
20
0.071950
30
0.0
11
0.078105
21
0.073296
31
0.0
0
LINE
8
0
6
CONTINUOUS
10
0.080426
20
0.076171
30
0.0
11
0.077290
21
0.074943
31
0.0
0
LINE
8
0
6
CONTINUOUS
10
0.078105
20
0.073296
30
0.0
11
0.081131
21
0.074480
31
0.0
0
LINE
8
0
6
CONTINUOUS
10
0.083899
20
0.077214
30
0.0
11
0.080426
21
0.076171
31
0.0
0
LINE
8
0
6
CONTINUOUS
10
0.081131
20
0.074480
30
0.0
11
0.084482
21
0.075487
31
0.0
0
LINE
8
0
6
CONTINUOUS
10
0.087671
20
0.078056
30
0.0
11
0.083899
21
0.077214
31
0.0
0
LINE
8
0
6
CONTINUOUS
10
0.084482
20
0.075487
30
0.0
11
0.088120
21
0.076299
31
0.0
0
LINE
8
0
6
CONTINUOUS
10
0.091701
20
0.078679
30
0.0
11
0.087671
21
0.078056
31
0.0
0
LINE
8
0
6
CONTINUOUS
10
0.088120
20
0.076299
30
0.0
11
0.092007
21
0.076900
31
0.0
0
LINE
8
0
6
CONTINUOUS
10
0.095952
20
0.079065
30
0.0
11
0.091701
21
0.078679
31
0.0
0
LINE
8
0
6
CONTINUOUS
10
0.092007
20
0.076900
30
0.0
11
0.096106
21
0.077272
31
0.0
0
LINE
8
0
6
CONTINUOUS
10
0.100380
20
0.079198
30
0.0
11
0.095952
21
0.079065
31
0.0
0
LINE
8
0
6
CONTINUOUS
10
0.096106
20
0.077272
30
0.0
11
0.100380
21
0.077400
31
0.0
0
LINE
8
0
6
CONTINUOUS
10
0.104809
20
0.079065
30
0.0
11
0.100380
21
0.079198
31
0.0
0
LINE
8
0
6
CONTINUOUS
10
0.100380
20
0.077400
30
0.0
11
0.104654
21
0.077272
31
0.0
0
LINE
8
0
6
CONTINUOUS
10
0.109059
20
0.078679
30
0.0
11
0.104809
21
0.079065
31
0.0
0
LINE
8
0
6
CONTINUOUS
10
0.104654
20
0.077272
30
0.0
11
0.108754
21
0.076900
31
0.0
0
LINE
8
0
6
CONTINUOUS
10
0.113090
20
0.078056
30
0.0
11
0.109059
21
0.078679
31
0.0
0
LINE
8
0
6
CONTINUOUS
10
0.108754
20
0.076900
30
0.0
11
0.112641
21
0.076299
31
0.0
0
LINE
8
0
6
CONTINUOUS
10
0.116861
20
0.077214
30
0.0
11
0.113090
21
0.078056
31
0.0
0
LINE
8
0
6
CONTINUOUS
10
0.112641
20
0.076299
30
0.0
11
0.116279
21
0.075487
31
0.0
0
LINE
8
0
6
CONTINUOUS
10
0.120335
20
0.076171
30
0.0
11
0.116861
21
0.077214
31
0.0
0
LINE
8
0
6
CONTINUOUS
10
0.116279
20
0.075487
30
0.0
11
0.119629
21
0.074480
31
0.0
0
LINE
8
0
6
CONTINUOUS
10
0.123471
20
0.074943
30
0.0
11
0.120335
21
0.076171
31
0.0
0
LINE
8
0
6
CONTINUOUS
10
0.119629
20
0.074480
30
0.0
11
0.122655
21
0.073296
31
0.0
0
LINE
8
0
6
CONTINUOUS
10
0.126231
20
0.073548
30
0.0
11
0.123471
21
0.074943
31
0.0
0
LINE
8
0
6
CONTINUOUS
10
0.122655
20
0.073296
30
0.0
11
0.125319
21
0.071950
31
0.0
0
LINE
8
0
6
CONTINUOUS
10
0.128578
20
0.072003
30
0.0
11
0.126231
21
0.073548
31
0.0
0
LINE
8
0
6
CONTINUOUS
10
0.125319
20
0.071950
30
0.0
11
0.127582
21
0.070460
31
0.0
0
LINE
8
0
6
CONTINUOUS
10
0.130470
20
0.070326
30
0.0
11
0.128578
21
0.072003
31
0.0
0
LINE
8
0
6
CONTINUOUS
10
0.127582
20
0.070460
30
0.0
11
0.129408
21
0.068842
31
0.0
0
LINE
8
0
6
CONTINUOUS
10
0.131871
20
0.068533
30
0.0
11
0.130470
21
0.070326
31
0.0
0
LINE
8
0
6
CONTINUOUS
10
0.129408
20
0.068842
30
0.0
11
0.130759
21
0.067113
31
0.0
0
LINE
8
0
6
CONTINUOUS
10
0.132740
20
0.066643
30
0.0
11
0.131871
21
0.068533
31
0.0
0
LINE
8
0
6
CONTINUOUS
10
0.130759
20
0.067113
30
0.0
11
0.131597
21
0.065290
31
0.0
0
LINE
8
0
6
CONTINUOUS
10
0.133038
20
0.064673
30
0.0
11
0.132740
21
0.066643
31
0.0
0
LINE
8
0
6
CONTINUOUS
10
0.131597
20
0.065290
30
0.0
11
0.131885
21
0.063389
31
0.0
0
LINE
8
0
6
CONTINUOUS
10
0.132740
20
0.062704
30
0.0
11
0.133038
21
0.064673
31
0.0
0
LINE
8
0
6
CONTINUOUS
10
0.131885
20
0.063389
30
0.0
11
0.131597
21
0.061488
31
0.0
0
LINE
8
0
6
CONTINUOUS
10
0.131871
20
0.060813
30
0.0
11
0.132740
21
0.062704
31
0.0
0
LINE
8
0
6
CONTINUOUS
10
0.131597
20
0.061488
30
0.0
11
0.130759
21
0.059665
31
0.0
0
LINE
8
0
6
CONTINUOUS
10
0.130470
20
0.059021
30
0.0
11
0.131871
21
0.060813
31
0.0
0
LINE
8
0
6
CONTINUOUS
10
0.129408
20
0.057936
30
0.0
11
0.130470
21
0.059021
31
0.0
0
LINE
8
0
6
CONTINUOUS
10
0.130759
20
0.059665
30
0.0
11
0.129408
21
0.057936
31
0.0
0
LINE
8
0
6
CONTINUOUS
10
0.145836
20
0.063782
30
0.0
11
0.146127
21
0.063073
31
0.0
0
LINE
8
0
6
CONTINUOUS
10
0.105068
20
0.054301
30
0.0
11
0.105360
21
0.055010
31
0.0
0
LINE
8
0
6
CONTINUOUS
10
0.105068
20
0.055356
30
0.0
11
0.105068
21
0.054301
31
0.0
0
LINE
8
0
6
CONTINUOUS
10
0.105360
20
0.055010
30
0.0
11
0.106908
21
0.055254
31
0.0
0
LINE
8
0
6
CONTINUOUS
10
0.105360
20
0.055955
30
0.0
11
0.105360
21
0.055010
31
0.0
0
LINE
8
0
6
CONTINUOUS
10
0.127705
20
0.051087
30
0.0
11
0.128962
21
0.051551
31
0.0
0
LINE
8
0
6
CONTINUOUS
10
0.127705
20
0.051850
30
0.0
11
0.127705
21
0.051087
31
0.0
0
LINE
8
0
6
CONTINUOUS
10
0.119660
20
0.051710
30
0.0
11
0.120918
21
0.052175
31
0.0
0
LINE
8
0
6
CONTINUOUS
10
0.119660
20
0.052543
30
0.0
11
0.119660
21
0.051710
31
0.0
0
LINE
8
0
6
CONTINUOUS
10
0.123310
20
0.057716
30
0.0
11
0.124858
21
0.057472
31
0.0
0
LINE
8
0
6
CONTINUOUS
10
0.124858
20
0.057472
30
0.0
11
0.125150
21
0.056764
31
0.0
0
LINE
8
0
6
CONTINUOUS
10
0.124858
20
0.058777
30
0.0
11
0.124858
21
0.057472
31
0.0
0
LINE
8
0
6
CONTINUOUS
10
0.125752
20
0.062793
30
0.0
11
0.126043
21
0.063501
31
0.0
0
LINE
8
0
6
CONTINUOUS
10
0.125752
20
0.063911
30
0.0
11
0.125752
21
0.062793
31
0.0
0
LINE
8
0
6
CONTINUOUS
10
0.113582
20
0.068257
30
0.0
11
0.113582
21
0.069520
31
0.0
0
LINE
8
0
6
CONTINUOUS
10
0.113146
20
0.068951
30
0.0
11
0.113582
21
0.068257
31
0.0
0
LINE
8
0
6
CONTINUOUS
10
0.116747
20
0.063722
30
0.0
11
0.118124
21
0.064117
31
0.0
0
LINE
8
0
6
CONTINUOUS
10
0.116747
20
0.064841
30
0.0
11
0.116747
21
0.063722
31
0.0
0
LINE
8
0
6
CONTINUOUS
10
0.118124
20
0.064117
30
0.0
11
0.119593
21
0.063792
31
0.0
0
LINE
8
0
6
CONTINUOUS
10
0.118124
20
0.065374
30
0.0
11
0.118124
21
0.064117
31
0.0
0
LINE
8
0
6
CONTINUOUS
10
0.106737
20
0.063757
30
0.0
11
0.108114
21
0.064152
31
0.0
0
LINE
8
0
6
CONTINUOUS
10
0.106737
20
0.064918
30
0.0
11
0.106737
21
0.063757
31
0.0
0
LINE
8
0
6
CONTINUOUS
10
0.142860
20
0.069794
30
0.0
11
0.143151
21
0.070503
31
0.0
0
LINE
8
0
6
CONTINUOUS
10
0.142860
20
0.070634
30
0.0
11
0.142860
21
0.069794
31
0.0
0
LINE
8
0
6
CONTINUOUS
10
0.143151
20
0.070503
30
0.0
11
0.144699
21
0.070747
31
0.0
0
LINE
8
0
6
CONTINUOUS
10
0.143151
20
0.071458
30
0.0
11
0.143151
21
0.070503
31
0.0
0
LINE
8
0
6
CONTINUOUS
10
0.145956
20
0.070282
30
0.0
11
0.145956
21
0.071813
31
0.0
0
LINE
8
0
6
CONTINUOUS
10
0.144699
20
0.070747
30
0.0
11
0.145956
21
0.070282
31
0.0
0
LINE
8
0
6
CONTINUOUS
10
0.144699
20
0.072041
30
0.0
11
0.144699
21
0.070747
31
0.0
0
LINE
8
0
6
CONTINUOUS
10
0.117117
20
0.085136
30
0.0
11
0.117117
21
0.086538
31
0.0
0
LINE
8
0
6
CONTINUOUS
10
0.116066
20
0.085690
30
0.0
11
0.117117
21
0.085136
31
0.0
0
LINE
8
0
6
CONTINUOUS
10
0.057409
20
0.070699
30
0.0
11
0.057700
21
0.069990
31
0.0
0
LINE
8
0
6
CONTINUOUS
10
0.055861
20
0.070943
30
0.0
11
0.057409
21
0.070699
31
0.0
0
LINE
8
0
6
CONTINUOUS
10
0.054603
20
0.070479
30
0.0
11
0.055861
21
0.070943
31
0.0
0
LINE
8
0
6
CONTINUOUS
10
0.054603
20
0.071857
30
0.0
11
0.054603
21
0.070479
31
0.0
0
LINE
8
0
6
CONTINUOUS
10
0.090885
20
0.063141
30
0.0
11
0.090977
21
0.063860
31
0.0
0
LINE
8
0
6
CONTINUOUS
10
0.090885
20
0.064375
30
0.0
11
0.090885
21
0.063141
31
0.0
0
LINE
8
0
6
CONTINUOUS
10
0.090977
20
0.063860
30
0.0
11
0.092446
21
0.064184
31
0.0
0
LINE
8
0
6
CONTINUOUS
10
0.090977
20
0.065095
30
0.0
11
0.090977
21
0.063860
31
0.0
0
LINE
8
0
6
CONTINUOUS
10
0.080875
20
0.063158
30
0.0
11
0.080967
21
0.063877
31
0.0
0
LINE
8
0
6
CONTINUOUS
10
0.080875
20
0.064554
30
0.0
11
0.080875
21
0.063158
31
0.0
0
LINE
8
0
6
CONTINUOUS
10
0.080967
20
0.063877
30
0.0
11
0.082436
21
0.064202
31
0.0
0
LINE
8
0
6
CONTINUOUS
10
0.080967
20
0.065239
30
0.0
11
0.080967
21
0.063877
31
0.0
0
LINE
8
0
6
CONTINUOUS
10
0.075459
20
0.069098
30
0.0
11
0.075551
21
0.069817
31
0.0
0
LINE
8
0
6
CONTINUOUS
10
0.075459
20
0.070480
30
0.0
11
0.075459
21
0.069098
31
0.0
0
LINE
8
0
6
CONTINUOUS
10
0.077020
20
0.070142
30
0.0
11
0.078397
21
0.069747
31
0.0
0
LINE
8
0
6
CONTINUOUS
10
0.077020
20
0.070142
30
0.0
11
0.077020
21
0.072747
31
0.0
0
LINE
8
0
6
CONTINUOUS
10
0.075551
20
0.069817
30
0.0
11
0.077020
21
0.070142
31
0.0
0
LINE
8
0
6
CONTINUOUS
10
0.075551
20
0.071307
30
0.0
11
0.075551
21
0.069817
31
0.0
0
LINE
8
0
6
CONTINUOUS
10
0.100849
20
0.066143
30
0.0
11
0.102005
21
0.065631
31
0.0
0
LINE
8
0
6
CONTINUOUS
10
0.099257
20
0.065961
30
0.0
11
0.100849
21
0.066143
31
0.0
0
LINE
8
0
6
CONTINUOUS
10
0.086978
20
0.068297
30
0.0
11
0.087414
21
0.068992
31
0.0
0
LINE
8
0
6
CONTINUOUS
10
0.086978
20
0.069528
30
0.0
11
0.086978
21
0.068297
31
0.0
0
LINE
8
0
6
CONTINUOUS
10
0.086501
20
0.079820
30
0.0
11
0.087385
21
0.079212
31
0.0
0
LINE
8
0
6
CONTINUOUS
10
0.099387
20
0.075752
30
0.0
11
0.101010
21
0.075631
31
0.0
0
LINE
8
0
6
CONTINUOUS
10
0.065709
20
0.063455
30
0.0
11
0.066000
21
0.062746
31
0.0
0
LINE
8
0
6
CONTINUOUS
10
0.064161
20
0.063699
30
0.0
11
0.065709
21
0.063455
31
0.0
0
LINE
8
0
6
CONTINUOUS
10
0.062904
20
0.063234
30
0.0
11
0.064161
21
0.063699
31
0.0
0
LINE
8
0
6
CONTINUOUS
10
0.062904
20
0.064684
30
0.0
11
0.062904
21
0.063234
31
0.0
0
LINE
8
0
6
CONTINUOUS
10
0.086336
20
0.047577
30
0.0
11
0.086627
21
0.046868
31
0.0
0
LINE
8
0
6
CONTINUOUS
10
0.084787
20
0.047821
30
0.0
11
0.086336
21
0.047577
31
0.0
0
LINE
8
0
6
CONTINUOUS
10
0.101717
20
0.045226
30
0.0
11
0.101717
21
0.045663
31
0.0
0
LINE
8
0
6
CONTINUOUS
10
0.101426
20
0.045935
30
0.0
11
0.101717
21
0.045226
31
0.0
0
LINE
8
0
6
CONTINUOUS
10
0.099877
20
0.046179
30
0.0
11
0.101426
21
0.045935
31
0.0
0
LINE
8
0
6
CONTINUOUS
10
0.070632
20
0.057071
30
0.0
11
0.070632
21
0.057876
31
0.0
0
LINE
8
0
6
CONTINUOUS
10
0.069375
20
0.057535
30
0.0
11
0.070632
21
0.057071
31
0.0
0
LINE
8
0
6
CONTINUOUS
10
0.069375
20
0.057535
30
0.0
11
0.069375
21
0.058471
31
0.0
0
LINE
8
0
6
CONTINUOUS
10
0.067827
20
0.057291
30
0.0
11
0.069375
21
0.057535
31
0.0
0
LINE
8
0
6
CONTINUOUS
10
0.080899
20
0.051619
30
0.0
11
0.080899
21
0.052565
31
0.0
0
LINE
8
0
6
CONTINUOUS
10
0.079642
20
0.052083
30
0.0
11
0.080899
21
0.051619
31
0.0
0
LINE
8
0
6
CONTINUOUS
10
0.079642
20
0.052083
30
0.0
11
0.079642
21
0.053065
31
0.0
0
LINE
8
0
6
CONTINUOUS
10
0.078094
20
0.051839
30
0.0
11
0.079642
21
0.052083
31
0.0
0
LINE
8
0
6
CONTINUOUS
10
0.094137
20
0.048836
30
0.0
11
0.094428
21
0.048127
31
0.0
0
LINE
8
0
6
CONTINUOUS
10
0.092589
20
0.049080
30
0.0
11
0.094137
21
0.048836
31
0.0
0
LINE
8
0
6
CONTINUOUS
10
0.101924
20
0.070168
30
0.0
11
0.101924
21
0.071450
31
0.0
0
LINE
8
0
6
CONTINUOUS
10
0.101164
20
0.070807
30
0.0
11
0.101924
21
0.070168
31
0.0
0
LINE
8
0
6
CONTINUOUS
10
0.087551
20
0.061123
30
0.0
11
0.088434
21
0.060019
31
0.0
0
LINE
8
0
6
CONTINUOUS
10
0.087197
20
0.061872
30
0.0
11
0.087551
21
0.061123
31
0.0
0
LINE
8
0
6
CONTINUOUS
10
0.088434
20
0.060019
30
0.0
11
0.088105
21
0.060717
31
0.0
0
LINE
8
0
6
CONTINUOUS
10
0.087076
20
0.062652
30
0.0
11
0.087197
21
0.061872
31
0.0
0
LINE
8
0
6
CONTINUOUS
10
0.088105
20
0.060717
30
0.0
11
0.087992
21
0.061444
31
0.0
0
LINE
8
0
6
CONTINUOUS
10
0.087197
20
0.063433
30
0.0
11
0.087076
21
0.062652
31
0.0
0
LINE
8
0
6
CONTINUOUS
10
0.087992
20
0.061444
30
0.0
11
0.088105
21
0.062170
31
0.0
0
LINE
8
0
6
CONTINUOUS
10
0.087551
20
0.064181
30
0.0
11
0.087197
21
0.063433
31
0.0
0
LINE
8
0
6
CONTINUOUS
10
0.088105
20
0.062170
30
0.0
11
0.088434
21
0.062868
31
0.0
0
LINE
8
0
6
CONTINUOUS
10
0.088122
20
0.064892
30
0.0
11
0.087551
21
0.064181
31
0.0
0
LINE
8
0
6
CONTINUOUS
10
0.088434
20
0.062868
30
0.0
11
0.088966
21
0.063529
31
0.0
0
LINE
8
0
6
CONTINUOUS
10
0.088893
20
0.065556
30
0.0
11
0.088122
21
0.064892
31
0.0
0
LINE
8
0
6
CONTINUOUS
10
0.088966
20
0.063529
30
0.0
11
0.089684
21
0.064148
31
0.0
0
LINE
8
0
6
CONTINUOUS
10
0.089849
20
0.066168
30
0.0
11
0.088893
21
0.065556
31
0.0
0
LINE
8
0
6
CONTINUOUS
10
0.089684
20
0.064148
30
0.0
11
0.090574
21
0.064718
31
0.0
0
LINE
8
0
6
CONTINUOUS
10
0.090973
20
0.066721
30
0.0
11
0.089849
21
0.066168
31
0.0
0
LINE
8
0
6
CONTINUOUS
10
0.090574
20
0.064718
30
0.0
11
0.091621
21
0.065232
31
0.0
0
LINE
8
0
6
CONTINUOUS
10
0.092251
20
0.067207
30
0.0
11
0.090973
21
0.066721
31
0.0
0
LINE
8
0
6
CONTINUOUS
10
0.091621
20
0.065232
30
0.0
11
0.092811
21
0.065685
31
0.0
0
LINE
8
0
6
CONTINUOUS
10
0.093666
20
0.067621
30
0.0
11
0.092251
21
0.067207
31
0.0
0
LINE
8
0
6
CONTINUOUS
10
0.092811
20
0.065685
30
0.0
11
0.094128
21
0.066070
31
0.0
0
LINE
8
0
6
CONTINUOUS
10
0.095202
20
0.067954
30
0.0
11
0.093666
21
0.067621
31
0.0
0
LINE
8
0
6
CONTINUOUS
10
0.094128
20
0.066070
30
0.0
11
0.095559
21
0.066381
31
0.0
0
LINE
8
0
6
CONTINUOUS
10
0.096844
20
0.068201
30
0.0
11
0.095202
21
0.067954
31
0.0
0
LINE
8
0
6
CONTINUOUS
10
0.095559
20
0.066381
30
0.0
11
0.097088
21
0.066611
31
0.0
0
LINE
8
0
6
CONTINUOUS
10
0.098576
20
0.068354
30
0.0
11
0.096844
21
0.068201
31
0.0
0
LINE
8
0
6
CONTINUOUS
10
0.097088
20
0.066611
30
0.0
11
0.098700
21
0.066753
31
0.0
0
LINE
8
0
6
CONTINUOUS
10
0.100380
20
0.068407
30
0.0
11
0.098576
21
0.068354
31
0.0
0
LINE
8
0
6
CONTINUOUS
10
0.098700
20
0.066753
30
0.0
11
0.100380
21
0.066802
31
0.0
0
LINE
8
0
6
CONTINUOUS
10
0.102185
20
0.068354
30
0.0
11
0.100380
21
0.068407
31
0.0
0
LINE
8
0
6
CONTINUOUS
10
0.100380
20
0.066802
30
0.0
11
0.102061
21
0.066753
31
0.0
0
LINE
8
0
6
CONTINUOUS
10
0.103916
20
0.068201
30
0.0
11
0.102185
21
0.068354
31
0.0
0
LINE
8
0
6
CONTINUOUS
10
0.102061
20
0.066753
30
0.0
11
0.103673
21
0.066611
31
0.0
0
LINE
8
0
6
CONTINUOUS
10
0.105558
20
0.067954
30
0.0
11
0.103916
21
0.068201
31
0.0
0
LINE
8
0
6
CONTINUOUS
10
0.103673
20
0.066611
30
0.0
11
0.105202
21
0.066381
31
0.0
0
LINE
8
0
6
CONTINUOUS
10
0.107095
20
0.067621
30
0.0
11
0.105558
21
0.067954
31
0.0
0
LINE
8
0
6
CONTINUOUS
10
0.105202
20
0.066381
30
0.0
11
0.106632
21
0.066070
31
0.0
0
LINE
8
0
6
CONTINUOUS
10
0.108510
20
0.067207
30
0.0
11
0.107095
21
0.067621
31
0.0
0
LINE
8
0
6
CONTINUOUS
10
0.106632
20
0.066070
30
0.0
11
0.107950
21
0.065685
31
0.0
0
LINE
8
0
6
CONTINUOUS
10
0.109787
20
0.066721
30
0.0
11
0.108510
21
0.067207
31
0.0
0
LINE
8
0
6
CONTINUOUS
10
0.107950
20
0.065685
30
0.0
11
0.109140
21
0.065232
31
0.0
0
LINE
8
0
6
CONTINUOUS
10
0.110912
20
0.066168
30
0.0
11
0.109787
21
0.066721
31
0.0
0
LINE
8
0
6
CONTINUOUS
10
0.109140
20
0.065232
30
0.0
11
0.110187
21
0.064718
31
0.0
0
LINE
8
0
6
CONTINUOUS
10
0.111868
20
0.065556
30
0.0
11
0.110912
21
0.066168
31
0.0
0
LINE
8
0
6
CONTINUOUS
10
0.110187
20
0.064718
30
0.0
11
0.111077
21
0.064148
31
0.0
0
LINE
8
0
6
CONTINUOUS
10
0.112639
20
0.064892
30
0.0
11
0.111868
21
0.065556
31
0.0
0
LINE
8
0
6
CONTINUOUS
10
0.111077
20
0.064148
30
0.0
11
0.111795
21
0.063529
31
0.0
0
LINE
8
0
6
CONTINUOUS
10
0.113210
20
0.064181
30
0.0
11
0.112639
21
0.064892
31
0.0
0
LINE
8
0
6
CONTINUOUS
10
0.111795
20
0.063529
30
0.0
11
0.112326
21
0.062868
31
0.0
0
LINE
8
0
6
CONTINUOUS
10
0.113563
20
0.063432
30
0.0
11
0.113210
21
0.064181
31
0.0
0
LINE
8
0
6
CONTINUOUS
10
0.112326
20
0.062868
30
0.0
11
0.112656
21
0.062170
31
0.0
0
LINE
8
0
6
CONTINUOUS
10
0.113685
20
0.062652
30
0.0
11
0.113563
21
0.063432
31
0.0
0
LINE
8
0
6
CONTINUOUS
10
0.112656
20
0.062170
30
0.0
11
0.112769
21
0.061444
31
0.0
0
LINE
8
0
6
CONTINUOUS
10
0.113563
20
0.061872
30
0.0
11
0.113685
21
0.062652
31
0.0
0
LINE
8
0
6
CONTINUOUS
10
0.112769
20
0.061444
30
0.0
11
0.112656
21
0.060717
31
0.0
0
LINE
8
0
6
CONTINUOUS
10
0.113210
20
0.061123
30
0.0
11
0.113563
21
0.061872
31
0.0
0
LINE
8
0
6
CONTINUOUS
10
0.112326
20
0.060019
30
0.0
11
0.113210
21
0.061123
31
0.0
0
LINE
8
0
6
CONTINUOUS
10
0.112656
20
0.060717
30
0.0
11
0.112326
21
0.060019
31
0.0
0
LINE
8
0
6
CONTINUOUS
10
0.054724
20
0.063982
30
0.0
11
0.056272
21
0.064226
31
0.0
0
LINE
8
0
6
CONTINUOUS
10
0.133288
20
0.070022
30
0.0
11
0.133380
21
0.069303
31
0.0
0
LINE
8
0
6
CONTINUOUS
10
0.134665
20
0.070416
30
0.0
11
0.133288
21
0.070022
31
0.0
0
LINE
8
0
6
CONTINUOUS
10
0.136134
20
0.070092
30
0.0
11
0.134665
21
0.070416
31
0.0
0
LINE
8
0
6
CONTINUOUS
10
0.136226
20
0.069373
30
0.0
11
0.136134
21
0.070092
31
0.0
0
LINE
8
0
6
CONTINUOUS
10
0.134849
20
0.068978
30
0.0
11
0.136226
21
0.069373
31
0.0
0
LINE
8
0
6
CONTINUOUS
10
0.133380
20
0.069303
30
0.0
11
0.134849
21
0.068978
31
0.0
0
LINE
8
0
6
CONTINUOUS
10
0.143030
20
0.063561
30
0.0
11
0.144287
21
0.064026
31
0.0
0
LINE
8
0
6
CONTINUOUS
10
0.143030
20
0.064283
30
0.0
11
0.143030
21
0.063561
31
0.0
0
LINE
8
0
6
CONTINUOUS
10
0.144287
20
0.064026
30
0.0
11
0.145836
21
0.063782
31
0.0
0
LINE
8
0
6
CONTINUOUS
10
0.144287
20
0.064995
30
0.0
11
0.144287
21
0.064026
31
0.0
0
LINE
8
0
6
CONTINUOUS
10
0.108165
20
0.054789
30
0.0
11
0.108165
21
0.055885
31
0.0
0
LINE
8
0
6
CONTINUOUS
10
0.106908
20
0.055254
30
0.0
11
0.108165
21
0.054789
31
0.0
0
LINE
8
0
6
CONTINUOUS
10
0.106908
20
0.056219
30
0.0
11
0.106908
21
0.055254
31
0.0
0
LINE
8
0
6
CONTINUOUS
10
0.106132
20
0.048062
30
0.0
11
0.106423
21
0.048771
31
0.0
0
LINE
8
0
6
CONTINUOUS
10
0.106132
20
0.049016
30
0.0
11
0.106132
21
0.048062
31
0.0
0
LINE
8
0
6
CONTINUOUS
10
0.106423
20
0.048771
30
0.0
11
0.107971
21
0.049015
31
0.0
0
LINE
8
0
6
CONTINUOUS
10
0.106423
20
0.049585
30
0.0
11
0.106423
21
0.048771
31
0.0
0
LINE
8
0
6
CONTINUOUS
10
0.109228
20
0.048550
30
0.0
11
0.109228
21
0.049501
31
0.0
0
LINE
8
0
6
CONTINUOUS
10
0.107971
20
0.049015
30
0.0
11
0.109228
21
0.048550
31
0.0
0
LINE
8
0
6
CONTINUOUS
10
0.107971
20
0.049828
30
0.0
11
0.107971
21
0.049015
31
0.0
0
LINE
8
0
6
CONTINUOUS
10
0.106845
20
0.059205
30
0.0
11
0.107136
21
0.059914
31
0.0
0
LINE
8
0
6
CONTINUOUS
10
0.106845
20
0.060281
30
0.0
11
0.106845
21
0.059205
31
0.0
0
LINE
8
0
6
CONTINUOUS
10
0.107136
20
0.059914
30
0.0
11
0.108685
21
0.060158
31
0.0
0
LINE
8
0
6
CONTINUOUS
10
0.107136
20
0.061004
30
0.0
11
0.107136
21
0.059914
31
0.0
0
LINE
8
0
6
CONTINUOUS
10
0.109942
20
0.059693
30
0.0
11
0.109942
21
0.060893
31
0.0
0
LINE
8
0
6
CONTINUOUS
10
0.108685
20
0.060158
30
0.0
11
0.109942
21
0.059693
31
0.0
0
LINE
8
0
6
CONTINUOUS
10
0.108685
20
0.061310
30
0.0
11
0.108685
21
0.060158
31
0.0
0
LINE
8
0
6
CONTINUOUS
10
0.137882
20
0.057023
30
0.0
11
0.139140
21
0.057488
31
0.0
0
LINE
8
0
6
CONTINUOUS
10
0.137882
20
0.057454
30
0.0
11
0.137882
21
0.057023
31
0.0
0
LINE
8
0
6
CONTINUOUS
10
0.139140
20
0.057488
30
0.0
11
0.140688
21
0.057244
31
0.0
0
LINE
8
0
6
CONTINUOUS
10
0.139140
20
0.058057
30
0.0
11
0.139140
21
0.057488
31
0.0
0
LINE
8
0
6
CONTINUOUS
10
0.140688
20
0.057244
30
0.0
11
0.140979
21
0.056535
31
0.0
0
LINE
8
0
6
CONTINUOUS
10
0.140688
20
0.058130
30
0.0
11
0.140688
21
0.057244
31
0.0
0
LINE
8
0
6
CONTINUOUS
10
0.128962
20
0.051551
30
0.0
11
0.130511
21
0.051307
31
0.0
0
LINE
8
0
6
CONTINUOUS
10
0.128962
20
0.052384
30
0.0
11
0.128962
21
0.051551
31
0.0
0
LINE
8
0
6
CONTINUOUS
10
0.130511
20
0.051307
30
0.0
11
0.130802
21
0.050598
31
0.0
0
LINE
8
0
6
CONTINUOUS
10
0.130511
20
0.052433
30
0.0
11
0.130511
21
0.051307
31
0.0
0
LINE
8
0
6
CONTINUOUS
10
0.120918
20
0.052175
30
0.0
11
0.122466
21
0.051931
31
0.0
0
LINE
8
0
6
CONTINUOUS
10
0.120918
20
0.053043
30
0.0
11
0.120918
21
0.052175
31
0.0
0
LINE
8
0
6
CONTINUOUS
10
0.122466
20
0.051931
30
0.0
11
0.122757
21
0.051222
31
0.0
0
LINE
8
0
6
CONTINUOUS
10
0.122466
20
0.053027
30
0.0
11
0.122466
21
0.051931
31
0.0
0
LINE
8
0
6
CONTINUOUS
10
0.122053
20
0.057252
30
0.0
11
0.123310
21
0.057716
31
0.0
0
LINE
8
0
6
CONTINUOUS
10
0.122053
20
0.058272
30
0.0
11
0.122053
21
0.057252
31
0.0
0
LINE
8
0
6
CONTINUOUS
10
0.129927
20
0.056952
30
0.0
11
0.131185
21
0.057417
31
0.0
0
LINE
8
0
6
CONTINUOUS
10
0.129927
20
0.057842
30
0.0
11
0.129927
21
0.056952
31
0.0
0
LINE
8
0
6
CONTINUOUS
10
0.131185
20
0.057417
30
0.0
11
0.132733
21
0.057173
31
0.0
0
LINE
8
0
6
CONTINUOUS
10
0.131185
20
0.058437
30
0.0
11
0.131185
21
0.057417
31
0.0
0
LINE
8
0
6
CONTINUOUS
10
0.132733
20
0.057173
30
0.0
11
0.133024
21
0.056464
31
0.0
0
LINE
8
0
6
CONTINUOUS
10
0.132733
20
0.058498
30
0.0
11
0.132733
21
0.057173
31
0.0
0
LINE
8
0
6
CONTINUOUS
10
0.112252
20
0.052331
30
0.0
11
0.112543
21
0.053040
31
0.0
0
LINE
8
0
6
CONTINUOUS
10
0.112252
20
0.053280
30
0.0
11
0.112252
21
0.052331
31
0.0
0
LINE
8
0
6
CONTINUOUS
10
0.112543
20
0.053040
30
0.0
11
0.114092
21
0.053284
31
0.0
0
LINE
8
0
6
CONTINUOUS
10
0.112543
20
0.053866
30
0.0
11
0.112543
21
0.053040
31
0.0
0
LINE
8
0
6
CONTINUOUS
10
0.115349
20
0.052819
30
0.0
11
0.115349
21
0.053993
31
0.0
0
LINE
8
0
6
CONTINUOUS
10
0.114092
20
0.053284
30
0.0
11
0.115349
21
0.052819
31
0.0
0
LINE
8
0
6
CONTINUOUS
10
0.114092
20
0.054231
30
0.0
11
0.114092
21
0.053284
31
0.0
0
LINE
8
0
6
CONTINUOUS
10
0.113933
20
0.046262
30
0.0
11
0.114224
21
0.046971
31
0.0
0
LINE
8
0
6
CONTINUOUS
10
0.113933
20
0.047230
30
0.0
11
0.113933
21
0.046262
31
0.0
0
LINE
8
0
6
CONTINUOUS
10
0.114224
20
0.046971
30
0.0
11
0.115772
21
0.047215
31
0.0
0
LINE
8
0
6
CONTINUOUS
10
0.114224
20
0.047763
30
0.0
11
0.114224
21
0.046971
31
0.0
0
LINE
8
0
6
CONTINUOUS
10
0.117030
20
0.046750
30
0.0
11
0.117030
21
0.047909
31
0.0
0
LINE
8
0
6
CONTINUOUS
10
0.115772
20
0.047215
30
0.0
11
0.117030
21
0.046750
31
0.0
0
LINE
8
0
6
CONTINUOUS
10
0.115772
20
0.048082
30
0.0
11
0.115772
21
0.047215
31
0.0
0
LINE
8
0
6
CONTINUOUS
10
0.134559
20
0.062595
30
0.0
11
0.134851
21
0.063303
31
0.0
0
LINE
8
0
6
CONTINUOUS
10
0.134559
20
0.063671
30
0.0
11
0.134559
21
0.062595
31
0.0
0
LINE
8
0
6
CONTINUOUS
10
0.134851
20
0.063303
30
0.0
11
0.136399
21
0.063547
31
0.0
0
LINE
8
0
6
CONTINUOUS
10
0.134851
20
0.064389
30
0.0
11
0.134851
21
0.063303
31
0.0
0
LINE
8
0
6
CONTINUOUS
10
0.137656
20
0.063083
30
0.0
11
0.137656
21
0.064651
31
0.0
0
LINE
8
0
6
CONTINUOUS
10
0.136399
20
0.063547
30
0.0
11
0.137656
21
0.063083
31
0.0
0
LINE
8
0
6
CONTINUOUS
10
0.136399
20
0.064874
30
0.0
11
0.136399
21
0.063547
31
0.0
0
LINE
8
0
6
CONTINUOUS
10
0.126043
20
0.063501
30
0.0
11
0.127592
21
0.063745
31
0.0
0
LINE
8
0
6
CONTINUOUS
10
0.126043
20
0.064628
30
0.0
11
0.126043
21
0.063501
31
0.0
0
LINE
8
0
6
CONTINUOUS
10
0.128849
20
0.063281
30
0.0
11
0.128849
21
0.064839
31
0.0
0
LINE
8
0
6
CONTINUOUS
10
0.127592
20
0.063745
30
0.0
11
0.128849
21
0.063281
31
0.0
0
LINE
8
0
6
CONTINUOUS
10
0.127592
20
0.065061
30
0.0
11
0.127592
21
0.063745
31
0.0
0
LINE
8
0
6
CONTINUOUS
10
0.114324
20
0.057683
30
0.0
11
0.114615
21
0.058392
31
0.0
0
LINE
8
0
6
CONTINUOUS
10
0.114324
20
0.058695
30
0.0
11
0.114324
21
0.057683
31
0.0
0
LINE
8
0
6
CONTINUOUS
10
0.114615
20
0.058392
30
0.0
11
0.116164
21
0.058636
31
0.0
0
LINE
8
0
6
CONTINUOUS
10
0.114615
20
0.059439
30
0.0
11
0.114615
21
0.058392
31
0.0
0
LINE
8
0
6
CONTINUOUS
10
0.117421
20
0.058171
30
0.0
11
0.117421
21
0.059577
31
0.0
0
LINE
8
0
6
CONTINUOUS
10
0.116164
20
0.058636
30
0.0
11
0.117421
21
0.058171
31
0.0
0
LINE
8
0
6
CONTINUOUS
10
0.116164
20
0.059880
30
0.0
11
0.116164
21
0.058636
31
0.0
0
LINE
8
0
6
CONTINUOUS
10
0.116464
20
0.079068
30
0.0
11
0.116464
21
0.080654
31
0.0
0
LINE
8
0
6
CONTINUOUS
10
0.115703
20
0.079706
30
0.0
11
0.116464
21
0.079068
31
0.0
0
LINE
8
0
6
CONTINUOUS
10
0.113175
20
0.079130
30
0.0
11
0.114059
21
0.079737
31
0.0
0
LINE
8
0
6
CONTINUOUS
10
0.113175
20
0.080430
30
0.0
11
0.113175
21
0.079130
31
0.0
0
LINE
8
0
6
CONTINUOUS
10
0.115703
20
0.079706
30
0.0
11
0.115703
21
0.081450
31
0.0
0
LINE
8
0
6
CONTINUOUS
10
0.114059
20
0.079737
30
0.0
11
0.115703
21
0.079706
31
0.0
0
LINE
8
0
6
CONTINUOUS
10
0.114059
20
0.081313
30
0.0
11
0.114059
21
0.079737
31
0.0
0
LINE
8
0
6
CONTINUOUS
10
0.115528
20
0.073433
30
0.0
11
0.115528
21
0.074939
31
0.0
0
LINE
8
0
6
CONTINUOUS
10
0.114767
20
0.074072
30
0.0
11
0.115528
21
0.073433
31
0.0
0
LINE
8
0
6
CONTINUOUS
10
0.112239
20
0.073495
30
0.0
11
0.113123
21
0.074103
31
0.0
0
LINE
8
0
6
CONTINUOUS
10
0.112239
20
0.074766
30
0.0
11
0.112239
21
0.073495
31
0.0
0
LINE
8
0
6
CONTINUOUS
10
0.114767
20
0.074072
30
0.0
11
0.114767
21
0.075720
31
0.0
0
LINE
8
0
6
CONTINUOUS
10
0.113123
20
0.074103
30
0.0
11
0.114767
21
0.074072
31
0.0
0
LINE
8
0
6
CONTINUOUS
10
0.113123
20
0.075633
30
0.0
11
0.113123
21
0.074103
31
0.0
0
LINE
8
0
6
CONTINUOUS
10
0.128757
20
0.075076
30
0.0
11
0.128757
21
0.076834
31
0.0
0
LINE
8
0
6
CONTINUOUS
10
0.128321
20
0.075771
30
0.0
11
0.128757
21
0.075076
31
0.0
0
LINE
8
0
6
CONTINUOUS
10
0.125572
20
0.075440
30
0.0
11
0.126729
21
0.075953
31
0.0
0
LINE
8
0
6
CONTINUOUS
10
0.125572
20
0.076807
30
0.0
11
0.125572
21
0.075440
31
0.0
0
LINE
8
0
6
CONTINUOUS
10
0.128321
20
0.075771
30
0.0
11
0.128321
21
0.077628
31
0.0
0
LINE
8
0
6
CONTINUOUS
10
0.126729
20
0.075953
30
0.0
11
0.128321
21
0.075771
31
0.0
0
LINE
8
0
6
CONTINUOUS
10
0.126729
20
0.077587
30
0.0
11
0.126729
21
0.075953
31
0.0
0
LINE
8
0
6
CONTINUOUS
10
0.110397
20
0.068621
30
0.0
11
0.111553
21
0.069133
31
0.0
0
LINE
8
0
6
CONTINUOUS
10
0.110397
20
0.069844
30
0.0
11
0.110397
21
0.068621
31
0.0
0
LINE
8
0
6
CONTINUOUS
10
0.113146
20
0.068951
30
0.0
11
0.113146
21
0.070347
31
0.0
0
LINE
8
0
6
CONTINUOUS
10
0.111553
20
0.069133
30
0.0
11
0.113146
21
0.068951
31
0.0
0
LINE
8
0
6
CONTINUOUS
10
0.111553
20
0.070511
30
0.0
11
0.111553
21
0.069133
31
0.0
0
LINE
8
0
6
CONTINUOUS
10
0.136226
20
0.069373
30
0.0
11
0.136226
21
0.071036
31
0.0
0
LINE
8
0
6
CONTINUOUS
10
0.136134
20
0.070092
30
0.0
11
0.136226
21
0.069373
31
0.0
0
LINE
8
0
6
CONTINUOUS
10
0.133288
20
0.070022
30
0.0
11
0.134665
21
0.070416
31
0.0
0
LINE
8
0
6
CONTINUOUS
10
0.133288
20
0.071284
30
0.0
11
0.133288
21
0.070022
31
0.0
0
LINE
8
0
6
CONTINUOUS
10
0.136134
20
0.070092
30
0.0
11
0.136134
21
0.071801
31
0.0
0
LINE
8
0
6
CONTINUOUS
10
0.134665
20
0.070416
30
0.0
11
0.136134
21
0.070092
31
0.0
0
LINE
8
0
6
CONTINUOUS
10
0.134665
20
0.071931
30
0.0
11
0.134665
21
0.070416
31
0.0
0
LINE
8
0
6
CONTINUOUS
10
0.125101
20
0.069007
30
0.0
11
0.125101
21
0.070459
31
0.0
0
LINE
8
0
6
CONTINUOUS
10
0.125009
20
0.069725
30
0.0
11
0.125101
21
0.069007
31
0.0
0
LINE
8
0
6
CONTINUOUS
10
0.122162
20
0.069656
30
0.0
11
0.123539
21
0.070050
31
0.0
0
LINE
8
0
6
CONTINUOUS
10
0.122162
20
0.070896
30
0.0
11
0.122162
21
0.069656
31
0.0
0
LINE
8
0
6
CONTINUOUS
10
0.125009
20
0.069725
30
0.0
11
0.125009
21
0.071286
31
0.0
0
LINE
8
0
6
CONTINUOUS
10
0.123539
20
0.070050
30
0.0
11
0.125009
21
0.069725
31
0.0
0
LINE
8
0
6
CONTINUOUS
10
0.123539
20
0.071514
30
0.0
11
0.123539
21
0.070050
31
0.0
0
LINE
8
0
6
CONTINUOUS
10
0.119685
20
0.063073
30
0.0
11
0.119685
21
0.064532
31
0.0
0
LINE
8
0
6
CONTINUOUS
10
0.119593
20
0.063792
30
0.0
11
0.119685
21
0.063073
31
0.0
0
LINE
8
0
6
CONTINUOUS
10
0.119593
20
0.065218
30
0.0
11
0.119593
21
0.063792
31
0.0
0
LINE
8
0
6
CONTINUOUS
10
0.109675
20
0.063108
30
0.0
11
0.109675
21
0.064368
31
0.0
0
LINE
8
0
6
CONTINUOUS
10
0.109583
20
0.063827
30
0.0
11
0.109675
21
0.063108
31
0.0
0
LINE
8
0
6
CONTINUOUS
10
0.109583
20
0.063827
30
0.0
11
0.109583
21
0.065088
31
0.0
0
LINE
8
0
6
CONTINUOUS
10
0.108114
20
0.064152
30
0.0
11
0.109583
21
0.063827
31
0.0
0
LINE
8
0
6
CONTINUOUS
10
0.108114
20
0.065363
30
0.0
11
0.108114
21
0.064152
31
0.0
0
LINE
8
0
6
CONTINUOUS
10
0.113873
20
0.084893
30
0.0
11
0.114444
21
0.085569
31
0.0
0
LINE
8
0
6
CONTINUOUS
10
0.113873
20
0.086013
30
0.0
11
0.113873
21
0.084893
31
0.0
0
LINE
8
0
6
CONTINUOUS
10
0.116066
20
0.085690
30
0.0
11
0.116066
21
0.087340
31
0.0
0
LINE
8
0
6
CONTINUOUS
10
0.114444
20
0.085569
30
0.0
11
0.116066
21
0.085690
31
0.0
0
LINE
8
0
6
CONTINUOUS
10
0.114444
20
0.087078
30
0.0
11
0.114444
21
0.085569
31
0.0
0
LINE
8
0
6
CONTINUOUS
10
0.130661
20
0.081427
30
0.0
11
0.130661
21
0.082896
31
0.0
0
LINE
8
0
6
CONTINUOUS
10
0.130225
20
0.082121
30
0.0
11
0.130661
21
0.081427
31
0.0
0
LINE
8
0
6
CONTINUOUS
10
0.127476
20
0.081791
30
0.0
11
0.128632
21
0.082303
31
0.0
0
LINE
8
0
6
CONTINUOUS
10
0.127476
20
0.082950
30
0.0
11
0.127476
21
0.081791
31
0.0
0
LINE
8
0
6
CONTINUOUS
10
0.130225
20
0.082121
30
0.0
11
0.130225
21
0.083721
31
0.0
0
LINE
8
0
6
CONTINUOUS
10
0.128632
20
0.082303
30
0.0
11
0.130225
21
0.082121
31
0.0
0
LINE
8
0
6
CONTINUOUS
10
0.128632
20
0.083748
30
0.0
11
0.128632
21
0.082303
31
0.0
0
LINE
8
0
6
CONTINUOUS
10
0.140557
20
0.076126
30
0.0
11
0.140557
21
0.077570
31
0.0
0
LINE
8
0
6
CONTINUOUS
10
0.140465
20
0.076845
30
0.0
11
0.140557
21
0.076126
31
0.0
0
LINE
8
0
6
CONTINUOUS
10
0.137619
20
0.076775
30
0.0
11
0.138996
21
0.077170
31
0.0
0
LINE
8
0
6
CONTINUOUS
10
0.137619
20
0.077936
30
0.0
11
0.137619
21
0.076775
31
0.0
0
LINE
8
0
6
CONTINUOUS
10
0.140465
20
0.076845
30
0.0
11
0.140465
21
0.078417
31
0.0
0
LINE
8
0
6
CONTINUOUS
10
0.138996
20
0.077170
30
0.0
11
0.140465
21
0.076845
31
0.0
0
LINE
8
0
6
CONTINUOUS
10
0.138996
20
0.078594
30
0.0
11
0.138996
21
0.077170
31
0.0
0
LINE
8
0
6
CONTINUOUS
10
0.060003
20
0.076325
30
0.0
11
0.060095
21
0.077043
31
0.0
0
LINE
8
0
6
CONTINUOUS
10
0.060003
20
0.077599
30
0.0
11
0.060003
21
0.076325
31
0.0
0
LINE
8
0
6
CONTINUOUS
10
0.061564
20
0.077368
30
0.0
11
0.062941
21
0.076974
31
0.0
0
LINE
8
0
6
CONTINUOUS
10
0.060095
20
0.077043
30
0.0
11
0.061564
21
0.077368
31
0.0
0
LINE
8
0
6
CONTINUOUS
10
0.060095
20
0.078445
30
0.0
11
0.060095
21
0.077043
31
0.0
0
LINE
8
0
6
CONTINUOUS
10
0.069899
20
0.081569
30
0.0
11
0.070335
21
0.082263
31
0.0
0
LINE
8
0
6
CONTINUOUS
10
0.069899
20
0.082922
30
0.0
11
0.069899
21
0.081569
31
0.0
0
LINE
8
0
6
CONTINUOUS
10
0.071928
20
0.082445
30
0.0
11
0.073084
21
0.081932
31
0.0
0
LINE
8
0
6
CONTINUOUS
10
0.070335
20
0.082263
30
0.0
11
0.071928
21
0.082445
31
0.0
0
LINE
8
0
6
CONTINUOUS
10
0.070335
20
0.083747
30
0.0
11
0.070335
21
0.082263
31
0.0
0
LINE
8
0
6
CONTINUOUS
10
0.098691
20
0.085871
30
0.0
11
0.099183
21
0.086558
31
0.0
0
LINE
8
0
6
CONTINUOUS
10
0.098691
20
0.087171
30
0.0
11
0.098691
21
0.085871
31
0.0
0
LINE
8
0
6
CONTINUOUS
10
0.099183
20
0.086558
30
0.0
11
0.100789
21
0.086715
31
0.0
0
LINE
8
0
6
CONTINUOUS
10
0.099183
20
0.088256
30
0.0
11
0.099183
21
0.086558
31
0.0
0
LINE
8
0
6
CONTINUOUS
10
0.100789
20
0.086715
30
0.0
11
0.101904
21
0.086185
31
0.0
0
LINE
8
0
6
CONTINUOUS
10
0.100789
20
0.088493
30
0.0
11
0.100789
21
0.086715
31
0.0
0
LINE
8
0
6
CONTINUOUS
10
0.083443
20
0.085215
30
0.0
11
0.084493
21
0.085769
31
0.0
0
LINE
8
0
6
CONTINUOUS
10
0.083443
20
0.086547
30
0.0
11
0.083443
21
0.085215
31
0.0
0
LINE
8
0
6
CONTINUOUS
10
0.086116
20
0.085648
30
0.0
11
0.086687
21
0.084973
31
0.0
0
LINE
8
0
6
CONTINUOUS
10
0.084493
20
0.085769
30
0.0
11
0.086116
21
0.085648
31
0.0
0
LINE
8
0
6
CONTINUOUS
10
0.084493
20
0.087349
30
0.0
11
0.084493
21
0.085769
31
0.0
0
LINE
8
0
6
CONTINUOUS
10
0.092446
20
0.064184
30
0.0
11
0.093823
21
0.063790
31
0.0
0
LINE
8
0
6
CONTINUOUS
10
0.092446
20
0.065370
30
0.0
11
0.092446
21
0.064184
31
0.0
0
LINE
8
0
6
CONTINUOUS
10
0.082436
20
0.064202
30
0.0
11
0.083813
21
0.063808
31
0.0
0
LINE
8
0
6
CONTINUOUS
10
0.082436
20
0.065396
30
0.0
11
0.082436
21
0.064202
31
0.0
0
LINE
8
0
6
CONTINUOUS
10
0.064333
20
0.069515
30
0.0
11
0.064426
21
0.070234
31
0.0
0
LINE
8
0
6
CONTINUOUS
10
0.064333
20
0.071066
30
0.0
11
0.064333
21
0.069515
31
0.0
0
LINE
8
0
6
CONTINUOUS
10
0.065895
20
0.070559
30
0.0
11
0.067272
21
0.070164
31
0.0
0
LINE
8
0
6
CONTINUOUS
10
0.064426
20
0.070234
30
0.0
11
0.065895
21
0.070559
31
0.0
0
LINE
8
0
6
CONTINUOUS
10
0.064426
20
0.071832
30
0.0
11
0.064426
21
0.070234
31
0.0
0
LINE
8
0
6
CONTINUOUS
10
0.098821
20
0.065267
30
0.0
11
0.099257
21
0.065961
31
0.0
0
LINE
8
0
6
CONTINUOUS
10
0.098821
20
0.066485
30
0.0
11
0.098821
21
0.065267
31
0.0
0
LINE
8
0
6
CONTINUOUS
10
0.089007
20
0.069174
30
0.0
11
0.090163
21
0.068661
31
0.0
0
LINE
8
0
6
CONTINUOUS
10
0.087414
20
0.068992
30
0.0
11
0.089007
21
0.069174
31
0.0
0
LINE
8
0
6
CONTINUOUS
10
0.087414
20
0.070354
30
0.0
11
0.087414
21
0.068992
31
0.0
0
LINE
8
0
6
CONTINUOUS
10
0.071803
20
0.075221
30
0.0
11
0.072239
21
0.075915
31
0.0
0
LINE
8
0
6
CONTINUOUS
10
0.071803
20
0.076873
30
0.0
11
0.071803
21
0.075221
31
0.0
0
LINE
8
0
6
CONTINUOUS
10
0.073831
20
0.076097
30
0.0
11
0.074987
21
0.075585
31
0.0
0
LINE
8
0
6
CONTINUOUS
10
0.072239
20
0.075915
30
0.0
11
0.073831
21
0.076097
31
0.0
0
LINE
8
0
6
CONTINUOUS
10
0.072239
20
0.077657
30
0.0
11
0.072239
21
0.075915
31
0.0
0
LINE
8
0
6
CONTINUOUS
10
0.085032
20
0.073476
30
0.0
11
0.085793
21
0.074114
31
0.0
0
LINE
8
0
6
CONTINUOUS
10
0.085032
20
0.074965
30
0.0
11
0.085032
21
0.073476
31
0.0
0
LINE
8
0
6
CONTINUOUS
10
0.087437
20
0.074146
30
0.0
11
0.088321
21
0.073538
31
0.0
0
LINE
8
0
6
CONTINUOUS
10
0.087437
20
0.074146
30
0.0
11
0.087437
21
0.076147
31
0.0
0
LINE
8
0
6
CONTINUOUS
10
0.085793
20
0.074114
30
0.0
11
0.087437
21
0.074146
31
0.0
0
LINE
8
0
6
CONTINUOUS
10
0.085793
20
0.075746
30
0.0
11
0.085793
21
0.074114
31
0.0
0
LINE
8
0
6
CONTINUOUS
10
0.084096
20
0.079150
30
0.0
11
0.084857
21
0.079789
31
0.0
0
LINE
8
0
6
CONTINUOUS
10
0.084096
20
0.080676
30
0.0
11
0.084096
21
0.079150
31
0.0
0
LINE
8
0
6
CONTINUOUS
10
0.084857
20
0.079789
30
0.0
11
0.086501
21
0.079820
31
0.0
0
LINE
8
0
6
CONTINUOUS
10
0.084857
20
0.081472
30
0.0
11
0.084857
21
0.079789
31
0.0
0
LINE
8
0
6
CONTINUOUS
10
0.099387
20
0.075752
30
0.0
11
0.099387
21
0.077371
31
0.0
0
LINE
8
0
6
CONTINUOUS
10
0.098336
20
0.075198
30
0.0
11
0.099387
21
0.075752
31
0.0
0
LINE
8
0
6
CONTINUOUS
10
0.098336
20
0.076580
30
0.0
11
0.098336
21
0.075198
31
0.0
0
LINE
8
0
6
CONTINUOUS
10
0.101581
20
0.074956
30
0.0
11
0.101581
21
0.077364
31
0.0
0
LINE
8
0
6
CONTINUOUS
10
0.101010
20
0.075631
30
0.0
11
0.101581
21
0.074956
31
0.0
0
LINE
8
0
6
CONTINUOUS
10
0.101010
20
0.077124
30
0.0
11
0.101010
21
0.075631
31
0.0
0
LINE
8
0
6
CONTINUOUS
10
0.098454
20
0.080708
30
0.0
11
0.099505
21
0.081262
31
0.0
0
LINE
8
0
6
CONTINUOUS
10
0.098454
20
0.082180
30
0.0
11
0.098454
21
0.080708
31
0.0
0
LINE
8
0
6
CONTINUOUS
10
0.101127
20
0.081141
30
0.0
11
0.101699
21
0.080465
31
0.0
0
LINE
8
0
6
CONTINUOUS
10
0.099505
20
0.081262
30
0.0
11
0.101127
21
0.081141
31
0.0
0
LINE
8
0
6
CONTINUOUS
10
0.099505
20
0.082915
30
0.0
11
0.099505
21
0.081262
31
0.0
0
LINE
8
0
6
CONTINUOUS
10
0.085944
20
0.058473
30
0.0
11
0.086236
21
0.057765
31
0.0
0
LINE
8
0
6
CONTINUOUS
10
0.084396
20
0.058717
30
0.0
11
0.085944
21
0.058473
31
0.0
0
LINE
8
0
6
CONTINUOUS
10
0.083139
20
0.058253
30
0.0
11
0.084396
21
0.058717
31
0.0
0
LINE
8
0
6
CONTINUOUS
10
0.083139
20
0.059603
30
0.0
11
0.083139
21
0.058253
31
0.0
0
LINE
8
0
6
CONTINUOUS
10
0.074517
20
0.063625
30
0.0
11
0.074808
21
0.062916
31
0.0
0
LINE
8
0
6
CONTINUOUS
10
0.072968
20
0.063869
30
0.0
11
0.074517
21
0.063625
31
0.0
0
LINE
8
0
6
CONTINUOUS
10
0.071711
20
0.063404
30
0.0
11
0.072968
21
0.063869
31
0.0
0
LINE
8
0
6
CONTINUOUS
10
0.071711
20
0.064875
30
0.0
11
0.071711
21
0.063404
31
0.0
0
LINE
8
0
6
CONTINUOUS
10
0.083530
20
0.047356
30
0.0
11
0.084787
21
0.047821
31
0.0
0
LINE
8
0
6
CONTINUOUS
10
0.083530
20
0.047934
30
0.0
11
0.083530
21
0.047356
31
0.0
0
LINE
8
0
6
CONTINUOUS
10
0.098620
20
0.045714
30
0.0
11
0.099877
21
0.046179
31
0.0
0
LINE
8
0
6
CONTINUOUS
10
0.098620
20
0.046498
30
0.0
11
0.098620
21
0.045714
31
0.0
0
LINE
8
0
6
CONTINUOUS
10
0.088016
20
0.053094
30
0.0
11
0.088307
21
0.052386
31
0.0
0
LINE
8
0
6
CONTINUOUS
10
0.086468
20
0.053338
30
0.0
11
0.088016
21
0.053094
31
0.0
0
LINE
8
0
6
CONTINUOUS
10
0.085211
20
0.052874
30
0.0
11
0.086468
21
0.053338
31
0.0
0
LINE
8
0
6
CONTINUOUS
10
0.085211
20
0.054016
30
0.0
11
0.085211
21
0.052874
31
0.0
0
LINE
8
0
6
CONTINUOUS
10
0.067827
20
0.057291
30
0.0
11
0.067827
21
0.058532
31
0.0
0
LINE
8
0
6
CONTINUOUS
10
0.067535
20
0.056583
30
0.0
11
0.067827
21
0.057291
31
0.0
0
LINE
8
0
6
CONTINUOUS
10
0.067535
20
0.057997
30
0.0
11
0.067535
21
0.056583
31
0.0
0
LINE
8
0
6
CONTINUOUS
10
0.078507
20
0.057351
30
0.0
11
0.078507
21
0.058295
31
0.0
0
LINE
8
0
6
CONTINUOUS
10
0.077250
20
0.057816
30
0.0
11
0.078507
21
0.057351
31
0.0
0
LINE
8
0
6
CONTINUOUS
10
0.077250
20
0.057816
30
0.0
11
0.077250
21
0.058822
31
0.0
0
LINE
8
0
6
CONTINUOUS
10
0.075701
20
0.057572
30
0.0
11
0.077250
21
0.057816
31
0.0
0
LINE
8
0
6
CONTINUOUS
10
0.075701
20
0.057572
30
0.0
11
0.075701
21
0.058800
31
0.0
0
LINE
8
0
6
CONTINUOUS
10
0.075410
20
0.056863
30
0.0
11
0.075701
21
0.057572
31
0.0
0
LINE
8
0
6
CONTINUOUS
10
0.075410
20
0.058251
30
0.0
11
0.075410
21
0.056863
31
0.0
0
LINE
8
0
6
CONTINUOUS
10
0.078094
20
0.051839
30
0.0
11
0.078094
21
0.053046
31
0.0
0
LINE
8
0
6
CONTINUOUS
10
0.077803
20
0.051130
30
0.0
11
0.078094
21
0.051839
31
0.0
0
LINE
8
0
6
CONTINUOUS
10
0.077803
20
0.052566
30
0.0
11
0.077803
21
0.051130
31
0.0
0
LINE
8
0
6
CONTINUOUS
10
0.072855
20
0.051393
30
0.0
11
0.072855
21
0.051880
31
0.0
0
LINE
8
0
6
CONTINUOUS
10
0.071598
20
0.051857
30
0.0
11
0.072855
21
0.051393
31
0.0
0
LINE
8
0
6
CONTINUOUS
10
0.071598
20
0.051857
30
0.0
11
0.071598
21
0.052414
31
0.0
0
LINE
8
0
6
CONTINUOUS
10
0.070049
20
0.051613
30
0.0
11
0.071598
21
0.051857
31
0.0
0
LINE
8
0
6
CONTINUOUS
10
0.070049
20
0.051613
30
0.0
11
0.070049
21
0.052462
31
0.0
0
LINE
8
0
6
CONTINUOUS
10
0.069758
20
0.050904
30
0.0
11
0.070049
21
0.051613
31
0.0
0
LINE
8
0
6
CONTINUOUS
10
0.069758
20
0.051978
30
0.0
11
0.069758
21
0.050904
31
0.0
0
LINE
8
0
6
CONTINUOUS
10
0.062677
20
0.057207
30
0.0
11
0.062677
21
0.057490
31
0.0
0
LINE
8
0
6
CONTINUOUS
10
0.061420
20
0.057671
30
0.0
11
0.062677
21
0.057207
31
0.0
0
LINE
8
0
6
CONTINUOUS
10
0.061420
20
0.057671
30
0.0
11
0.061420
21
0.058093
31
0.0
0
LINE
8
0
6
CONTINUOUS
10
0.059872
20
0.057427
30
0.0
11
0.061420
21
0.057671
31
0.0
0
LINE
8
0
6
CONTINUOUS
10
0.059872
20
0.057427
30
0.0
11
0.059872
21
0.058166
31
0.0
0
LINE
8
0
6
CONTINUOUS
10
0.059580
20
0.056719
30
0.0
11
0.059872
21
0.057427
31
0.0
0
LINE
8
0
6
CONTINUOUS
10
0.059580
20
0.057636
30
0.0
11
0.059580
21
0.056719
31
0.0
0
LINE
8
0
6
CONTINUOUS
10
0.093424
20
0.059948
30
0.0
11
0.093715
21
0.059239
31
0.0
0
LINE
8
0
6
CONTINUOUS
10
0.091875
20
0.060192
30
0.0
11
0.093424
21
0.059948
31
0.0
0
LINE
8
0
6
CONTINUOUS
10
0.090618
20
0.059727
30
0.0
11
0.091875
21
0.060192
31
0.0
0
LINE
8
0
6
CONTINUOUS
10
0.090618
20
0.060901
30
0.0
11
0.090618
21
0.059727
31
0.0
0
LINE
8
0
6
CONTINUOUS
10
0.091331
20
0.048615
30
0.0
11
0.092589
21
0.049080
31
0.0
0
LINE
8
0
6
CONTINUOUS
10
0.091331
20
0.049508
30
0.0
11
0.091331
21
0.048615
31
0.0
0
LINE
8
0
6
CONTINUOUS
10
0.101362
20
0.051119
30
0.0
11
0.101654
21
0.050410
31
0.0
0
LINE
8
0
6
CONTINUOUS
10
0.099814
20
0.051363
30
0.0
11
0.101362
21
0.051119
31
0.0
0
LINE
8
0
6
CONTINUOUS
10
0.098557
20
0.050898
30
0.0
11
0.099814
21
0.051363
31
0.0
0
LINE
8
0
6
CONTINUOUS
10
0.098557
20
0.051936
30
0.0
11
0.098557
21
0.050898
31
0.0
0
LINE
8
0
6
CONTINUOUS
10
0.095200
20
0.055039
30
0.0
11
0.095491
21
0.054330
31
0.0
0
LINE
8
0
6
CONTINUOUS
10
0.093652
20
0.055283
30
0.0
11
0.095200
21
0.055039
31
0.0
0
LINE
8
0
6
CONTINUOUS
10
0.092394
20
0.054818
30
0.0
11
0.093652
21
0.055283
31
0.0
0
LINE
8
0
6
CONTINUOUS
10
0.092394
20
0.055893
30
0.0
11
0.092394
21
0.054818
31
0.0
0
LINE
8
0
6
CONTINUOUS
10
0.101614
20
0.057547
30
0.0
11
0.101905
21
0.056839
31
0.0
0
LINE
8
0
6
CONTINUOUS
10
0.100066
20
0.057792
30
0.0
11
0.101614
21
0.057547
31
0.0
0
LINE
8
0
6
CONTINUOUS
10
0.098808
20
0.057327
30
0.0
11
0.100066
21
0.057792
31
0.0
0
LINE
8
0
6
CONTINUOUS
10
0.098808
20
0.058456
30
0.0
11
0.098808
21
0.057327
31
0.0
0
LINE
8
0
6
CONTINUOUS
10
0.098636
20
0.070230
30
0.0
11
0.099519
21
0.070838
31
0.0
0
LINE
8
0
6
CONTINUOUS
10
0.098636
20
0.071534
30
0.0
11
0.098636
21
0.070230
31
0.0
0
LINE
8
0
6
CONTINUOUS
10
0.101164
20
0.070807
30
0.0
11
0.101164
21
0.072201
31
0.0
0
LINE
8
0
6
CONTINUOUS
10
0.099519
20
0.070838
30
0.0
11
0.101164
21
0.070807
31
0.0
0
LINE
8
0
6
CONTINUOUS
10
0.099519
20
0.072242
30
0.0
11
0.099519
21
0.070838
31
0.0
0
LINE
8
0
6
CONTINUOUS
10
0.057530
20
0.063761
30
0.0
11
0.057530
21
0.064329
31
0.0
0
LINE
8
0
6
CONTINUOUS
10
0.056272
20
0.064226
30
0.0
11
0.057530
21
0.063761
31
0.0
0
LINE
8
0
6
CONTINUOUS
10
0.056272
20
0.065040
30
0.0
11
0.056272
21
0.064226
31
0.0
0
LINE
8
0
6
CONTINUOUS
10
0.054724
20
0.063982
30
0.0
11
0.054724
21
0.065165
31
0.0
0
LINE
8
0
6
CONTINUOUS
10
0.054433
20
0.063273
30
0.0
11
0.054724
21
0.063982
31
0.0
0
LINE
8
0
6
CONTINUOUS
10
0.054433
20
0.064561
30
0.0
11
0.054433
21
0.063273
31
0.0
0
LINE
8
0
6
CONTINUOUS
10
0.144287
20
0.064026
30
0.0
11
0.143030
21
0.063561
31
0.0
0
LINE
8
0
6
CONTINUOUS
10
0.145836
20
0.063782
30
0.0
11
0.144287
21
0.064026
31
0.0
0
LINE
8
0
6
CONTINUOUS
10
0.146127
20
0.063073
30
0.0
11
0.145836
21
0.063782
31
0.0
0
LINE
8
0
6
CONTINUOUS
10
0.144870
20
0.062608
30
0.0
11
0.146127
21
0.063073
31
0.0
0
LINE
8
0
6
CONTINUOUS
10
0.143321
20
0.062852
30
0.0
11
0.144870
21
0.062608
31
0.0
0
LINE
8
0
6
CONTINUOUS
10
0.143030
20
0.063561
30
0.0
11
0.143321
21
0.062852
31
0.0
0
LINE
8
0
6
CONTINUOUS
10
0.105360
20
0.055010
30
0.0
11
0.105068
21
0.054301
31
0.0
0
LINE
8
0
6
CONTINUOUS
10
0.106908
20
0.055254
30
0.0
11
0.105360
21
0.055010
31
0.0
0
LINE
8
0
6
CONTINUOUS
10
0.108165
20
0.054789
30
0.0
11
0.106908
21
0.055254
31
0.0
0
LINE
8
0
6
CONTINUOUS
10
0.107874
20
0.054080
30
0.0
11
0.108165
21
0.054789
31
0.0
0
LINE
8
0
6
CONTINUOUS
10
0.106326
20
0.053836
30
0.0
11
0.107874
21
0.054080
31
0.0
0
LINE
8
0
6
CONTINUOUS
10
0.105068
20
0.054301
30
0.0
11
0.106326
21
0.053836
31
0.0
0
LINE
8
0
6
CONTINUOUS
10
0.106423
20
0.048771
30
0.0
11
0.106132
21
0.048062
31
0.0
0
LINE
8
0
6
CONTINUOUS
10
0.107971
20
0.049015
30
0.0
11
0.106423
21
0.048771
31
0.0
0
LINE
8
0
6
CONTINUOUS
10
0.109228
20
0.048550
30
0.0
11
0.107971
21
0.049015
31
0.0
0
LINE
8
0
6
CONTINUOUS
10
0.108937
20
0.047842
30
0.0
11
0.109228
21
0.048550
31
0.0
0
LINE
8
0
6
CONTINUOUS
10
0.107389
20
0.047597
30
0.0
11
0.108937
21
0.047842
31
0.0
0
LINE
8
0
6
CONTINUOUS
10
0.106132
20
0.048062
30
0.0
11
0.107389
21
0.047597
31
0.0
0
LINE
8
0
6
CONTINUOUS
10
0.107136
20
0.059914
30
0.0
11
0.106845
21
0.059205
31
0.0
0
LINE
8
0
6
CONTINUOUS
10
0.108685
20
0.060158
30
0.0
11
0.107136
21
0.059914
31
0.0
0
LINE
8
0
6
CONTINUOUS
10
0.109942
20
0.059693
30
0.0
11
0.108685
21
0.060158
31
0.0
0
LINE
8
0
6
CONTINUOUS
10
0.109651
20
0.058984
30
0.0
11
0.109942
21
0.059693
31
0.0
0
LINE
8
0
6
CONTINUOUS
10
0.108102
20
0.058740
30
0.0
11
0.109651
21
0.058984
31
0.0
0
LINE
8
0
6
CONTINUOUS
10
0.106845
20
0.059205
30
0.0
11
0.108102
21
0.058740
31
0.0
0
LINE
8
0
6
CONTINUOUS
10
0.139140
20
0.057488
30
0.0
11
0.137882
21
0.057023
31
0.0
0
LINE
8
0
6
CONTINUOUS
10
0.140688
20
0.057244
30
0.0
11
0.139140
21
0.057488
31
0.0
0
LINE
8
0
6
CONTINUOUS
10
0.140979
20
0.056535
30
0.0
11
0.140688
21
0.057244
31
0.0
0
LINE
8
0
6
CONTINUOUS
10
0.139722
20
0.056071
30
0.0
11
0.140979
21
0.056535
31
0.0
0
LINE
8
0
6
CONTINUOUS
10
0.138174
20
0.056315
30
0.0
11
0.139722
21
0.056071
31
0.0
0
LINE
8
0
6
CONTINUOUS
10
0.137882
20
0.057023
30
0.0
11
0.138174
21
0.056315
31
0.0
0
LINE
8
0
6
CONTINUOUS
10
0.128962
20
0.051551
30
0.0
11
0.127705
21
0.051087
31
0.0
0
LINE
8
0
6
CONTINUOUS
10
0.130511
20
0.051307
30
0.0
11
0.128962
21
0.051551
31
0.0
0
LINE
8
0
6
CONTINUOUS
10
0.130802
20
0.050598
30
0.0
11
0.130511
21
0.051307
31
0.0
0
LINE
8
0
6
CONTINUOUS
10
0.129544
20
0.050134
30
0.0
11
0.130802
21
0.050598
31
0.0
0
LINE
8
0
6
CONTINUOUS
10
0.127996
20
0.050378
30
0.0
11
0.129544
21
0.050134
31
0.0
0
LINE
8
0
6
CONTINUOUS
10
0.127705
20
0.051087
30
0.0
11
0.127996
21
0.050378
31
0.0
0
LINE
8
0
6
CONTINUOUS
10
0.120918
20
0.052175
30
0.0
11
0.119660
21
0.051710
31
0.0
0
LINE
8
0
6
CONTINUOUS
10
0.122466
20
0.051931
30
0.0
11
0.120918
21
0.052175
31
0.0
0
LINE
8
0
6
CONTINUOUS
10
0.122757
20
0.051222
30
0.0
11
0.122466
21
0.051931
31
0.0
0
LINE
8
0
6
CONTINUOUS
10
0.121500
20
0.050758
30
0.0
11
0.122757
21
0.051222
31
0.0
0
LINE
8
0
6
CONTINUOUS
10
0.119951
20
0.051002
30
0.0
11
0.121500
21
0.050758
31
0.0
0
LINE
8
0
6
CONTINUOUS
10
0.119660
20
0.051710
30
0.0
11
0.119951
21
0.051002
31
0.0
0
LINE
8
0
6
CONTINUOUS
10
0.123310
20
0.057716
30
0.0
11
0.122053
21
0.057252
31
0.0
0
LINE
8
0
6
CONTINUOUS
10
0.124858
20
0.057472
30
0.0
11
0.123310
21
0.057716
31
0.0
0
LINE
8
0
6
CONTINUOUS
10
0.125150
20
0.056764
30
0.0
11
0.124858
21
0.057472
31
0.0
0
LINE
8
0
6
CONTINUOUS
10
0.123892
20
0.056299
30
0.0
11
0.125150
21
0.056764
31
0.0
0
LINE
8
0
6
CONTINUOUS
10
0.122344
20
0.056543
30
0.0
11
0.123892
21
0.056299
31
0.0
0
LINE
8
0
6
CONTINUOUS
10
0.122053
20
0.057252
30
0.0
11
0.122344
21
0.056543
31
0.0
0
LINE
8
0
6
CONTINUOUS
10
0.131185
20
0.057417
30
0.0
11
0.129927
21
0.056952
31
0.0
0
LINE
8
0
6
CONTINUOUS
10
0.132733
20
0.057173
30
0.0
11
0.131185
21
0.057417
31
0.0
0
LINE
8
0
6
CONTINUOUS
10
0.133024
20
0.056464
30
0.0
11
0.132733
21
0.057173
31
0.0
0
LINE
8
0
6
CONTINUOUS
10
0.131767
20
0.055999
30
0.0
11
0.133024
21
0.056464
31
0.0
0
LINE
8
0
6
CONTINUOUS
10
0.130219
20
0.056243
30
0.0
11
0.131767
21
0.055999
31
0.0
0
LINE
8
0
6
CONTINUOUS
10
0.129927
20
0.056952
30
0.0
11
0.130219
21
0.056243
31
0.0
0
LINE
8
0
6
CONTINUOUS
10
0.112543
20
0.053040
30
0.0
11
0.112252
21
0.052331
31
0.0
0
LINE
8
0
6
CONTINUOUS
10
0.114092
20
0.053284
30
0.0
11
0.112543
21
0.053040
31
0.0
0
LINE
8
0
6
CONTINUOUS
10
0.115349
20
0.052819
30
0.0
11
0.114092
21
0.053284
31
0.0
0
LINE
8
0
6
CONTINUOUS
10
0.115058
20
0.052110
30
0.0
11
0.115349
21
0.052819
31
0.0
0
LINE
8
0
6
CONTINUOUS
10
0.113510
20
0.051866
30
0.0
11
0.115058
21
0.052110
31
0.0
0
LINE
8
0
6
CONTINUOUS
10
0.112252
20
0.052331
30
0.0
11
0.113510
21
0.051866
31
0.0
0
LINE
8
0
6
CONTINUOUS
10
0.114224
20
0.046971
30
0.0
11
0.113933
21
0.046262
31
0.0
0
LINE
8
0
6
CONTINUOUS
10
0.115772
20
0.047215
30
0.0
11
0.114224
21
0.046971
31
0.0
0
LINE
8
0
6
CONTINUOUS
10
0.117030
20
0.046750
30
0.0
11
0.115772
21
0.047215
31
0.0
0
LINE
8
0
6
CONTINUOUS
10
0.116739
20
0.046042
30
0.0
11
0.117030
21
0.046750
31
0.0
0
LINE
8
0
6
CONTINUOUS
10
0.115190
20
0.045798
30
0.0
11
0.116739
21
0.046042
31
0.0
0
LINE
8
0
6
CONTINUOUS
10
0.113933
20
0.046262
30
0.0
11
0.115190
21
0.045798
31
0.0
0
LINE
8
0
6
CONTINUOUS
10
0.134851
20
0.063303
30
0.0
11
0.134559
21
0.062595
31
0.0
0
LINE
8
0
6
CONTINUOUS
10
0.136399
20
0.063547
30
0.0
11
0.134851
21
0.063303
31
0.0
0
LINE
8
0
6
CONTINUOUS
10
0.137656
20
0.063083
30
0.0
11
0.136399
21
0.063547
31
0.0
0
LINE
8
0
6
CONTINUOUS
10
0.137365
20
0.062374
30
0.0
11
0.137656
21
0.063083
31
0.0
0
LINE
8
0
6
CONTINUOUS
10
0.135817
20
0.062130
30
0.0
11
0.137365
21
0.062374
31
0.0
0
LINE
8
0
6
CONTINUOUS
10
0.134559
20
0.062595
30
0.0
11
0.135817
21
0.062130
31
0.0
0
LINE
8
0
6
CONTINUOUS
10
0.126043
20
0.063501
30
0.0
11
0.125752
21
0.062793
31
0.0
0
LINE
8
0
6
CONTINUOUS
10
0.127592
20
0.063745
30
0.0
11
0.126043
21
0.063501
31
0.0
0
LINE
8
0
6
CONTINUOUS
10
0.128849
20
0.063281
30
0.0
11
0.127592
21
0.063745
31
0.0
0
LINE
8
0
6
CONTINUOUS
10
0.128558
20
0.062572
30
0.0
11
0.128849
21
0.063281
31
0.0
0
LINE
8
0
6
CONTINUOUS
10
0.127009
20
0.062328
30
0.0
11
0.128558
21
0.062572
31
0.0
0
LINE
8
0
6
CONTINUOUS
10
0.125752
20
0.062793
30
0.0
11
0.127009
21
0.062328
31
0.0
0
LINE
8
0
6
CONTINUOUS
10
0.114615
20
0.058392
30
0.0
11
0.114324
21
0.057683
31
0.0
0
LINE
8
0
6
CONTINUOUS
10
0.116164
20
0.058636
30
0.0
11
0.114615
21
0.058392
31
0.0
0
LINE
8
0
6
CONTINUOUS
10
0.117421
20
0.058171
30
0.0
11
0.116164
21
0.058636
31
0.0
0
LINE
8
0
6
CONTINUOUS
10
0.117130
20
0.057463
30
0.0
11
0.117421
21
0.058171
31
0.0
0
LINE
8
0
6
CONTINUOUS
10
0.115582
20
0.057219
30
0.0
11
0.117130
21
0.057463
31
0.0
0
LINE
8
0
6
CONTINUOUS
10
0.114324
20
0.057683
30
0.0
11
0.115582
21
0.057219
31
0.0
0
LINE
8
0
6
CONTINUOUS
10
0.113175
20
0.079130
30
0.0
11
0.113936
21
0.078491
31
0.0
0
LINE
8
0
6
CONTINUOUS
10
0.114059
20
0.079737
30
0.0
11
0.113175
21
0.079130
31
0.0
0
LINE
8
0
6
CONTINUOUS
10
0.115703
20
0.079706
30
0.0
11
0.114059
21
0.079737
31
0.0
0
LINE
8
0
6
CONTINUOUS
10
0.116464
20
0.079068
30
0.0
11
0.115703
21
0.079706
31
0.0
0
LINE
8
0
6
CONTINUOUS
10
0.115580
20
0.078460
30
0.0
11
0.116464
21
0.079068
31
0.0
0
LINE
8
0
6
CONTINUOUS
10
0.113936
20
0.078491
30
0.0
11
0.115580
21
0.078460
31
0.0
0
LINE
8
0
6
CONTINUOUS
10
0.112239
20
0.073495
30
0.0
11
0.112999
21
0.072857
31
0.0
0
LINE
8
0
6
CONTINUOUS
10
0.113123
20
0.074103
30
0.0
11
0.112239
21
0.073495
31
0.0
0
LINE
8
0
6
CONTINUOUS
10
0.114767
20
0.074072
30
0.0
11
0.113123
21
0.074103
31
0.0
0
LINE
8
0
6
CONTINUOUS
10
0.115528
20
0.073433
30
0.0
11
0.114767
21
0.074072
31
0.0
0
LINE
8
0
6
CONTINUOUS
10
0.114644
20
0.072826
30
0.0
11
0.115528
21
0.073433
31
0.0
0
LINE
8
0
6
CONTINUOUS
10
0.112999
20
0.072857
30
0.0
11
0.114644
21
0.072826
31
0.0
0
LINE
8
0
6
CONTINUOUS
10
0.125572
20
0.075440
30
0.0
11
0.126009
21
0.074746
31
0.0
0
LINE
8
0
6
CONTINUOUS
10
0.126729
20
0.075953
30
0.0
11
0.125572
21
0.075440
31
0.0
0
LINE
8
0
6
CONTINUOUS
10
0.128321
20
0.075771
30
0.0
11
0.126729
21
0.075953
31
0.0
0
LINE
8
0
6
CONTINUOUS
10
0.128757
20
0.075076
30
0.0
11
0.128321
21
0.075771
31
0.0
0
LINE
8
0
6
CONTINUOUS
10
0.127601
20
0.074564
30
0.0
11
0.128757
21
0.075076
31
0.0
0
LINE
8
0
6
CONTINUOUS
10
0.126009
20
0.074746
30
0.0
11
0.127601
21
0.074564
31
0.0
0
LINE
8
0
6
CONTINUOUS
10
0.110397
20
0.068621
30
0.0
11
0.110833
21
0.067927
31
0.0
0
LINE
8
0
6
CONTINUOUS
10
0.111553
20
0.069133
30
0.0
11
0.110397
21
0.068621
31
0.0
0
LINE
8
0
6
CONTINUOUS
10
0.113146
20
0.068951
30
0.0
11
0.111553
21
0.069133
31
0.0
0
LINE
8
0
6
CONTINUOUS
10
0.113582
20
0.068257
30
0.0
11
0.113146
21
0.068951
31
0.0
0
LINE
8
0
6
CONTINUOUS
10
0.112425
20
0.067745
30
0.0
11
0.113582
21
0.068257
31
0.0
0
LINE
8
0
6
CONTINUOUS
10
0.110833
20
0.067927
30
0.0
11
0.112425
21
0.067745
31
0.0
0
LINE
8
0
6
CONTINUOUS
10
0.122162
20
0.069656
30
0.0
11
0.122254
21
0.068937
31
0.0
0
LINE
8
0
6
CONTINUOUS
10
0.123539
20
0.070050
30
0.0
11
0.122162
21
0.069656
31
0.0
0
LINE
8
0
6
CONTINUOUS
10
0.125009
20
0.069725
30
0.0
11
0.123539
21
0.070050
31
0.0
0
LINE
8
0
6
CONTINUOUS
10
0.125101
20
0.069007
30
0.0
11
0.125009
21
0.069725
31
0.0
0
LINE
8
0
6
CONTINUOUS
10
0.123724
20
0.068612
30
0.0
11
0.125101
21
0.069007
31
0.0
0
LINE
8
0
6
CONTINUOUS
10
0.122254
20
0.068937
30
0.0
11
0.123724
21
0.068612
31
0.0
0
LINE
8
0
6
CONTINUOUS
10
0.116747
20
0.063722
30
0.0
11
0.116839
21
0.063003
31
0.0
0
LINE
8
0
6
CONTINUOUS
10
0.118124
20
0.064117
30
0.0
11
0.116747
21
0.063722
31
0.0
0
LINE
8
0
6
CONTINUOUS
10
0.119593
20
0.063792
30
0.0
11
0.118124
21
0.064117
31
0.0
0
LINE
8
0
6
CONTINUOUS
10
0.119685
20
0.063073
30
0.0
11
0.119593
21
0.063792
31
0.0
0
LINE
8
0
6
CONTINUOUS
10
0.118308
20
0.062679
30
0.0
11
0.119685
21
0.063073
31
0.0
0
LINE
8
0
6
CONTINUOUS
10
0.116839
20
0.063003
30
0.0
11
0.118308
21
0.062679
31
0.0
0
LINE
8
0
6
CONTINUOUS
10
0.106737
20
0.063757
30
0.0
11
0.106829
21
0.063038
31
0.0
0
LINE
8
0
6
CONTINUOUS
10
0.108114
20
0.064152
30
0.0
11
0.106737
21
0.063757
31
0.0
0
LINE
8
0
6
CONTINUOUS
10
0.109583
20
0.063827
30
0.0
11
0.108114
21
0.064152
31
0.0
0
LINE
8
0
6
CONTINUOUS
10
0.109675
20
0.063108
30
0.0
11
0.109583
21
0.063827
31
0.0
0
LINE
8
0
6
CONTINUOUS
10
0.108298
20
0.062714
30
0.0
11
0.109675
21
0.063108
31
0.0
0
LINE
8
0
6
CONTINUOUS
10
0.106829
20
0.063038
30
0.0
11
0.108298
21
0.062714
31
0.0
0
LINE
8
0
6
CONTINUOUS
10
0.143151
20
0.070503
30
0.0
11
0.142860
21
0.069794
31
0.0
0
LINE
8
0
6
CONTINUOUS
10
0.144699
20
0.070747
30
0.0
11
0.143151
21
0.070503
31
0.0
0
LINE
8
0
6
CONTINUOUS
10
0.145956
20
0.070282
30
0.0
11
0.144699
21
0.070747
31
0.0
0
LINE
8
0
6
CONTINUOUS
10
0.145665
20
0.069573
30
0.0
11
0.145956
21
0.070282
31
0.0
0
LINE
8
0
6
CONTINUOUS
10
0.144117
20
0.069329
30
0.0
11
0.145665
21
0.069573
31
0.0
0
LINE
8
0
6
CONTINUOUS
10
0.142860
20
0.069794
30
0.0
11
0.144117
21
0.069329
31
0.0
0
LINE
8
0
6
CONTINUOUS
10
0.113873
20
0.084893
30
0.0
11
0.114923
21
0.084339
31
0.0
0
LINE
8
0
6
CONTINUOUS
10
0.114444
20
0.085569
30
0.0
11
0.113873
21
0.084893
31
0.0
0
LINE
8
0
6
CONTINUOUS
10
0.116066
20
0.085690
30
0.0
11
0.114444
21
0.085569
31
0.0
0
LINE
8
0
6
CONTINUOUS
10
0.117117
20
0.085136
30
0.0
11
0.116066
21
0.085690
31
0.0
0
LINE
8
0
6
CONTINUOUS
10
0.116546
20
0.084460
30
0.0
11
0.117117
21
0.085136
31
0.0
0
LINE
8
0
6
CONTINUOUS
10
0.114923
20
0.084339
30
0.0
11
0.116546
21
0.084460
31
0.0
0
LINE
8
0
6
CONTINUOUS
10
0.127476
20
0.081791
30
0.0
11
0.127912
21
0.081097
31
0.0
0
LINE
8
0
6
CONTINUOUS
10
0.128632
20
0.082303
30
0.0
11
0.127476
21
0.081791
31
0.0
0
LINE
8
0
6
CONTINUOUS
10
0.130225
20
0.082121
30
0.0
11
0.128632
21
0.082303
31
0.0
0
LINE
8
0
6
CONTINUOUS
10
0.130661
20
0.081427
30
0.0
11
0.130225
21
0.082121
31
0.0
0
LINE
8
0
6
CONTINUOUS
10
0.129504
20
0.080915
30
0.0
11
0.130661
21
0.081427
31
0.0
0
LINE
8
0
6
CONTINUOUS
10
0.127912
20
0.081097
30
0.0
11
0.129504
21
0.080915
31
0.0
0
LINE
8
0
6
CONTINUOUS
10
0.137619
20
0.076775
30
0.0
11
0.137711
21
0.076056
31
0.0
0
LINE
8
0
6
CONTINUOUS
10
0.138996
20
0.077170
30
0.0
11
0.137619
21
0.076775
31
0.0
0
LINE
8
0
6
CONTINUOUS
10
0.140465
20
0.076845
30
0.0
11
0.138996
21
0.077170
31
0.0
0
LINE
8
0
6
CONTINUOUS
10
0.140557
20
0.076126
30
0.0
11
0.140465
21
0.076845
31
0.0
0
LINE
8
0
6
CONTINUOUS
10
0.139180
20
0.075732
30
0.0
11
0.140557
21
0.076126
31
0.0
0
LINE
8
0
6
CONTINUOUS
10
0.137711
20
0.076056
30
0.0
11
0.139180
21
0.075732
31
0.0
0
LINE
8
0
6
CONTINUOUS
10
0.061380
20
0.075930
30
0.0
11
0.062849
21
0.076255
31
0.0
0
LINE
8
0
6
CONTINUOUS
10
0.060003
20
0.076325
30
0.0
11
0.061380
21
0.075930
31
0.0
0
LINE
8
0
6
CONTINUOUS
10
0.060095
20
0.077043
30
0.0
11
0.060003
21
0.076325
31
0.0
0
LINE
8
0
6
CONTINUOUS
10
0.061564
20
0.077368
30
0.0
11
0.060095
21
0.077043
31
0.0
0
LINE
8
0
6
CONTINUOUS
10
0.062941
20
0.076974
30
0.0
11
0.061564
21
0.077368
31
0.0
0
LINE
8
0
6
CONTINUOUS
10
0.062849
20
0.076255
30
0.0
11
0.062941
21
0.076974
31
0.0
0
LINE
8
0
6
CONTINUOUS
10
0.071056
20
0.081056
30
0.0
11
0.072648
21
0.081238
31
0.0
0
LINE
8
0
6
CONTINUOUS
10
0.069899
20
0.081569
30
0.0
11
0.071056
21
0.081056
31
0.0
0
LINE
8
0
6
CONTINUOUS
10
0.070335
20
0.082263
30
0.0
11
0.069899
21
0.081569
31
0.0
0
LINE
8
0
6
CONTINUOUS
10
0.071928
20
0.082445
30
0.0
11
0.070335
21
0.082263
31
0.0
0
LINE
8
0
6
CONTINUOUS
10
0.073084
20
0.081932
30
0.0
11
0.071928
21
0.082445
31
0.0
0
LINE
8
0
6
CONTINUOUS
10
0.072648
20
0.081238
30
0.0
11
0.073084
21
0.081932
31
0.0
0
LINE
8
0
6
CONTINUOUS
10
0.098691
20
0.085871
30
0.0
11
0.099806
21
0.085341
31
0.0
0
LINE
8
0
6
CONTINUOUS
10
0.099183
20
0.086558
30
0.0
11
0.098691
21
0.085871
31
0.0
0
LINE
8
0
6
CONTINUOUS
10
0.100789
20
0.086715
30
0.0
11
0.099183
21
0.086558
31
0.0
0
LINE
8
0
6
CONTINUOUS
10
0.101904
20
0.086185
30
0.0
11
0.100789
21
0.086715
31
0.0
0
LINE
8
0
6
CONTINUOUS
10
0.101412
20
0.085498
30
0.0
11
0.101904
21
0.086185
31
0.0
0
LINE
8
0
6
CONTINUOUS
10
0.099806
20
0.085341
30
0.0
11
0.101412
21
0.085498
31
0.0
0
LINE
8
0
6
CONTINUOUS
10
0.084014
20
0.084539
30
0.0
11
0.085637
21
0.084418
31
0.0
0
LINE
8
0
6
CONTINUOUS
10
0.083443
20
0.085215
30
0.0
11
0.084014
21
0.084539
31
0.0
0
LINE
8
0
6
CONTINUOUS
10
0.084493
20
0.085769
30
0.0
11
0.083443
21
0.085215
31
0.0
0
LINE
8
0
6
CONTINUOUS
10
0.086116
20
0.085648
30
0.0
11
0.084493
21
0.085769
31
0.0
0
LINE
8
0
6
CONTINUOUS
10
0.086687
20
0.084973
30
0.0
11
0.086116
21
0.085648
31
0.0
0
LINE
8
0
6
CONTINUOUS
10
0.085637
20
0.084418
30
0.0
11
0.086687
21
0.084973
31
0.0
0
LINE
8
0
6
CONTINUOUS
10
0.056443
20
0.069526
30
0.0
11
0.057700
21
0.069990
31
0.0
0
LINE
8
0
6
CONTINUOUS
10
0.054894
20
0.069770
30
0.0
11
0.056443
21
0.069526
31
0.0
0
LINE
8
0
6
CONTINUOUS
10
0.054603
20
0.070479
30
0.0
11
0.054894
21
0.069770
31
0.0
0
LINE
8
0
6
CONTINUOUS
10
0.055861
20
0.070943
30
0.0
11
0.054603
21
0.070479
31
0.0
0
LINE
8
0
6
CONTINUOUS
10
0.057409
20
0.070699
30
0.0
11
0.055861
21
0.070943
31
0.0
0
LINE
8
0
6
CONTINUOUS
10
0.057700
20
0.069990
30
0.0
11
0.057409
21
0.070699
31
0.0
0
LINE
8
0
6
CONTINUOUS
10
0.092262
20
0.062747
30
0.0
11
0.093731
21
0.063071
31
0.0
0
LINE
8
0
6
CONTINUOUS
10
0.090885
20
0.063141
30
0.0
11
0.092262
21
0.062747
31
0.0
0
LINE
8
0
6
CONTINUOUS
10
0.090977
20
0.063860
30
0.0
11
0.090885
21
0.063141
31
0.0
0
LINE
8
0
6
CONTINUOUS
10
0.092446
20
0.064184
30
0.0
11
0.090977
21
0.063860
31
0.0
0
LINE
8
0
6
CONTINUOUS
10
0.093823
20
0.063790
30
0.0
11
0.092446
21
0.064184
31
0.0
0
LINE
8
0
6
CONTINUOUS
10
0.093731
20
0.063071
30
0.0
11
0.093823
21
0.063790
31
0.0
0
LINE
8
0
6
CONTINUOUS
10
0.082252
20
0.062764
30
0.0
11
0.083721
21
0.063089
31
0.0
0
LINE
8
0
6
CONTINUOUS
10
0.080875
20
0.063158
30
0.0
11
0.082252
21
0.062764
31
0.0
0
LINE
8
0
6
CONTINUOUS
10
0.080967
20
0.063877
30
0.0
11
0.080875
21
0.063158
31
0.0
0
LINE
8
0
6
CONTINUOUS
10
0.082436
20
0.064202
30
0.0
11
0.080967
21
0.063877
31
0.0
0
LINE
8
0
6
CONTINUOUS
10
0.083813
20
0.063808
30
0.0
11
0.082436
21
0.064202
31
0.0
0
LINE
8
0
6
CONTINUOUS
10
0.083721
20
0.063089
30
0.0
11
0.083813
21
0.063808
31
0.0
0
LINE
8
0
6
CONTINUOUS
10
0.076836
20
0.068704
30
0.0
11
0.078305
21
0.069028
31
0.0
0
LINE
8
0
6
CONTINUOUS
10
0.075459
20
0.069098
30
0.0
11
0.076836
21
0.068704
31
0.0
0
LINE
8
0
6
CONTINUOUS
10
0.075551
20
0.069817
30
0.0
11
0.075459
21
0.069098
31
0.0
0
LINE
8
0
6
CONTINUOUS
10
0.077020
20
0.070142
30
0.0
11
0.075551
21
0.069817
31
0.0
0
LINE
8
0
6
CONTINUOUS
10
0.078397
20
0.069747
30
0.0
11
0.077020
21
0.070142
31
0.0
0
LINE
8
0
6
CONTINUOUS
10
0.078305
20
0.069028
30
0.0
11
0.078397
21
0.069747
31
0.0
0
LINE
8
0
6
CONTINUOUS
10
0.065710
20
0.069121
30
0.0
11
0.067180
21
0.069445
31
0.0
0
LINE
8
0
6
CONTINUOUS
10
0.064333
20
0.069515
30
0.0
11
0.065710
21
0.069121
31
0.0
0
LINE
8
0
6
CONTINUOUS
10
0.064426
20
0.070234
30
0.0
11
0.064333
21
0.069515
31
0.0
0
LINE
8
0
6
CONTINUOUS
10
0.065895
20
0.070559
30
0.0
11
0.064426
21
0.070234
31
0.0
0
LINE
8
0
6
CONTINUOUS
10
0.067272
20
0.070164
30
0.0
11
0.065895
21
0.070559
31
0.0
0
LINE
8
0
6
CONTINUOUS
10
0.067180
20
0.069445
30
0.0
11
0.067272
21
0.070164
31
0.0
0
LINE
8
0
6
CONTINUOUS
10
0.099977
20
0.064754
30
0.0
11
0.101569
21
0.064936
31
0.0
0
LINE
8
0
6
CONTINUOUS
10
0.098821
20
0.065267
30
0.0
11
0.099977
21
0.064754
31
0.0
0
LINE
8
0
6
CONTINUOUS
10
0.099257
20
0.065961
30
0.0
11
0.098821
21
0.065267
31
0.0
0
LINE
8
0
6
CONTINUOUS
10
0.100849
20
0.066143
30
0.0
11
0.099257
21
0.065961
31
0.0
0
LINE
8
0
6
CONTINUOUS
10
0.102005
20
0.065631
30
0.0
11
0.100849
21
0.066143
31
0.0
0
LINE
8
0
6
CONTINUOUS
10
0.101569
20
0.064936
30
0.0
11
0.102005
21
0.065631
31
0.0
0
LINE
8
0
6
CONTINUOUS
10
0.088135
20
0.067785
30
0.0
11
0.089727
21
0.067967
31
0.0
0
LINE
8
0
6
CONTINUOUS
10
0.086978
20
0.068297
30
0.0
11
0.088135
21
0.067785
31
0.0
0
LINE
8
0
6
CONTINUOUS
10
0.087414
20
0.068992
30
0.0
11
0.086978
21
0.068297
31
0.0
0
LINE
8
0
6
CONTINUOUS
10
0.089007
20
0.069174
30
0.0
11
0.087414
21
0.068992
31
0.0
0
LINE
8
0
6
CONTINUOUS
10
0.090163
20
0.068661
30
0.0
11
0.089007
21
0.069174
31
0.0
0
LINE
8
0
6
CONTINUOUS
10
0.089727
20
0.067967
30
0.0
11
0.090163
21
0.068661
31
0.0
0
LINE
8
0
6
CONTINUOUS
10
0.072959
20
0.074709
30
0.0
11
0.074551
21
0.074891
31
0.0
0
LINE
8
0
6
CONTINUOUS
10
0.071803
20
0.075221
30
0.0
11
0.072959
21
0.074709
31
0.0
0
LINE
8
0
6
CONTINUOUS
10
0.072239
20
0.075915
30
0.0
11
0.071803
21
0.075221
31
0.0
0
LINE
8
0
6
CONTINUOUS
10
0.073831
20
0.076097
30
0.0
11
0.072239
21
0.075915
31
0.0
0
LINE
8
0
6
CONTINUOUS
10
0.074987
20
0.075585
30
0.0
11
0.073831
21
0.076097
31
0.0
0
LINE
8
0
6
CONTINUOUS
10
0.074551
20
0.074891
30
0.0
11
0.074987
21
0.075585
31
0.0
0
LINE
8
0
6
CONTINUOUS
10
0.085916
20
0.072868
30
0.0
11
0.087560
21
0.072900
31
0.0
0
LINE
8
0
6
CONTINUOUS
10
0.085032
20
0.073476
30
0.0
11
0.085916
21
0.072868
31
0.0
0
LINE
8
0
6
CONTINUOUS
10
0.085793
20
0.074114
30
0.0
11
0.085032
21
0.073476
31
0.0
0
LINE
8
0
6
CONTINUOUS
10
0.087437
20
0.074146
30
0.0
11
0.085793
21
0.074114
31
0.0
0
LINE
8
0
6
CONTINUOUS
10
0.088321
20
0.073538
30
0.0
11
0.087437
21
0.074146
31
0.0
0
LINE
8
0
6
CONTINUOUS
10
0.087560
20
0.072900
30
0.0
11
0.088321
21
0.073538
31
0.0
0
LINE
8
0
6
CONTINUOUS
10
0.084980
20
0.078543
30
0.0
11
0.086624
21
0.078574
31
0.0
0
LINE
8
0
6
CONTINUOUS
10
0.084096
20
0.079150
30
0.0
11
0.084980
21
0.078543
31
0.0
0
LINE
8
0
6
CONTINUOUS
10
0.084857
20
0.079789
30
0.0
11
0.084096
21
0.079150
31
0.0
0
LINE
8
0
6
CONTINUOUS
10
0.086501
20
0.079820
30
0.0
11
0.084857
21
0.079789
31
0.0
0
LINE
8
0
6
CONTINUOUS
10
0.087385
20
0.079212
30
0.0
11
0.086501
21
0.079820
31
0.0
0
LINE
8
0
6
CONTINUOUS
10
0.086624
20
0.078574
30
0.0
11
0.087385
21
0.079212
31
0.0
0
LINE
8
0
6
CONTINUOUS
10
0.098908
20
0.074523
30
0.0
11
0.100530
21
0.074402
31
0.0
0
LINE
8
0
6
CONTINUOUS
10
0.098336
20
0.075198
30
0.0
11
0.098908
21
0.074523
31
0.0
0
LINE
8
0
6
CONTINUOUS
10
0.099387
20
0.075752
30
0.0
11
0.098336
21
0.075198
31
0.0
0
LINE
8
0
6
CONTINUOUS
10
0.101010
20
0.075631
30
0.0
11
0.099387
21
0.075752
31
0.0
0
LINE
8
0
6
CONTINUOUS
10
0.101581
20
0.074956
30
0.0
11
0.101010
21
0.075631
31
0.0
0
LINE
8
0
6
CONTINUOUS
10
0.100530
20
0.074402
30
0.0
11
0.101581
21
0.074956
31
0.0
0
LINE
8
0
6
CONTINUOUS
10
0.099025
20
0.080032
30
0.0
11
0.100648
21
0.079911
31
0.0
0
LINE
8
0
6
CONTINUOUS
10
0.098454
20
0.080708
30
0.0
11
0.099025
21
0.080032
31
0.0
0
LINE
8
0
6
CONTINUOUS
10
0.099505
20
0.081262
30
0.0
11
0.098454
21
0.080708
31
0.0
0
LINE
8
0
6
CONTINUOUS
10
0.101127
20
0.081141
30
0.0
11
0.099505
21
0.081262
31
0.0
0
LINE
8
0
6
CONTINUOUS
10
0.101699
20
0.080465
30
0.0
11
0.101127
21
0.081141
31
0.0
0
LINE
8
0
6
CONTINUOUS
10
0.100648
20
0.079911
30
0.0
11
0.101699
21
0.080465
31
0.0
0
LINE
8
0
6
CONTINUOUS
10
0.084978
20
0.057300
30
0.0
11
0.086236
21
0.057765
31
0.0
0
LINE
8
0
6
CONTINUOUS
10
0.083430
20
0.057544
30
0.0
11
0.084978
21
0.057300
31
0.0
0
LINE
8
0
6
CONTINUOUS
10
0.083139
20
0.058253
30
0.0
11
0.083430
21
0.057544
31
0.0
0
LINE
8
0
6
CONTINUOUS
10
0.084396
20
0.058717
30
0.0
11
0.083139
21
0.058253
31
0.0
0
LINE
8
0
6
CONTINUOUS
10
0.085944
20
0.058473
30
0.0
11
0.084396
21
0.058717
31
0.0
0
LINE
8
0
6
CONTINUOUS
10
0.086236
20
0.057765
30
0.0
11
0.085944
21
0.058473
31
0.0
0
LINE
8
0
6
CONTINUOUS
10
0.073550
20
0.062451
30
0.0
11
0.074808
21
0.062916
31
0.0
0
LINE
8
0
6
CONTINUOUS
10
0.072002
20
0.062695
30
0.0
11
0.073550
21
0.062451
31
0.0
0
LINE
8
0
6
CONTINUOUS
10
0.071711
20
0.063404
30
0.0
11
0.072002
21
0.062695
31
0.0
0
LINE
8
0
6
CONTINUOUS
10
0.072968
20
0.063869
30
0.0
11
0.071711
21
0.063404
31
0.0
0
LINE
8
0
6
CONTINUOUS
10
0.074517
20
0.063625
30
0.0
11
0.072968
21
0.063869
31
0.0
0
LINE
8
0
6
CONTINUOUS
10
0.074808
20
0.062916
30
0.0
11
0.074517
21
0.063625
31
0.0
0
LINE
8
0
6
CONTINUOUS
10
0.064743
20
0.062282
30
0.0
11
0.066000
21
0.062746
31
0.0
0
LINE
8
0
6
CONTINUOUS
10
0.063195
20
0.062526
30
0.0
11
0.064743
21
0.062282
31
0.0
0
LINE
8
0
6
CONTINUOUS
10
0.062904
20
0.063234
30
0.0
11
0.063195
21
0.062526
31
0.0
0
LINE
8
0
6
CONTINUOUS
10
0.064161
20
0.063699
30
0.0
11
0.062904
21
0.063234
31
0.0
0
LINE
8
0
6
CONTINUOUS
10
0.065709
20
0.063455
30
0.0
11
0.064161
21
0.063699
31
0.0
0
LINE
8
0
6
CONTINUOUS
10
0.066000
20
0.062746
30
0.0
11
0.065709
21
0.063455
31
0.0
0
LINE
8
0
6
CONTINUOUS
10
0.085370
20
0.046403
30
0.0
11
0.086627
21
0.046868
31
0.0
0
LINE
8
0
6
CONTINUOUS
10
0.083821
20
0.046647
30
0.0
11
0.085370
21
0.046403
31
0.0
0
LINE
8
0
6
CONTINUOUS
10
0.083530
20
0.047356
30
0.0
11
0.083821
21
0.046647
31
0.0
0
LINE
8
0
6
CONTINUOUS
10
0.084787
20
0.047821
30
0.0
11
0.083530
21
0.047356
31
0.0
0
LINE
8
0
6
CONTINUOUS
10
0.086336
20
0.047577
30
0.0
11
0.084787
21
0.047821
31
0.0
0
LINE
8
0
6
CONTINUOUS
10
0.086627
20
0.046868
30
0.0
11
0.086336
21
0.047577
31
0.0
0
LINE
8
0
6
CONTINUOUS
10
0.100459
20
0.044761
30
0.0
11
0.101717
21
0.045226
31
0.0
0
LINE
8
0
6
CONTINUOUS
10
0.098911
20
0.045005
30
0.0
11
0.100459
21
0.044761
31
0.0
0
LINE
8
0
6
CONTINUOUS
10
0.098620
20
0.045714
30
0.0
11
0.098911
21
0.045005
31
0.0
0
LINE
8
0
6
CONTINUOUS
10
0.099877
20
0.046179
30
0.0
11
0.098620
21
0.045714
31
0.0
0
LINE
8
0
6
CONTINUOUS
10
0.101426
20
0.045935
30
0.0
11
0.099877
21
0.046179
31
0.0
0
LINE
8
0
6
CONTINUOUS
10
0.101717
20
0.045226
30
0.0
11
0.101426
21
0.045935
31
0.0
0
LINE
8
0
6
CONTINUOUS
10
0.087050
20
0.051921
30
0.0
11
0.088307
21
0.052386
31
0.0
0
LINE
8
0
6
CONTINUOUS
10
0.085502
20
0.052165
30
0.0
11
0.087050
21
0.051921
31
0.0
0
LINE
8
0
6
CONTINUOUS
10
0.085211
20
0.052874
30
0.0
11
0.085502
21
0.052165
31
0.0
0
LINE
8
0
6
CONTINUOUS
10
0.086468
20
0.053338
30
0.0
11
0.085211
21
0.052874
31
0.0
0
LINE
8
0
6
CONTINUOUS
10
0.088016
20
0.053094
30
0.0
11
0.086468
21
0.053338
31
0.0
0
LINE
8
0
6
CONTINUOUS
10
0.088307
20
0.052386
30
0.0
11
0.088016
21
0.053094
31
0.0
0
LINE
8
0
6
CONTINUOUS
10
0.070341
20
0.056362
30
0.0
11
0.070632
21
0.057071
31
0.0
0
LINE
8
0
6
CONTINUOUS
10
0.068793
20
0.056118
30
0.0
11
0.070341
21
0.056362
31
0.0
0
LINE
8
0
6
CONTINUOUS
10
0.067535
20
0.056583
30
0.0
11
0.068793
21
0.056118
31
0.0
0
LINE
8
0
6
CONTINUOUS
10
0.067827
20
0.057291
30
0.0
11
0.067535
21
0.056583
31
0.0
0
LINE
8
0
6
CONTINUOUS
10
0.069375
20
0.057535
30
0.0
11
0.067827
21
0.057291
31
0.0
0
LINE
8
0
6
CONTINUOUS
10
0.070632
20
0.057071
30
0.0
11
0.069375
21
0.057535
31
0.0
0
LINE
8
0
6
CONTINUOUS
10
0.078216
20
0.056643
30
0.0
11
0.078507
21
0.057351
31
0.0
0
LINE
8
0
6
CONTINUOUS
10
0.076668
20
0.056399
30
0.0
11
0.078216
21
0.056643
31
0.0
0
LINE
8
0
6
CONTINUOUS
10
0.075410
20
0.056863
30
0.0
11
0.076668
21
0.056399
31
0.0
0
LINE
8
0
6
CONTINUOUS
10
0.075701
20
0.057572
30
0.0
11
0.075410
21
0.056863
31
0.0
0
LINE
8
0
6
CONTINUOUS
10
0.077250
20
0.057816
30
0.0
11
0.075701
21
0.057572
31
0.0
0
LINE
8
0
6
CONTINUOUS
10
0.078507
20
0.057351
30
0.0
11
0.077250
21
0.057816
31
0.0
0
LINE
8
0
6
CONTINUOUS
10
0.080608
20
0.050910
30
0.0
11
0.080899
21
0.051619
31
0.0
0
LINE
8
0
6
CONTINUOUS
10
0.079060
20
0.050666
30
0.0
11
0.080608
21
0.050910
31
0.0
0
LINE
8
0
6
CONTINUOUS
10
0.077803
20
0.051130
30
0.0
11
0.079060
21
0.050666
31
0.0
0
LINE
8
0
6
CONTINUOUS
10
0.078094
20
0.051839
30
0.0
11
0.077803
21
0.051130
31
0.0
0
LINE
8
0
6
CONTINUOUS
10
0.079642
20
0.052083
30
0.0
11
0.078094
21
0.051839
31
0.0
0
LINE
8
0
6
CONTINUOUS
10
0.080899
20
0.051619
30
0.0
11
0.079642
21
0.052083
31
0.0
0
LINE
8
0
6
CONTINUOUS
10
0.072564
20
0.050684
30
0.0
11
0.072855
21
0.051393
31
0.0
0
LINE
8
0
6
CONTINUOUS
10
0.071015
20
0.050440
30
0.0
11
0.072564
21
0.050684
31
0.0
0
LINE
8
0
6
CONTINUOUS
10
0.069758
20
0.050904
30
0.0
11
0.071015
21
0.050440
31
0.0
0
LINE
8
0
6
CONTINUOUS
10
0.070049
20
0.051613
30
0.0
11
0.069758
21
0.050904
31
0.0
0
LINE
8
0
6
CONTINUOUS
10
0.071598
20
0.051857
30
0.0
11
0.070049
21
0.051613
31
0.0
0
LINE
8
0
6
CONTINUOUS
10
0.072855
20
0.051393
30
0.0
11
0.071598
21
0.051857
31
0.0
0
LINE
8
0
6
CONTINUOUS
10
0.062386
20
0.056498
30
0.0
11
0.062677
21
0.057207
31
0.0
0
LINE
8
0
6
CONTINUOUS
10
0.060838
20
0.056254
30
0.0
11
0.062386
21
0.056498
31
0.0
0
LINE
8
0
6
CONTINUOUS
10
0.059580
20
0.056719
30
0.0
11
0.060838
21
0.056254
31
0.0
0
LINE
8
0
6
CONTINUOUS
10
0.059872
20
0.057427
30
0.0
11
0.059580
21
0.056719
31
0.0
0
LINE
8
0
6
CONTINUOUS
10
0.061420
20
0.057671
30
0.0
11
0.059872
21
0.057427
31
0.0
0
LINE
8
0
6
CONTINUOUS
10
0.062677
20
0.057207
30
0.0
11
0.061420
21
0.057671
31
0.0
0
LINE
8
0
6
CONTINUOUS
10
0.092457
20
0.058775
30
0.0
11
0.093715
21
0.059239
31
0.0
0
LINE
8
0
6
CONTINUOUS
10
0.090909
20
0.059019
30
0.0
11
0.092457
21
0.058775
31
0.0
0
LINE
8
0
6
CONTINUOUS
10
0.090618
20
0.059727
30
0.0
11
0.090909
21
0.059019
31
0.0
0
LINE
8
0
6
CONTINUOUS
10
0.091875
20
0.060192
30
0.0
11
0.090618
21
0.059727
31
0.0
0
LINE
8
0
6
CONTINUOUS
10
0.093424
20
0.059948
30
0.0
11
0.091875
21
0.060192
31
0.0
0
LINE
8
0
6
CONTINUOUS
10
0.093715
20
0.059239
30
0.0
11
0.093424
21
0.059948
31
0.0
0
LINE
8
0
6
CONTINUOUS
10
0.093171
20
0.047662
30
0.0
11
0.094428
21
0.048127
31
0.0
0
LINE
8
0
6
CONTINUOUS
10
0.091622
20
0.047906
30
0.0
11
0.093171
21
0.047662
31
0.0
0
LINE
8
0
6
CONTINUOUS
10
0.091331
20
0.048615
30
0.0
11
0.091622
21
0.047906
31
0.0
0
LINE
8
0
6
CONTINUOUS
10
0.092589
20
0.049080
30
0.0
11
0.091331
21
0.048615
31
0.0
0
LINE
8
0
6
CONTINUOUS
10
0.094137
20
0.048836
30
0.0
11
0.092589
21
0.049080
31
0.0
0
LINE
8
0
6
CONTINUOUS
10
0.094428
20
0.048127
30
0.0
11
0.094137
21
0.048836
31
0.0
0
LINE
8
0
6
CONTINUOUS
10
0.100396
20
0.049945
30
0.0
11
0.101654
21
0.050410
31
0.0
0
LINE
8
0
6
CONTINUOUS
10
0.098848
20
0.050189
30
0.0
11
0.100396
21
0.049945
31
0.0
0
LINE
8
0
6
CONTINUOUS
10
0.098557
20
0.050898
30
0.0
11
0.098848
21
0.050189
31
0.0
0
LINE
8
0
6
CONTINUOUS
10
0.099814
20
0.051363
30
0.0
11
0.098557
21
0.050898
31
0.0
0
LINE
8
0
6
CONTINUOUS
10
0.101362
20
0.051119
30
0.0
11
0.099814
21
0.051363
31
0.0
0
LINE
8
0
6
CONTINUOUS
10
0.101654
20
0.050410
30
0.0
11
0.101362
21
0.051119
31
0.0
0
LINE
8
0
6
CONTINUOUS
10
0.094234
20
0.053865
30
0.0
11
0.095491
21
0.054330
31
0.0
0
LINE
8
0
6
CONTINUOUS
10
0.092686
20
0.054109
30
0.0
11
0.094234
21
0.053865
31
0.0
0
LINE
8
0
6
CONTINUOUS
10
0.092394
20
0.054818
30
0.0
11
0.092686
21
0.054109
31
0.0
0
LINE
8
0
6
CONTINUOUS
10
0.093652
20
0.055283
30
0.0
11
0.092394
21
0.054818
31
0.0
0
LINE
8
0
6
CONTINUOUS
10
0.095200
20
0.055039
30
0.0
11
0.093652
21
0.055283
31
0.0
0
LINE
8
0
6
CONTINUOUS
10
0.095491
20
0.054330
30
0.0
11
0.095200
21
0.055039
31
0.0
0
LINE
8
0
6
CONTINUOUS
10
0.100648
20
0.056374
30
0.0
11
0.101905
21
0.056839
31
0.0
0
LINE
8
0
6
CONTINUOUS
10
0.099100
20
0.056618
30
0.0
11
0.100648
21
0.056374
31
0.0
0
LINE
8
0
6
CONTINUOUS
10
0.098808
20
0.057327
30
0.0
11
0.099100
21
0.056618
31
0.0
0
LINE
8
0
6
CONTINUOUS
10
0.100066
20
0.057792
30
0.0
11
0.098808
21
0.057327
31
0.0
0
LINE
8
0
6
CONTINUOUS
10
0.101614
20
0.057547
30
0.0
11
0.100066
21
0.057792
31
0.0
0
LINE
8
0
6
CONTINUOUS
10
0.101905
20
0.056839
30
0.0
11
0.101614
21
0.057547
31
0.0
0
LINE
8
0
6
CONTINUOUS
10
0.098636
20
0.070230
30
0.0
11
0.099396
21
0.069592
31
0.0
0
LINE
8
0
6
CONTINUOUS
10
0.099519
20
0.070838
30
0.0
11
0.098636
21
0.070230
31
0.0
0
LINE
8
0
6
CONTINUOUS
10
0.101164
20
0.070807
30
0.0
11
0.099519
21
0.070838
31
0.0
0
LINE
8
0
6
CONTINUOUS
10
0.101924
20
0.070168
30
0.0
11
0.101164
21
0.070807
31
0.0
0
LINE
8
0
6
CONTINUOUS
10
0.101040
20
0.069560
30
0.0
11
0.101924
21
0.070168
31
0.0
0
LINE
8
0
6
CONTINUOUS
10
0.099396
20
0.069592
30
0.0
11
0.101040
21
0.069560
31
0.0
0
LINE
8
0
6
CONTINUOUS
10
0.057239
20
0.063052
30
0.0
11
0.057530
21
0.063761
31
0.0
0
LINE
8
0
6
CONTINUOUS
10
0.055690
20
0.062808
30
0.0
11
0.057239
21
0.063052
31
0.0
0
LINE
8
0
6
CONTINUOUS
10
0.054433
20
0.063273
30
0.0
11
0.055690
21
0.062808
31
0.0
0
LINE
8
0
6
CONTINUOUS
10
0.054724
20
0.063982
30
0.0
11
0.054433
21
0.063273
31
0.0
0
LINE
8
0
6
CONTINUOUS
10
0.056272
20
0.064226
30
0.0
11
0.054724
21
0.063982
31
0.0
0
LINE
8
0
6
CONTINUOUS
10
0.057530
20
0.063761
30
0.0
11
0.056272
21
0.064226
31
0.0
0
LINE
8
0
6
CONTINUOUS
10
0.107448
20
-0.072726
30
0.0
11
0.110510
21
-0.071494
31
0.0
0
LINE
8
0
6
CONTINUOUS
10
0.110514
20
-0.071922
30
0.0
11
0.107451
21
-0.073155
31
0.0
0
LINE
8
0
6
CONTINUOUS
10
0.096746
20
-0.073492
30
0.0
11
0.093313
21
-0.072726
31
0.0
0
LINE
8
0
6
CONTINUOUS
10
0.096943
20
-0.073567
30
0.0
11
0.093687
21
-0.072814
31
0.0
0
LINE
8
0
6
CONTINUOUS
10
0.096744
20
-0.073921
30
0.0
11
0.093310
21
-0.073155
31
0.0
0
LINE
8
0
6
CONTINUOUS
10
0.104015
20
-0.073492
30
0.0
11
0.100380
21
-0.073752
31
0.0
0
LINE
8
0
6
CONTINUOUS
10
0.103818
20
-0.073567
30
0.0
11
0.100380
21
-0.073822
31
0.0
0
LINE
8
0
6
CONTINUOUS
10
0.104016
20
-0.073921
30
0.0
11
0.100380
21
-0.074182
31
0.0
0
LINE
8
0
6
CONTINUOUS
10
0.114967
20
-0.067904
30
0.0
11
0.116148
21
-0.065726
31
0.0
0
LINE
8
0
6
CONTINUOUS
10
0.116152
20
-0.066152
30
0.0
11
0.114971
21
-0.068331
31
0.0
0
LINE
8
0
6
CONTINUOUS
10
0.107448
20
-0.072726
30
0.0
11
0.104015
21
-0.073492
31
0.0
0
LINE
8
0
6
CONTINUOUS
10
0.107074
20
-0.072814
30
0.0
11
0.103818
21
-0.073567
31
0.0
0
LINE
8
0
6
CONTINUOUS
10
0.107451
20
-0.073155
30
0.0
11
0.104016
21
-0.073921
31
0.0
0
LINE
8
0
6
CONTINUOUS
10
0.090251
20
-0.071494
30
0.0
11
0.093313
21
-0.072726
31
0.0
0
LINE
8
0
6
CONTINUOUS
10
0.093310
20
-0.073155
30
0.0
11
0.090247
21
-0.071922
31
0.0
0
LINE
8
0
6
CONTINUOUS
10
0.085794
20
-0.067904
30
0.0
11
0.087704
21
-0.069859
31
0.0
0
LINE
8
0
6
CONTINUOUS
10
0.087700
20
-0.070287
30
0.0
11
0.085790
21
-0.068331
31
0.0
0
LINE
8
0
6
CONTINUOUS
10
0.087704
20
-0.069859
30
0.0
11
0.090251
21
-0.071494
31
0.0
0
LINE
8
0
6
CONTINUOUS
10
0.090247
20
-0.071922
30
0.0
11
0.087700
21
-0.070287
31
0.0
0
LINE
8
0
6
CONTINUOUS
10
0.113057
20
-0.069859
30
0.0
11
0.114967
21
-0.067904
31
0.0
0
LINE
8
0
6
CONTINUOUS
10
0.114971
20
-0.068331
30
0.0
11
0.113061
21
-0.070287
31
0.0
0
LINE
8
0
6
CONTINUOUS
10
0.116544
20
-0.063434
30
0.0
11
0.116542
21
-0.063221
31
0.0
0
LINE
8
0
6
CONTINUOUS
10
0.116148
20
-0.065726
30
0.0
11
0.116544
21
-0.063434
31
0.0
0
LINE
8
0
6
CONTINUOUS
10
0.116548
20
-0.063860
30
0.0
11
0.116152
21
-0.066152
31
0.0
0
LINE
8
0
6
CONTINUOUS
10
0.116550
20
-0.064073
30
0.0
11
0.116548
21
-0.063860
31
0.0
0
LINE
8
0
6
CONTINUOUS
10
0.110510
20
-0.071494
30
0.0
11
0.113057
21
-0.069859
31
0.0
0
LINE
8
0
6
CONTINUOUS
10
0.113061
20
-0.070287
30
0.0
11
0.110514
21
-0.071922
31
0.0
0
LINE
8
0
6
CONTINUOUS
10
0.084219
20
-0.063221
30
0.0
11
0.084217
21
-0.063434
31
0.0
0
LINE
8
0
6
CONTINUOUS
10
0.084217
20
-0.063434
30
0.0
11
0.084613
21
-0.065726
31
0.0
0
LINE
8
0
6
CONTINUOUS
10
0.084213
20
-0.063860
30
0.0
11
0.084211
21
-0.064073
31
0.0
0
LINE
8
0
6
CONTINUOUS
10
0.084609
20
-0.066152
30
0.0
11
0.084213
21
-0.063860
31
0.0
0
LINE
8
0
6
CONTINUOUS
10
0.100380
20
-0.073752
30
0.0
11
0.096746
21
-0.073492
31
0.0
0
LINE
8
0
6
CONTINUOUS
10
0.100380
20
-0.073822
30
0.0
11
0.096943
21
-0.073567
31
0.0
0
LINE
8
0
6
CONTINUOUS
10
0.100380
20
-0.074182
30
0.0
11
0.096744
21
-0.073921
31
0.0
0
LINE
8
0
6
CONTINUOUS
10
0.084613
20
-0.065726
30
0.0
11
0.085794
21
-0.067904
31
0.0
0
LINE
8
0
6
CONTINUOUS
10
0.085790
20
-0.068331
30
0.0
11
0.084609
21
-0.066152
31
0.0
0
LINE
8
0
6
CONTINUOUS
10
0.116903
20
-0.101275
30
0.0
11
0.116550
21
-0.064073
31
0.0
0
LINE
8
0
6
CONTINUOUS
10
0.084211
20
-0.064073
30
0.0
11
0.083858
21
-0.101275
31
0.0
0
LINE
8
0
6
CONTINUOUS
10
0.092603
20
-0.109000
30
0.0
11
0.100380
21
-0.109000
31
0.0
0
LINE
8
0
6
CONTINUOUS
10
0.100380
20
-0.103000
30
0.0
11
0.092605
21
-0.103000
31
0.0
0
LINE
8
0
6
CONTINUOUS
10
0.108155
20
-0.109000
30
0.0
11
0.115574
21
-0.109000
31
0.0
0
LINE
8
0
6
CONTINUOUS
10
0.115574
20
-0.103000
30
0.0
11
0.108155
21
-0.103000
31
0.0
0
LINE
8
0
6
CONTINUOUS
10
0.104134
20
-0.101275
30
0.0
11
0.100380
21
-0.101275
31
0.0
0
LINE
8
0
6
CONTINUOUS
10
0.100381
20
-0.103000
30
0.0
11
0.104753
21
-0.103000
31
0.0
0
LINE
8
0
6
CONTINUOUS
10
0.104409
20
-0.102618
30
0.0
11
0.100381
21
-0.102618
31
0.0
0
LINE
8
0
6
CONTINUOUS
10
0.082604
20
-0.103000
30
0.0
11
0.083855
21
-0.103000
31
0.0
0
LINE
8
0
6
CONTINUOUS
10
0.085464
20
-0.101275
30
0.0
11
0.084264
21
-0.101275
31
0.0
0
LINE
8
0
6
CONTINUOUS
10
0.083527
20
-0.102618
30
0.0
11
0.084750
21
-0.102618
31
0.0
0
LINE
8
0
6
CONTINUOUS
10
0.115297
20
-0.101275
30
0.0
11
0.113361
21
-0.101275
31
0.0
0
LINE
8
0
6
CONTINUOUS
10
0.114874
20
-0.103000
30
0.0
11
0.116906
21
-0.103000
31
0.0
0
LINE
8
0
6
CONTINUOUS
10
0.116011
20
-0.102618
30
0.0
11
0.114032
21
-0.102618
31
0.0
0
LINE
8
0
6
CONTINUOUS
10
0.093105
20
-0.101275
30
0.0
11
0.089985
21
-0.101275
31
0.0
0
LINE
8
0
6
CONTINUOUS
10
0.088637
20
-0.103000
30
0.0
11
0.092036
21
-0.103000
31
0.0
0
LINE
8
0
6
CONTINUOUS
10
0.092631
20
-0.102618
30
0.0
11
0.089387
21
-0.102618
31
0.0
0
LINE
8
0
6
CONTINUOUS
10
0.089985
20
-0.101275
30
0.0
11
0.087400
21
-0.101275
31
0.0
0
LINE
8
0
6
CONTINUOUS
10
0.085887
20
-0.103000
30
0.0
11
0.088637
21
-0.103000
31
0.0
0
LINE
8
0
6
CONTINUOUS
10
0.089387
20
-0.102618
30
0.0
11
0.086729
21
-0.102618
31
0.0
0
LINE
8
0
6
CONTINUOUS
10
0.096008
20
-0.103000
30
0.0
11
0.100381
21
-0.103000
31
0.0
0
LINE
8
0
6
CONTINUOUS
10
0.100380
20
-0.101275
30
0.0
11
0.096627
21
-0.101275
31
0.0
0
LINE
8
0
6
CONTINUOUS
10
0.096353
20
-0.102618
30
0.0
11
0.100381
21
-0.102618
31
0.0
0
LINE
8
0
6
CONTINUOUS
10
0.107656
20
-0.101275
30
0.0
11
0.104134
21
-0.101275
31
0.0
0
LINE
8
0
6
CONTINUOUS
10
0.104753
20
-0.103000
30
0.0
11
0.108726
21
-0.103000
31
0.0
0
LINE
8
0
6
CONTINUOUS
10
0.108130
20
-0.102618
30
0.0
11
0.104409
21
-0.102618
31
0.0
0
LINE
8
0
6
CONTINUOUS
10
0.087400
20
-0.101275
30
0.0
11
0.085464
21
-0.101275
31
0.0
0
LINE
8
0
6
CONTINUOUS
10
0.083855
20
-0.103000
30
0.0
11
0.085887
21
-0.103000
31
0.0
0
LINE
8
0
6
CONTINUOUS
10
0.086729
20
-0.102618
30
0.0
11
0.084750
21
-0.102618
31
0.0
0
LINE
8
0
6
CONTINUOUS
10
0.096627
20
-0.101275
30
0.0
11
0.093105
21
-0.101275
31
0.0
0
LINE
8
0
6
CONTINUOUS
10
0.092036
20
-0.103000
30
0.0
11
0.096008
21
-0.103000
31
0.0
0
LINE
8
0
6
CONTINUOUS
10
0.096353
20
-0.102618
30
0.0
11
0.092631
21
-0.102618
31
0.0
0
LINE
8
0
6
CONTINUOUS
10
0.083858
20
-0.101275
30
0.0
11
0.083457
21
-0.102214
31
0.0
0
LINE
8
0
6
CONTINUOUS
10
0.084264
20
-0.101275
30
0.0
11
0.083858
21
-0.101275
31
0.0
0
LINE
8
0
6
CONTINUOUS
10
0.083457
20
-0.102214
30
0.0
11
0.083114
21
-0.102618
31
0.0
0
LINE
8
0
6
CONTINUOUS
10
0.082181
20
-0.103000
30
0.0
11
0.082604
21
-0.103000
31
0.0
0
LINE
8
0
6
CONTINUOUS
10
0.083114
20
-0.102618
30
0.0
11
0.082181
21
-0.103000
31
0.0
0
LINE
8
0
6
CONTINUOUS
10
0.083527
20
-0.102618
30
0.0
11
0.083114
21
-0.102618
31
0.0
0
LINE
8
0
6
CONTINUOUS
10
0.110776
20
-0.101275
30
0.0
11
0.107656
21
-0.101275
31
0.0
0
LINE
8
0
6
CONTINUOUS
10
0.108726
20
-0.103000
30
0.0
11
0.112124
21
-0.103000
31
0.0
0
LINE
8
0
6
CONTINUOUS
10
0.111374
20
-0.102618
30
0.0
11
0.108130
21
-0.102618
31
0.0
0
LINE
8
0
6
CONTINUOUS
10
0.117304
20
-0.102214
30
0.0
11
0.116903
21
-0.101275
31
0.0
0
LINE
8
0
6
CONTINUOUS
10
0.116903
20
-0.101275
30
0.0
11
0.116497
21
-0.101275
31
0.0
0
LINE
8
0
6
CONTINUOUS
10
0.117647
20
-0.102618
30
0.0
11
0.117304
21
-0.102214
31
0.0
0
LINE
8
0
6
CONTINUOUS
10
0.118157
20
-0.103000
30
0.0
11
0.118580
21
-0.103000
31
0.0
0
LINE
8
0
6
CONTINUOUS
10
0.117647
20
-0.102618
30
0.0
11
0.117233
21
-0.102618
31
0.0
0
LINE
8
0
6
CONTINUOUS
10
0.118580
20
-0.103000
30
0.0
11
0.117647
21
-0.102618
31
0.0
0
LINE
8
0
6
CONTINUOUS
10
0.113361
20
-0.101275
30
0.0
11
0.110776
21
-0.101275
31
0.0
0
LINE
8
0
6
CONTINUOUS
10
0.112124
20
-0.103000
30
0.0
11
0.114874
21
-0.103000
31
0.0
0
LINE
8
0
6
CONTINUOUS
10
0.114032
20
-0.102618
30
0.0
11
0.111374
21
-0.102618
31
0.0
0
LINE
8
0
6
CONTINUOUS
10
0.116497
20
-0.101275
30
0.0
11
0.115297
21
-0.101275
31
0.0
0
LINE
8
0
6
CONTINUOUS
10
0.116906
20
-0.103000
30
0.0
11
0.118157
21
-0.103000
31
0.0
0
LINE
8
0
6
CONTINUOUS
10
0.117233
20
-0.102618
30
0.0
11
0.116011
21
-0.102618
31
0.0
0
LINE
8
0
6
CONTINUOUS
10
0.084379
20
-0.046334
30
0.0
11
0.084219
21
-0.063221
31
0.0
0
LINE
8
0
6
CONTINUOUS
10
0.116542
20
-0.063221
30
0.0
11
0.116381
21
-0.046334
31
0.0
0
LINE
8
0
6
CONTINUOUS
10
0.113720
20
-0.044984
30
0.0
11
0.113386
21
-0.043082
31
0.0
0
LINE
8
0
6
CONTINUOUS
10
0.113386
20
-0.043082
30
0.0
11
0.112399
21
-0.041275
31
0.0
0
LINE
8
0
6
CONTINUOUS
10
0.088362
20
-0.041275
30
0.0
11
0.087375
21
-0.043082
31
0.0
0
LINE
8
0
6
CONTINUOUS
10
0.087375
20
-0.043082
30
0.0
11
0.087041
21
-0.044984
31
0.0
0
LINE
8
0
6
CONTINUOUS
10
0.094592
20
-0.052686
30
0.0
11
0.092063
21
-0.051668
31
0.0
0
LINE
8
0
6
CONTINUOUS
10
0.092063
20
-0.052080
30
0.0
11
0.094592
21
-0.053099
31
0.0
0
LINE
8
0
6
CONTINUOUS
10
0.087041
20
-0.044984
30
0.0
11
0.087041
21
-0.045397
31
0.0
0
LINE
8
0
6
CONTINUOUS
10
0.087375
20
-0.046887
30
0.0
11
0.087041
21
-0.044984
31
0.0
0
LINE
8
0
6
CONTINUOUS
10
0.087041
20
-0.045397
30
0.0
11
0.087375
21
-0.047299
31
0.0
0
LINE
8
0
6
CONTINUOUS
10
0.113386
20
-0.046887
30
0.0
11
0.112399
21
-0.048693
31
0.0
0
LINE
8
0
6
CONTINUOUS
10
0.112399
20
-0.049106
30
0.0
11
0.113386
21
-0.047299
31
0.0
0
LINE
8
0
6
CONTINUOUS
10
0.106168
20
-0.052686
30
0.0
11
0.103349
21
-0.053319
31
0.0
0
LINE
8
0
6
CONTINUOUS
10
0.103349
20
-0.053731
30
0.0
11
0.106168
21
-0.053099
31
0.0
0
LINE
8
0
6
CONTINUOUS
10
0.097412
20
-0.053319
30
0.0
11
0.094592
21
-0.052686
31
0.0
0
LINE
8
0
6
CONTINUOUS
10
0.094592
20
-0.053099
30
0.0
11
0.097412
21
-0.053731
31
0.0
0
LINE
8
0
6
CONTINUOUS
10
0.088362
20
-0.048693
30
0.0
11
0.087375
21
-0.046887
31
0.0
0
LINE
8
0
6
CONTINUOUS
10
0.087375
20
-0.047299
30
0.0
11
0.088362
21
-0.049106
31
0.0
0
LINE
8
0
6
CONTINUOUS
10
0.113720
20
-0.044984
30
0.0
11
0.113386
21
-0.046887
31
0.0
0
LINE
8
0
6
CONTINUOUS
10
0.113720
20
-0.045397
30
0.0
11
0.113720
21
-0.044984
31
0.0
0
LINE
8
0
6
CONTINUOUS
10
0.113386
20
-0.047299
30
0.0
11
0.113720
21
-0.045397
31
0.0
0
LINE
8
0
6
CONTINUOUS
10
0.108698
20
-0.051668
30
0.0
11
0.106168
21
-0.052686
31
0.0
0
LINE
8
0
6
CONTINUOUS
10
0.106168
20
-0.053099
30
0.0
11
0.108698
21
-0.052080
31
0.0
0
LINE
8
0
6
CONTINUOUS
10
0.100380
20
-0.053533
30
0.0
11
0.097412
21
-0.053319
31
0.0
0
LINE
8
0
6
CONTINUOUS
10
0.097412
20
-0.053731
30
0.0
11
0.100380
21
-0.053945
31
0.0
0
LINE
8
0
6
CONTINUOUS
10
0.089951
20
-0.050314
30
0.0
11
0.088362
21
-0.048693
31
0.0
0
LINE
8
0
6
CONTINUOUS
10
0.088362
20
-0.049106
30
0.0
11
0.089951
21
-0.050727
31
0.0
0
LINE
8
0
6
CONTINUOUS
10
0.110810
20
-0.050314
30
0.0
11
0.108698
21
-0.051668
31
0.0
0
LINE
8
0
6
CONTINUOUS
10
0.108698
20
-0.052080
30
0.0
11
0.110810
21
-0.050727
31
0.0
0
LINE
8
0
6
CONTINUOUS
10
0.092063
20
-0.051668
30
0.0
11
0.089951
21
-0.050314
31
0.0
0
LINE
8
0
6
CONTINUOUS
10
0.089951
20
-0.050727
30
0.0
11
0.092063
21
-0.052080
31
0.0
0
LINE
8
0
6
CONTINUOUS
10
0.112399
20
-0.048693
30
0.0
11
0.110810
21
-0.050314
31
0.0
0
LINE
8
0
6
CONTINUOUS
10
0.110810
20
-0.050727
30
0.0
11
0.112399
21
-0.049106
31
0.0
0
LINE
8
0
6
CONTINUOUS
10
0.103941
20
-0.055394
30
0.0
11
0.100380
21
-0.055651
31
0.0
0
LINE
8
0
6
CONTINUOUS
10
0.107323
20
-0.054635
30
0.0
11
0.103941
21
-0.055394
31
0.0
0
LINE
8
0
6
CONTINUOUS
10
0.110357
20
-0.053414
30
0.0
11
0.107323
21
-0.054635
31
0.0
0
LINE
8
0
6
CONTINUOUS
10
0.112891
20
-0.051790
30
0.0
11
0.110357
21
-0.053414
31
0.0
0
LINE
8
0
6
CONTINUOUS
10
0.114797
20
-0.049846
30
0.0
11
0.112891
21
-0.051790
31
0.0
0
LINE
8
0
6
CONTINUOUS
10
0.115980
20
-0.047678
30
0.0
11
0.114797
21
-0.049846
31
0.0
0
LINE
8
0
6
CONTINUOUS
10
0.116381
20
-0.045397
30
0.0
11
0.115980
21
-0.047678
31
0.0
0
LINE
8
0
6
CONTINUOUS
10
0.116381
20
-0.046334
30
0.0
11
0.116381
21
-0.045397
31
0.0
0
LINE
8
0
6
CONTINUOUS
10
0.116381
20
-0.045397
30
0.0
11
0.115980
21
-0.043115
31
0.0
0
LINE
8
0
6
CONTINUOUS
10
0.115980
20
-0.043115
30
0.0
11
0.114797
21
-0.040948
31
0.0
0
LINE
8
0
6
CONTINUOUS
10
0.114797
20
-0.040948
30
0.0
11
0.112920
21
-0.039033
31
0.0
0
LINE
8
0
6
CONTINUOUS
10
0.087841
20
-0.039034
30
0.0
11
0.085964
21
-0.040948
31
0.0
0
LINE
8
0
6
CONTINUOUS
10
0.085964
20
-0.040948
30
0.0
11
0.084780
21
-0.043115
31
0.0
0
LINE
8
0
6
CONTINUOUS
10
0.084780
20
-0.043115
30
0.0
11
0.084379
21
-0.045397
31
0.0
0
LINE
8
0
6
CONTINUOUS
10
0.084379
20
-0.045397
30
0.0
11
0.084379
21
-0.046334
31
0.0
0
LINE
8
0
6
CONTINUOUS
10
0.084780
20
-0.047678
30
0.0
11
0.084379
21
-0.045397
31
0.0
0
LINE
8
0
6
CONTINUOUS
10
0.085964
20
-0.049846
30
0.0
11
0.084780
21
-0.047678
31
0.0
0
LINE
8
0
6
CONTINUOUS
10
0.087870
20
-0.051790
30
0.0
11
0.085964
21
-0.049846
31
0.0
0
LINE
8
0
6
CONTINUOUS
10
0.090404
20
-0.053414
30
0.0
11
0.087870
21
-0.051790
31
0.0
0
LINE
8
0
6
CONTINUOUS
10
0.093438
20
-0.054635
30
0.0
11
0.090404
21
-0.053414
31
0.0
0
LINE
8
0
6
CONTINUOUS
10
0.096820
20
-0.055394
30
0.0
11
0.093438
21
-0.054635
31
0.0
0
LINE
8
0
6
CONTINUOUS
10
0.100380
20
-0.055651
30
0.0
11
0.096820
21
-0.055394
31
0.0
0
LINE
8
0
6
CONTINUOUS
10
0.103349
20
-0.053319
30
0.0
11
0.100380
21
-0.053533
31
0.0
0
LINE
8
0
6
CONTINUOUS
10
0.100380
20
-0.053945
30
0.0
11
0.103349
21
-0.053731
31
0.0
0
LINE
8
0
6
CONTINUOUS
10
0.135380
20
-0.103789
30
0.0
11
0.135380
21
-0.103000
31
0.0
0
LINE
8
0
6
CONTINUOUS
10
0.135380
20
-0.103000
30
0.0
11
0.134503
21
-0.103000
31
0.0
0
LINE
8
0
6
CONTINUOUS
10
0.134503
20
-0.103000
30
0.0
11
0.131914
21
-0.103000
31
0.0
0
LINE
8
0
6
CONTINUOUS
10
0.131914
20
-0.103000
30
0.0
11
0.127745
21
-0.103000
31
0.0
0
LINE
8
0
6
CONTINUOUS
10
0.127745
20
-0.103000
30
0.0
11
0.122199
21
-0.103000
31
0.0
0
LINE
8
0
6
CONTINUOUS
10
0.122199
20
-0.103000
30
0.0
11
0.115574
21
-0.103000
31
0.0
0
LINE
8
0
6
CONTINUOUS
10
0.108155
20
-0.103000
30
0.0
11
0.100380
21
-0.103000
31
0.0
0
LINE
8
0
6
CONTINUOUS
10
0.092605
20
-0.103000
30
0.0
11
0.085187
21
-0.103000
31
0.0
0
LINE
8
0
6
CONTINUOUS
10
0.085187
20
-0.103000
30
0.0
11
0.078561
21
-0.103000
31
0.0
0
LINE
8
0
6
CONTINUOUS
10
0.078561
20
-0.103000
30
0.0
11
0.073016
21
-0.103000
31
0.0
0
LINE
8
0
6
CONTINUOUS
10
0.073016
20
-0.103000
30
0.0
11
0.068847
21
-0.103000
31
0.0
0
LINE
8
0
6
CONTINUOUS
10
0.068847
20
-0.103000
30
0.0
11
0.066258
21
-0.103000
31
0.0
0
LINE
8
0
6
CONTINUOUS
10
0.065380
20
-0.103000
30
0.0
11
0.065380
21
-0.103789
31
0.0
0
LINE
8
0
6
CONTINUOUS
10
0.066258
20
-0.103000
30
0.0
11
0.065380
21
-0.103000
31
0.0
0
LINE
8
0
6
CONTINUOUS
10
0.135380
20
-0.108211
30
0.0
11
0.135380
21
-0.103789
31
0.0
0
LINE
8
0
6
CONTINUOUS
10
0.065380
20
-0.103789
30
0.0
11
0.065380
21
-0.108211
31
0.0
0
LINE
8
0
6
CONTINUOUS
10
0.135380
20
-0.109000
30
0.0
11
0.135380
21
-0.108211
31
0.0
0
LINE
8
0
6
CONTINUOUS
10
0.134503
20
-0.109000
30
0.0
11
0.135380
21
-0.109000
31
0.0
0
LINE
8
0
6
CONTINUOUS
10
0.131914
20
-0.109000
30
0.0
11
0.134503
21
-0.109000
31
0.0
0
LINE
8
0
6
CONTINUOUS
10
0.127745
20
-0.109000
30
0.0
11
0.131914
21
-0.109000
31
0.0
0
LINE
8
0
6
CONTINUOUS
10
0.122199
20
-0.109000
30
0.0
11
0.127745
21
-0.109000
31
0.0
0
LINE
8
0
6
CONTINUOUS
10
0.115574
20
-0.109000
30
0.0
11
0.122199
21
-0.109000
31
0.0
0
LINE
8
0
6
CONTINUOUS
10
0.100380
20
-0.109000
30
0.0
11
0.108155
21
-0.109000
31
0.0
0
LINE
8
0
6
CONTINUOUS
10
0.085293
20
-0.109000
30
0.0
11
0.092603
21
-0.109000
31
0.0
0
LINE
8
0
6
CONTINUOUS
10
0.078584
20
-0.109000
30
0.0
11
0.085293
21
-0.109000
31
0.0
0
LINE
8
0
6
CONTINUOUS
10
0.072971
20
-0.109000
30
0.0
11
0.078584
21
-0.109000
31
0.0
0
LINE
8
0
6
CONTINUOUS
10
0.068833
20
-0.109000
30
0.0
11
0.072971
21
-0.109000
31
0.0
0
LINE
8
0
6
CONTINUOUS
10
0.066249
20
-0.109000
30
0.0
11
0.068833
21
-0.109000
31
0.0
0
LINE
8
0
6
CONTINUOUS
10
0.065380
20
-0.109000
30
0.0
11
0.066249
21
-0.109000
31
0.0
0
LINE
8
0
6
CONTINUOUS
10
0.065380
20
-0.108211
30
0.0
11
0.065380
21
-0.109000
31
0.0
0
LINE
8
0
6
CONTINUOUS
10
0.115343
20
0.047973
30
0.0
11
0.115436
21
0.048000
31
0.0
0
LINE
8
0
6
CONTINUOUS
10
0.099183
20
0.088256
30
0.0
11
0.098691
21
0.087171
31
0.0
0
LINE
8
0
6
CONTINUOUS
10
0.106423
20
0.049585
30
0.0
11
0.107971
21
0.049828
31
0.0
0
LINE
8
0
6
CONTINUOUS
10
0.106423
20
0.049585
30
0.0
11
0.106132
21
0.049016
31
0.0
0
LINE
8
0
6
CONTINUOUS
10
0.112489
20
0.053754
30
0.0
11
0.112252
21
0.053280
31
0.0
0
LINE
8
0
6
CONTINUOUS
10
0.100380
20
0.077163
30
0.0
11
0.101010
21
0.077124
31
0.0
0
LINE
8
0
6
CONTINUOUS
10
0.056272
20
0.065040
30
0.0
11
0.057530
21
0.064329
31
0.0
0
LINE
8
0
6
CONTINUOUS
10
0.054724
20
0.065165
30
0.0
11
0.054672
21
0.065059
31
0.0
0
LINE
8
0
6
CONTINUOUS
10
0.054672
20
0.065059
30
0.0
11
0.054433
21
0.064561
31
0.0
0
LINE
8
0
6
CONTINUOUS
10
0.100380
20
0.072190
30
0.0
11
0.101164
21
0.072201
31
0.0
0
LINE
8
0
6
CONTINUOUS
10
0.099519
20
0.072242
30
0.0
11
0.100380
21
0.072190
31
0.0
0
LINE
8
0
6
CONTINUOUS
10
0.067827
20
0.058532
30
0.0
11
0.067535
21
0.057997
31
0.0
0
LINE
8
0
6
CONTINUOUS
10
0.077250
20
0.058822
30
0.0
11
0.078507
21
0.058295
31
0.0
0
LINE
8
0
6
CONTINUOUS
10
0.059872
20
0.058166
30
0.0
11
0.059580
21
0.057636
31
0.0
0
LINE
8
0
6
CONTINUOUS
10
0.071598
20
0.052414
30
0.0
11
0.072855
21
0.051880
31
0.0
0
LINE
8
0
6
CONTINUOUS
10
0.114029
20
0.075642
30
0.0
11
0.114767
21
0.075720
31
0.0
0
LINE
8
0
6
CONTINUOUS
10
0.119660
20
0.052543
30
0.0
11
0.120918
21
0.053043
31
0.0
0
LINE
8
0
6
CONTINUOUS
10
0.126729
20
0.077587
30
0.0
11
0.127527
21
0.077624
31
0.0
0
LINE
8
0
6
CONTINUOUS
10
0.125572
20
0.076807
30
0.0
11
0.126709
21
0.077572
31
0.0
0
LINE
8
0
6
CONTINUOUS
10
0.105360
20
0.055955
30
0.0
11
0.105068
21
0.055356
31
0.0
0
LINE
8
0
6
CONTINUOUS
10
0.064426
20
0.071832
30
0.0
11
0.064333
21
0.071066
31
0.0
0
LINE
8
0
6
CONTINUOUS
10
0.072239
20
0.077657
30
0.0
11
0.071920
21
0.077096
31
0.0
0
LINE
8
0
6
CONTINUOUS
10
0.123539
20
0.071514
30
0.0
11
0.125009
21
0.071286
31
0.0
0
LINE
8
0
6
CONTINUOUS
10
0.130225
20
0.083721
30
0.0
11
0.130661
21
0.082896
31
0.0
0
LINE
8
0
6
CONTINUOUS
10
0.137885
20
0.078054
30
0.0
11
0.138996
21
0.078594
31
0.0
0
LINE
8
0
6
CONTINUOUS
10
0.137619
20
0.077936
30
0.0
11
0.137885
21
0.078054
31
0.0
0
LINE
8
0
6
CONTINUOUS
10
0.060095
20
0.078445
30
0.0
11
0.060003
21
0.077599
31
0.0
0
LINE
8
0
6
CONTINUOUS
10
0.134665
20
0.071931
30
0.0
11
0.136134
21
0.071801
31
0.0
0
LINE
8
0
6
CONTINUOUS
10
0.114224
20
0.047763
30
0.0
11
0.115343
21
0.047973
31
0.0
0
LINE
8
0
6
CONTINUOUS
10
0.127143
20
0.064913
30
0.0
11
0.127592
21
0.065061
31
0.0
0
LINE
8
0
6
CONTINUOUS
10
0.126043
20
0.064628
30
0.0
11
0.127143
21
0.064913
31
0.0
0
LINE
8
0
6
CONTINUOUS
10
0.127592
20
0.065061
30
0.0
11
0.128849
21
0.064839
31
0.0
0
LINE
8
0
6
CONTINUOUS
10
0.114615
20
0.059439
30
0.0
11
0.116164
21
0.059880
31
0.0
0
LINE
8
0
6
CONTINUOUS
10
0.113123
20
0.075633
30
0.0
11
0.112303
21
0.074830
31
0.0
0
LINE
8
0
6
CONTINUOUS
10
0.113123
20
0.075633
30
0.0
11
0.114029
21
0.075642
31
0.0
0
LINE
8
0
6
CONTINUOUS
10
0.111553
20
0.070511
30
0.0
11
0.112493
21
0.070415
31
0.0
0
LINE
8
0
6
CONTINUOUS
10
0.112493
20
0.070415
30
0.0
11
0.113146
21
0.070347
31
0.0
0
LINE
8
0
6
CONTINUOUS
10
0.114059
20
0.081313
30
0.0
11
0.113785
21
0.081024
31
0.0
0
LINE
8
0
6
CONTINUOUS
10
0.113785
20
0.081024
30
0.0
11
0.113175
21
0.080430
31
0.0
0
LINE
8
0
6
CONTINUOUS
10
0.114059
20
0.081313
30
0.0
11
0.115703
21
0.081450
31
0.0
0
LINE
8
0
6
CONTINUOUS
10
0.069375
20
0.058471
30
0.0
11
0.070632
21
0.057876
31
0.0
0
LINE
8
0
6
CONTINUOUS
10
0.078117
20
0.053047
30
0.0
11
0.079642
21
0.053065
31
0.0
0
LINE
8
0
6
CONTINUOUS
10
0.131185
20
0.058437
30
0.0
11
0.132733
21
0.058498
31
0.0
0
LINE
8
0
6
CONTINUOUS
10
0.137882
20
0.057454
30
0.0
11
0.139140
21
0.058057
31
0.0
0
LINE
8
0
6
CONTINUOUS
10
0.080967
20
0.065239
30
0.0
11
0.080875
21
0.064554
31
0.0
0
LINE
8
0
6
CONTINUOUS
10
0.075551
20
0.071307
30
0.0
11
0.075459
21
0.070480
31
0.0
0
LINE
8
0
6
CONTINUOUS
10
0.087414
20
0.070354
30
0.0
11
0.087273
21
0.070086
31
0.0
0
LINE
8
0
6
CONTINUOUS
10
0.090977
20
0.065095
30
0.0
11
0.090885
21
0.064375
31
0.0
0
LINE
8
0
6
CONTINUOUS
10
0.116747
20
0.064841
30
0.0
11
0.116951
21
0.064923
31
0.0
0
LINE
8
0
6
CONTINUOUS
10
0.083443
20
0.086547
30
0.0
11
0.084493
21
0.087349
31
0.0
0
LINE
8
0
6
CONTINUOUS
10
0.122759
20
0.071174
30
0.0
11
0.123539
21
0.071514
31
0.0
0
LINE
8
0
6
CONTINUOUS
10
-0.128740
20
0.008419
30
0.0
11
-0.130342
21
0.006652
31
0.0
0
LINE
8
0
6
CONTINUOUS
10
-0.108860
20
0.006517
30
0.0
11
-0.108826
21
0.006410
31
0.0
0
LINE
8
0
6
CONTINUOUS
10
-0.108898
20
0.006652
30
0.0
11
-0.108860
21
0.006517
31
0.0
0
LINE
8
0
6
CONTINUOUS
10
-0.112993
20
0.009871
30
0.0
11
-0.112429
21
0.009504
31
0.0
0
LINE
8
0
6
CONTINUOUS
10
-0.128740
20
0.008419
30
0.0
11
-0.126810
21
0.009504
31
0.0
0
LINE
8
0
6
CONTINUOUS
10
-0.130342
20
0.006652
30
0.0
11
-0.130380
21
0.006517
31
0.0
0
LINE
8
0
6
CONTINUOUS
10
-0.112429
20
0.009504
30
0.0
11
-0.110499
21
0.008419
31
0.0
0
LINE
8
0
6
CONTINUOUS
10
-0.130380
20
0.006517
30
0.0
11
-0.130413
21
0.006410
31
0.0
0
LINE
8
0
6
CONTINUOUS
10
-0.126810
20
0.009504
30
0.0
11
-0.126246
21
0.009871
31
0.0
0
ENDSEC
0
EOF
