999
Erzeugt mit innoplus bad 
0
SECTION
2
HEADER
9
$ACADVER
1
AC1009
9
$DWGCODEPAGE
3
ISO8859-1
0
ENDSEC
0
SECTION
2
TABLES
0
TABLE
2
LAYER
70
1
0
LAYER
2
0
70
0
62
7
6
CONTINUOUS
0
ENDTAB
0
ENDSEC
0
SECTION
2
ENTITIES
0
LINE
8
0
6
CONTINUOUS
10
0.020467
20
0.030621
30
0.0
11
0.020467
21
0.028853
31
0.0
0
LINE
8
0
6
CONTINUOUS
10
0.055571
20
0.028821
30
0.0
11
0.055571
21
0.030621
31
0.0
0
LINE
8
0
6
CONTINUOUS
10
-0.070689
20
0.000499
30
0.0
11
-0.070289
21
0.000499
31
0.0
0
LINE
8
0
6
CONTINUOUS
10
-0.070689
20
0.004295
30
0.0
11
-0.070689
21
0.002215
31
0.0
0
LINE
8
0
6
CONTINUOUS
10
-0.070289
20
0.026499
30
0.0
11
-0.070689
21
0.026499
31
0.0
0
LINE
8
0
6
CONTINUOUS
10
-0.060992
20
0.026499
30
0.0
11
-0.070289
21
0.026499
31
0.0
0
LINE
8
0
6
CONTINUOUS
10
-0.060612
20
0.007051
30
0.0
11
-0.060612
21
0.010171
31
0.0
0
LINE
8
0
6
CONTINUOUS
10
-0.060612
20
0.000967
30
0.0
11
-0.060612
21
0.002215
31
0.0
0
LINE
8
0
6
CONTINUOUS
10
-0.060612
20
0.000499
30
0.0
11
-0.060612
21
0.000967
31
0.0
0
LINE
8
0
6
CONTINUOUS
10
-0.060992
20
0.000499
30
0.0
11
-0.060612
21
0.000499
31
0.0
0
LINE
8
0
6
CONTINUOUS
10
-0.070689
20
0.007051
30
0.0
11
-0.070689
21
0.004295
31
0.0
0
LINE
8
0
6
CONTINUOUS
10
-0.070689
20
0.025499
30
0.0
11
-0.078275
21
0.025499
31
0.0
0
LINE
8
0
6
CONTINUOUS
10
-0.078442
20
0.001499
30
0.0
11
-0.078275
21
0.001499
31
0.0
0
LINE
8
0
6
CONTINUOUS
10
-0.078689
20
0.008582
30
0.0
11
-0.078689
21
0.006505
31
0.0
0
LINE
8
0
6
CONTINUOUS
10
-0.078689
20
0.023627
30
0.0
11
-0.078689
21
0.023502
31
0.0
0
LINE
8
0
6
CONTINUOUS
10
-0.078689
20
0.023627
30
0.0
11
-0.078689
21
0.023502
31
0.0
0
LINE
8
0
6
CONTINUOUS
10
-0.078275
20
0.025499
30
0.0
11
-0.078443
21
0.025499
31
0.0
0
LINE
8
0
6
CONTINUOUS
10
-0.078275
20
0.001499
30
0.0
11
-0.070689
21
0.001499
31
0.0
0
LINE
8
0
6
CONTINUOUS
10
-0.054520
20
0.025499
30
0.0
11
-0.060612
21
0.025499
31
0.0
0
LINE
8
0
6
CONTINUOUS
10
-0.060612
20
0.001499
30
0.0
11
-0.048094
21
0.001499
31
0.0
0
LINE
8
0
6
CONTINUOUS
10
-0.060612
20
0.026499
30
0.0
11
-0.060992
21
0.026499
31
0.0
0
LINE
8
0
6
CONTINUOUS
10
-0.060612
20
0.026031
30
0.0
11
-0.060612
21
0.026499
31
0.0
0
LINE
8
0
6
CONTINUOUS
10
-0.070289
20
0.000499
30
0.0
11
-0.060992
21
0.000499
31
0.0
0
LINE
8
0
6
CONTINUOUS
10
-0.060612
20
0.019947
30
0.0
11
-0.060612
21
0.022703
31
0.0
0
LINE
8
0
6
CONTINUOUS
10
-0.060612
20
0.024783
30
0.0
11
-0.060612
21
0.026031
31
0.0
0
LINE
8
0
6
CONTINUOUS
10
-0.060612
20
0.022703
30
0.0
11
-0.060612
21
0.024783
31
0.0
0
LINE
8
0
6
CONTINUOUS
10
-0.060612
20
0.016827
30
0.0
11
-0.060612
21
0.013499
31
0.0
0
LINE
8
0
6
CONTINUOUS
10
-0.060612
20
0.019947
30
0.0
11
-0.060612
21
0.016827
31
0.0
0
LINE
8
0
6
CONTINUOUS
10
-0.060612
20
0.013499
30
0.0
11
-0.060612
21
0.010171
31
0.0
0
LINE
8
0
6
CONTINUOUS
10
-0.060612
20
0.007051
30
0.0
11
-0.060612
21
0.004295
31
0.0
0
LINE
8
0
6
CONTINUOUS
10
-0.060612
20
0.004295
30
0.0
11
-0.060612
21
0.002215
31
0.0
0
LINE
8
0
6
CONTINUOUS
10
-0.070689
20
0.013499
30
0.0
11
-0.070689
21
0.016827
31
0.0
0
LINE
8
0
6
CONTINUOUS
10
-0.070689
20
0.016827
30
0.0
11
-0.070689
21
0.019947
31
0.0
0
LINE
8
0
6
CONTINUOUS
10
-0.070689
20
0.019947
30
0.0
11
-0.070689
21
0.022703
31
0.0
0
LINE
8
0
6
CONTINUOUS
10
-0.070689
20
0.022703
30
0.0
11
-0.070689
21
0.024783
31
0.0
0
LINE
8
0
6
CONTINUOUS
10
-0.070689
20
0.024783
30
0.0
11
-0.070689
21
0.026031
31
0.0
0
LINE
8
0
6
CONTINUOUS
10
-0.070689
20
0.026031
30
0.0
11
-0.070689
21
0.026499
31
0.0
0
LINE
8
0
6
CONTINUOUS
10
-0.070689
20
0.010171
30
0.0
11
-0.070689
21
0.013499
31
0.0
0
LINE
8
0
6
CONTINUOUS
10
-0.070689
20
0.007051
30
0.0
11
-0.070689
21
0.010171
31
0.0
0
LINE
8
0
6
CONTINUOUS
10
-0.070689
20
0.000967
30
0.0
11
-0.070689
21
0.002215
31
0.0
0
LINE
8
0
6
CONTINUOUS
10
-0.070689
20
0.000499
30
0.0
11
-0.070689
21
0.000967
31
0.0
0
LINE
8
0
6
CONTINUOUS
10
-0.078689
20
0.016523
30
0.0
11
-0.078689
21
0.013499
31
0.0
0
LINE
8
0
6
CONTINUOUS
10
-0.078443
20
0.013499
30
0.0
11
-0.078443
21
0.016571
31
0.0
0
LINE
8
0
6
CONTINUOUS
10
-0.078689
20
0.019307
30
0.0
11
-0.078689
21
0.016523
31
0.0
0
LINE
8
0
6
CONTINUOUS
10
-0.078443
20
0.016571
30
0.0
11
-0.078443
21
0.019451
31
0.0
0
LINE
8
0
6
CONTINUOUS
10
-0.078689
20
0.021755
30
0.0
11
-0.078689
21
0.019307
31
0.0
0
LINE
8
0
6
CONTINUOUS
10
-0.078443
20
0.019451
30
0.0
11
-0.078443
21
0.021995
31
0.0
0
LINE
8
0
6
CONTINUOUS
10
-0.078689
20
0.023627
30
0.0
11
-0.078689
21
0.021755
31
0.0
0
LINE
8
0
6
CONTINUOUS
10
-0.078443
20
0.021995
30
0.0
11
-0.078443
21
0.023915
31
0.0
0
LINE
8
0
6
CONTINUOUS
10
-0.078689
20
0.024779
30
0.0
11
-0.078689
21
0.023627
31
0.0
0
LINE
8
0
6
CONTINUOUS
10
-0.078443
20
0.023915
30
0.0
11
-0.078443
21
0.025067
31
0.0
0
LINE
8
0
6
CONTINUOUS
10
-0.078689
20
0.025211
30
0.0
11
-0.078689
21
0.024779
31
0.0
0
LINE
8
0
6
CONTINUOUS
10
-0.078443
20
0.025499
30
0.0
11
-0.078689
21
0.025211
31
0.0
0
LINE
8
0
6
CONTINUOUS
10
-0.078443
20
0.025067
30
0.0
11
-0.078443
21
0.025499
31
0.0
0
LINE
8
0
6
CONTINUOUS
10
-0.078443
20
0.010427
30
0.0
11
-0.078443
21
0.013499
31
0.0
0
LINE
8
0
6
CONTINUOUS
10
-0.078689
20
0.013499
30
0.0
11
-0.078689
21
0.010475
31
0.0
0
LINE
8
0
6
CONTINUOUS
10
-0.078443
20
0.007547
30
0.0
11
-0.078443
21
0.010427
31
0.0
0
LINE
8
0
6
CONTINUOUS
10
-0.078689
20
0.010475
30
0.0
11
-0.078689
21
0.007691
31
0.0
0
LINE
8
0
6
CONTINUOUS
10
-0.078442
20
0.005003
30
0.0
11
-0.078443
21
0.007547
31
0.0
0
LINE
8
0
6
CONTINUOUS
10
-0.078689
20
0.007691
30
0.0
11
-0.078689
21
0.005243
31
0.0
0
LINE
8
0
6
CONTINUOUS
10
-0.078443
20
0.003083
30
0.0
11
-0.078442
21
0.005003
31
0.0
0
LINE
8
0
6
CONTINUOUS
10
-0.078689
20
0.005243
30
0.0
11
-0.078689
21
0.003371
31
0.0
0
LINE
8
0
6
CONTINUOUS
10
-0.078443
20
0.001931
30
0.0
11
-0.078443
21
0.003083
31
0.0
0
LINE
8
0
6
CONTINUOUS
10
-0.078689
20
0.003371
30
0.0
11
-0.078689
21
0.002219
31
0.0
0
LINE
8
0
6
CONTINUOUS
10
-0.078442
20
0.001499
30
0.0
11
-0.078443
21
0.001931
31
0.0
0
LINE
8
0
6
CONTINUOUS
10
-0.078689
20
0.001787
30
0.0
11
-0.078442
21
0.001499
31
0.0
0
LINE
8
0
6
CONTINUOUS
10
-0.078689
20
0.002219
30
0.0
11
-0.078689
21
0.001787
31
0.0
0
LINE
8
0
6
CONTINUOUS
10
-0.078689
20
0.013499
30
0.0
11
-0.078689
21
0.010946
31
0.0
0
LINE
8
0
6
CONTINUOUS
10
-0.078689
20
0.010907
30
0.0
11
-0.078689
21
0.013499
31
0.0
0
LINE
8
0
6
CONTINUOUS
10
-0.078689
20
0.008582
30
0.0
11
-0.078689
21
0.006505
31
0.0
0
LINE
8
0
6
CONTINUOUS
10
-0.078689
20
0.023569
30
0.0
11
-0.078689
21
0.023423
31
0.0
0
LINE
8
0
6
CONTINUOUS
10
0.066399
20
0.009732
30
0.0
11
0.066885
21
0.010288
31
0.0
0
LINE
8
0
6
CONTINUOUS
10
0.066314
20
0.013427
30
0.0
11
0.064945
21
0.012558
31
0.0
0
LINE
8
0
6
CONTINUOUS
10
0.075506
20
0.012261
30
0.0
11
0.070817
21
0.012626
31
0.0
0
LINE
8
0
6
CONTINUOUS
10
0.075506
20
0.012261
30
0.0
11
0.070986
21
0.012041
31
0.0
0
LINE
8
0
6
CONTINUOUS
10
0.070838
20
0.011860
30
0.0
11
0.075517
21
0.012001
31
0.0
0
LINE
8
0
6
CONTINUOUS
10
0.078640
20
0.012339
30
0.0
11
0.077587
21
0.012252
31
0.0
0
LINE
8
0
6
CONTINUOUS
10
0.078256
20
0.011987
30
0.0
11
0.078640
21
0.012339
31
0.0
0
LINE
8
0
6
CONTINUOUS
10
0.070817
20
0.012626
30
0.0
11
0.075479
21
0.012339
31
0.0
0
LINE
8
0
6
CONTINUOUS
10
0.064945
20
0.012558
30
0.0
11
0.063906
21
0.011581
31
0.0
0
LINE
8
0
6
CONTINUOUS
10
0.065956
20
0.009136
30
0.0
11
0.066399
21
0.009732
31
0.0
0
LINE
8
0
6
CONTINUOUS
10
0.067786
20
0.012464
30
0.0
11
0.066881
21
0.011960
31
0.0
0
LINE
8
0
6
CONTINUOUS
10
0.067463
20
0.010758
30
0.0
11
0.068145
21
0.011039
31
0.0
0
LINE
8
0
6
CONTINUOUS
10
0.067815
20
0.011547
30
0.0
11
0.067102
21
0.011171
31
0.0
0
LINE
8
0
6
CONTINUOUS
10
0.075526
20
0.014282
30
0.0
11
0.071170
21
0.014730
31
0.0
0
LINE
8
0
6
CONTINUOUS
10
0.066053
20
0.010017
30
0.0
11
0.066468
21
0.010709
31
0.0
0
LINE
8
0
6
CONTINUOUS
10
0.065972
20
0.011459
30
0.0
11
0.065436
21
0.010575
31
0.0
0
LINE
8
0
6
CONTINUOUS
10
0.068253
20
0.014302
30
0.0
11
0.066314
21
0.013427
31
0.0
0
LINE
8
0
6
CONTINUOUS
10
0.064584
20
0.010963
30
0.0
11
0.063961
21
0.010137
31
0.0
0
LINE
8
0
6
CONTINUOUS
10
0.065682
20
0.009316
30
0.0
11
0.066053
21
0.010017
31
0.0
0
LINE
8
0
6
CONTINUOUS
10
0.065436
20
0.010575
30
0.0
11
0.065111
21
0.009597
31
0.0
0
LINE
8
0
6
CONTINUOUS
10
0.067102
20
0.011171
30
0.0
11
0.066468
21
0.010709
31
0.0
0
LINE
8
0
6
CONTINUOUS
10
0.066885
20
0.010288
30
0.0
11
0.067463
21
0.010758
31
0.0
0
LINE
8
0
6
CONTINUOUS
10
0.063906
20
0.011581
30
0.0
11
0.062990
21
0.010520
31
0.0
0
LINE
8
0
6
CONTINUOUS
10
0.067786
20
0.012464
30
0.0
11
0.070817
21
0.012626
31
0.0
0
LINE
8
0
6
CONTINUOUS
10
0.067722
20
0.013443
30
0.0
11
0.070879
21
0.013934
31
0.0
0
LINE
8
0
6
CONTINUOUS
10
0.075539
20
0.013791
30
0.0
11
0.070880
21
0.014441
31
0.0
0
LINE
8
0
6
CONTINUOUS
10
0.070875
20
0.014231
30
0.0
11
0.075539
21
0.013791
31
0.0
0
LINE
8
0
6
CONTINUOUS
10
0.066464
20
0.013092
30
0.0
11
0.067805
21
0.013729
31
0.0
0
LINE
8
0
6
CONTINUOUS
10
0.067885
20
0.014026
30
0.0
11
0.066326
21
0.013343
31
0.0
0
LINE
8
0
6
CONTINUOUS
10
0.065208
20
0.012256
30
0.0
11
0.066464
21
0.013092
31
0.0
0
LINE
8
0
6
CONTINUOUS
10
0.066326
20
0.013343
30
0.0
11
0.064974
21
0.012439
31
0.0
0
LINE
8
0
6
CONTINUOUS
10
0.064257
20
0.011168
30
0.0
11
0.065208
21
0.012256
31
0.0
0
LINE
8
0
6
CONTINUOUS
10
0.064974
20
0.012439
30
0.0
11
0.063975
21
0.011330
31
0.0
0
LINE
8
0
6
CONTINUOUS
10
0.063975
20
0.011330
30
0.0
11
0.063117
21
0.010460
31
0.0
0
LINE
8
0
6
CONTINUOUS
10
0.067805
20
0.013729
30
0.0
11
0.070875
21
0.014231
31
0.0
0
LINE
8
0
6
CONTINUOUS
10
0.077582
20
0.014282
30
0.0
11
0.075526
21
0.014282
31
0.0
0
LINE
8
0
6
CONTINUOUS
10
0.078640
20
0.012339
30
0.0
11
0.078685
21
0.013355
31
0.0
0
LINE
8
0
6
CONTINUOUS
10
0.078442
20
0.012339
30
0.0
11
0.078640
21
0.012339
31
0.0
0
LINE
8
0
6
CONTINUOUS
10
0.077523
20
0.012339
30
0.0
11
0.078115
21
0.012339
31
0.0
0
LINE
8
0
6
CONTINUOUS
10
0.077595
20
0.013791
30
0.0
11
0.078263
21
0.013791
31
0.0
0
LINE
8
0
6
CONTINUOUS
10
0.078256
20
0.011987
30
0.0
11
0.077587
21
0.012252
31
0.0
0
LINE
8
0
6
CONTINUOUS
10
0.075517
20
0.012001
30
0.0
11
0.078256
21
0.011987
31
0.0
0
LINE
8
0
6
CONTINUOUS
10
0.078689
20
0.014282
30
0.0
11
0.077582
21
0.014282
31
0.0
0
LINE
8
0
6
CONTINUOUS
10
0.077594
20
0.013920
30
0.0
11
0.078362
21
0.013920
31
0.0
0
LINE
8
0
6
CONTINUOUS
10
0.078689
20
0.014282
30
0.0
11
0.078362
21
0.013920
31
0.0
0
LINE
8
0
6
CONTINUOUS
10
0.078685
20
0.013355
30
0.0
11
0.078689
21
0.014282
31
0.0
0
LINE
8
0
6
CONTINUOUS
10
0.077523
20
0.012339
30
0.0
11
0.077594
21
0.013355
31
0.0
0
LINE
8
0
6
CONTINUOUS
10
0.077594
20
0.013355
30
0.0
11
0.077595
21
0.013791
31
0.0
0
LINE
8
0
6
CONTINUOUS
10
0.075539
20
0.013791
30
0.0
11
0.077595
21
0.013791
31
0.0
0
LINE
8
0
6
CONTINUOUS
10
0.077523
20
0.012339
30
0.0
11
0.075479
21
0.012339
31
0.0
0
LINE
8
0
6
CONTINUOUS
10
0.078115
20
0.012339
30
0.0
11
0.078442
21
0.012339
31
0.0
0
LINE
8
0
6
CONTINUOUS
10
0.068145
20
0.011039
30
0.0
11
0.070838
21
0.011860
31
0.0
0
LINE
8
0
6
CONTINUOUS
10
0.070986
20
0.012041
30
0.0
11
0.067815
21
0.011547
31
0.0
0
LINE
8
0
6
CONTINUOUS
10
0.078362
20
0.013920
30
0.0
11
0.078263
21
0.013791
31
0.0
0
LINE
8
0
6
CONTINUOUS
10
0.078263
20
0.013791
30
0.0
11
0.078261
21
0.013355
31
0.0
0
LINE
8
0
6
CONTINUOUS
10
0.071170
20
0.014730
30
0.0
11
0.068253
21
0.014302
31
0.0
0
LINE
8
0
6
CONTINUOUS
10
0.067885
20
0.014026
30
0.0
11
0.070880
21
0.014441
31
0.0
0
LINE
8
0
6
CONTINUOUS
10
0.065111
20
0.009597
30
0.0
11
0.058379
21
-0.015445
31
0.0
0
LINE
8
0
6
CONTINUOUS
10
0.058654
20
-0.018129
30
0.0
11
0.065956
21
0.009136
31
0.0
0
LINE
8
0
6
CONTINUOUS
10
0.065682
20
0.009316
30
0.0
11
0.058533
21
-0.017528
31
0.0
0
LINE
8
0
6
CONTINUOUS
10
0.063117
20
0.010460
30
0.0
11
0.062990
21
0.010520
31
0.0
0
LINE
8
0
6
CONTINUOUS
10
0.058137
20
-0.007113
30
0.0
11
0.063117
21
0.010460
31
0.0
0
LINE
8
0
6
CONTINUOUS
10
0.062990
20
0.010520
30
0.0
11
0.058224
21
-0.006090
31
0.0
0
LINE
8
0
6
CONTINUOUS
10
0.058222
20
-0.011867
30
0.0
11
0.063961
21
0.010137
31
0.0
0
LINE
8
0
6
CONTINUOUS
10
0.058230
20
-0.006235
30
0.0
11
0.058010
21
-0.000085
31
0.0
0
LINE
8
0
6
CONTINUOUS
10
0.058010
20
-0.000085
30
0.0
11
0.057626
21
0.010671
31
0.0
0
LINE
8
0
6
CONTINUOUS
10
0.057626
20
0.010671
30
0.0
11
0.057241
21
0.021427
31
0.0
0
LINE
8
0
6
CONTINUOUS
10
0.057241
20
0.021427
30
0.0
11
0.057036
21
0.027191
31
0.0
0
LINE
8
0
6
CONTINUOUS
10
0.058778
20
-0.021598
30
0.0
11
0.058647
21
-0.017929
31
0.0
0
LINE
8
0
6
CONTINUOUS
10
-0.042020
20
-0.001577
30
0.0
11
-0.027621
21
-0.001577
31
0.0
0
LINE
8
0
6
CONTINUOUS
10
-0.035220
20
0.028853
30
0.0
11
-0.044923
21
0.028853
31
0.0
0
LINE
8
0
6
CONTINUOUS
10
0.016359
20
-0.015706
30
0.0
11
0.016580
21
-0.021173
31
0.0
0
LINE
8
0
6
CONTINUOUS
10
-0.047534
20
-0.000220
30
0.0
11
-0.046197
21
-0.001145
31
0.0
0
LINE
8
0
6
CONTINUOUS
10
0.047533
20
0.028853
30
0.0
11
0.042946
21
0.028853
31
0.0
0
LINE
8
0
6
CONTINUOUS
10
0.056981
20
0.028853
30
0.0
11
0.056390
21
0.028853
31
0.0
0
LINE
8
0
6
CONTINUOUS
10
0.057036
20
0.027191
30
0.0
11
0.056981
21
0.028853
31
0.0
0
LINE
8
0
6
CONTINUOUS
10
0.051471
20
0.028853
30
0.0
11
0.047533
21
0.028853
31
0.0
0
LINE
8
0
6
CONTINUOUS
10
0.056390
20
0.028853
30
0.0
11
0.054492
21
0.028853
31
0.0
0
LINE
8
0
6
CONTINUOUS
10
-0.044923
20
0.028853
30
0.0
11
-0.046262
21
0.028853
31
0.0
0
LINE
8
0
6
CONTINUOUS
10
-0.046262
20
0.028853
30
0.0
11
-0.050173
21
0.028853
31
0.0
0
LINE
8
0
6
CONTINUOUS
10
-0.052897
20
0.028853
30
0.0
11
-0.054724
21
0.028853
31
0.0
0
LINE
8
0
6
CONTINUOUS
10
-0.054724
20
0.028853
30
0.0
11
-0.054647
21
0.027144
31
0.0
0
LINE
8
0
6
CONTINUOUS
10
-0.050173
20
0.028853
30
0.0
11
-0.052897
21
0.028853
31
0.0
0
LINE
8
0
6
CONTINUOUS
10
-0.050178
20
0.027174
30
0.0
11
-0.050173
21
0.028853
31
0.0
0
LINE
8
0
6
CONTINUOUS
10
0.037321
20
0.028853
30
0.0
11
0.017541
21
0.028853
31
0.0
0
LINE
8
0
6
CONTINUOUS
10
0.042946
20
0.028853
30
0.0
11
0.037321
21
0.028853
31
0.0
0
LINE
8
0
6
CONTINUOUS
10
0.054492
20
0.028853
30
0.0
11
0.051471
21
0.028853
31
0.0
0
LINE
8
0
6
CONTINUOUS
10
0.017541
20
0.028853
30
0.0
11
-0.035220
21
0.028853
31
0.0
0
LINE
8
0
6
CONTINUOUS
10
-0.044015
20
-0.001577
30
0.0
11
-0.042020
21
-0.001577
31
0.0
0
LINE
8
0
6
CONTINUOUS
10
-0.048543
20
0.002734
30
0.0
11
-0.047874
21
0.000891
31
0.0
0
LINE
8
0
6
CONTINUOUS
10
-0.048851
20
0.004205
30
0.0
11
-0.047874
21
0.000891
31
0.0
0
LINE
8
0
6
CONTINUOUS
10
-0.046197
20
-0.001145
30
0.0
11
-0.044015
21
-0.001577
31
0.0
0
LINE
8
0
6
CONTINUOUS
10
-0.047661
20
0.006739
30
0.0
11
-0.049223
21
0.012095
31
0.0
0
LINE
8
0
6
CONTINUOUS
10
-0.047050
20
0.003254
30
0.0
11
-0.046460
21
0.000172
31
0.0
0
LINE
8
0
6
CONTINUOUS
10
-0.054279
20
0.022391
30
0.0
11
-0.054647
21
0.027144
31
0.0
0
LINE
8
0
6
CONTINUOUS
10
-0.047661
20
0.006739
30
0.0
11
-0.047050
21
0.003254
31
0.0
0
LINE
8
0
6
CONTINUOUS
10
-0.048851
20
0.004205
30
0.0
11
-0.049014
21
0.004845
31
0.0
0
LINE
8
0
6
CONTINUOUS
10
-0.048069
20
0.001499
30
0.0
11
-0.047534
21
-0.000220
31
0.0
0
LINE
8
0
6
CONTINUOUS
10
-0.047534
20
-0.000220
30
0.0
11
-0.047874
21
0.000891
31
0.0
0
LINE
8
0
6
CONTINUOUS
10
-0.051707
20
0.013167
30
0.0
11
-0.052392
21
0.017213
31
0.0
0
LINE
8
0
6
CONTINUOUS
10
-0.052392
20
0.017213
30
0.0
11
-0.052857
21
0.022348
31
0.0
0
LINE
8
0
6
CONTINUOUS
10
-0.053955
20
0.020273
30
0.0
11
-0.054279
21
0.022391
31
0.0
0
LINE
8
0
6
CONTINUOUS
10
0.049133
20
-0.064501
30
0.0
11
0.053786
21
-0.064501
31
0.0
0
LINE
8
0
6
CONTINUOUS
10
0.053786
20
-0.064501
30
0.0
11
0.057356
21
-0.064501
31
0.0
0
LINE
8
0
6
CONTINUOUS
10
0.043713
20
-0.064501
30
0.0
11
0.049133
21
-0.064501
31
0.0
0
LINE
8
0
6
CONTINUOUS
10
0.060311
20
-0.064501
30
0.0
11
0.060275
21
-0.063501
31
0.0
0
LINE
8
0
6
CONTINUOUS
10
0.059598
20
-0.064501
30
0.0
11
0.060311
21
-0.064501
31
0.0
0
LINE
8
0
6
CONTINUOUS
10
0.031366
20
-0.064501
30
0.0
11
0.037321
21
-0.064501
31
0.0
0
LINE
8
0
6
CONTINUOUS
10
0.057356
20
-0.064501
30
0.0
11
0.059598
21
-0.064501
31
0.0
0
LINE
8
0
6
CONTINUOUS
10
0.025817
20
-0.064501
30
0.0
11
0.031366
21
-0.064501
31
0.0
0
LINE
8
0
6
CONTINUOUS
10
0.015095
20
-0.064501
30
0.0
11
0.017394
21
-0.064501
31
0.0
0
LINE
8
0
6
CONTINUOUS
10
0.014311
20
-0.064501
30
0.0
11
0.015095
21
-0.064501
31
0.0
0
LINE
8
0
6
CONTINUOUS
10
0.014364
20
-0.063502
30
0.0
11
0.014311
21
-0.064501
31
0.0
0
LINE
8
0
6
CONTINUOUS
10
0.021051
20
-0.064501
30
0.0
11
0.025817
21
-0.064501
31
0.0
0
LINE
8
0
6
CONTINUOUS
10
0.017394
20
-0.064501
30
0.0
11
0.021051
21
-0.064501
31
0.0
0
LINE
8
0
6
CONTINUOUS
10
0.060275
20
-0.063501
30
0.0
11
0.058778
21
-0.021598
31
0.0
0
LINE
8
0
6
CONTINUOUS
10
0.016580
20
-0.021173
30
0.0
11
0.014364
21
-0.063502
31
0.0
0
LINE
8
0
6
CONTINUOUS
10
0.012720
20
-0.005779
30
0.0
11
0.015492
21
-0.010339
31
0.0
0
LINE
8
0
6
CONTINUOUS
10
0.037321
20
-0.064501
30
0.0
11
0.043713
21
-0.064501
31
0.0
0
LINE
8
0
6
CONTINUOUS
10
0.007361
20
-0.002690
30
0.0
11
0.012720
21
-0.005779
31
0.0
0
LINE
8
0
6
CONTINUOUS
10
0.012720
20
-0.005779
30
0.0
11
0.013874
21
-0.004851
31
0.0
0
LINE
8
0
6
CONTINUOUS
10
0.001839
20
-0.001928
30
0.0
11
0.007361
21
-0.002690
31
0.0
0
LINE
8
0
6
CONTINUOUS
10
0.015492
20
-0.010339
30
0.0
11
0.016359
21
-0.015706
31
0.0
0
LINE
8
0
6
CONTINUOUS
10
-0.027621
20
-0.001577
30
0.0
11
0.001839
21
-0.001928
31
0.0
0
LINE
8
0
6
CONTINUOUS
10
0.006898
20
0.010130
30
0.0
11
-0.032020
21
0.012128
31
0.0
0
LINE
8
0
6
CONTINUOUS
10
0.005237
20
0.055536
30
0.0
11
0.010305
21
0.054626
31
0.0
0
LINE
8
0
6
CONTINUOUS
10
0.018704
20
0.044750
30
0.0
11
0.018955
21
0.043341
31
0.0
0
LINE
8
0
6
CONTINUOUS
10
0.033050
20
0.064501
30
0.0
11
0.021978
21
0.064501
31
0.0
0
LINE
8
0
6
CONTINUOUS
10
0.021966
20
0.064501
30
0.0
11
0.010883
21
0.064501
31
0.0
0
LINE
8
0
6
CONTINUOUS
10
0.028475
20
0.030301
30
0.0
11
0.033050
21
0.030301
31
0.0
0
LINE
8
0
6
CONTINUOUS
10
0.037995
20
0.064501
30
0.0
11
0.033050
21
0.064501
31
0.0
0
LINE
8
0
6
CONTINUOUS
10
0.033050
20
0.064501
30
0.0
11
0.021966
21
0.064501
31
0.0
0
LINE
8
0
6
CONTINUOUS
10
0.057036
20
0.057436
30
0.0
11
0.057036
21
0.060693
31
0.0
0
LINE
8
0
6
CONTINUOUS
10
-0.002326
20
0.056593
30
0.0
11
0.005237
21
0.055536
31
0.0
0
LINE
8
0
6
CONTINUOUS
10
0.003593
20
0.064501
30
0.0
11
-0.003721
21
0.064501
31
0.0
0
LINE
8
0
6
CONTINUOUS
10
-0.003736
20
0.064501
30
0.0
11
-0.011046
21
0.064501
31
0.0
0
LINE
8
0
6
CONTINUOUS
10
0.003573
20
0.064501
30
0.0
11
-0.003736
21
0.064501
31
0.0
0
LINE
8
0
6
CONTINUOUS
10
-0.022010
20
0.064501
30
0.0
11
-0.032974
21
0.064501
31
0.0
0
LINE
8
0
6
CONTINUOUS
10
-0.032974
20
0.064501
30
0.0
11
-0.036546
21
0.064501
31
0.0
0
LINE
8
0
6
CONTINUOUS
10
0.010883
20
0.064501
30
0.0
11
0.003573
21
0.064501
31
0.0
0
LINE
8
0
6
CONTINUOUS
10
-0.039252
20
0.064501
30
0.0
11
-0.040033
21
0.064501
31
0.0
0
LINE
8
0
6
CONTINUOUS
10
-0.011046
20
0.064501
30
0.0
11
-0.022010
21
0.064501
31
0.0
0
LINE
8
0
6
CONTINUOUS
10
0.037995
20
0.064501
30
0.0
11
0.033050
21
0.064501
31
0.0
0
LINE
8
0
6
CONTINUOUS
10
-0.036546
20
0.064501
30
0.0
11
-0.039105
21
0.064501
31
0.0
0
LINE
8
0
6
CONTINUOUS
10
-0.036449
20
0.063933
30
0.0
11
-0.036546
21
0.064501
31
0.0
0
LINE
8
0
6
CONTINUOUS
10
-0.039105
20
0.064501
30
0.0
11
-0.040033
21
0.064501
31
0.0
0
LINE
8
0
6
CONTINUOUS
10
-0.038979
20
0.063929
30
0.0
11
-0.039105
21
0.064501
31
0.0
0
LINE
8
0
6
CONTINUOUS
10
0.042923
20
0.064501
30
0.0
11
0.037995
21
0.064501
31
0.0
0
LINE
8
0
6
CONTINUOUS
10
0.047515
20
0.064501
30
0.0
11
0.042923
21
0.064501
31
0.0
0
LINE
8
0
6
CONTINUOUS
10
0.051459
20
0.064501
30
0.0
11
0.047515
21
0.064501
31
0.0
0
LINE
8
0
6
CONTINUOUS
10
0.054485
20
0.064501
30
0.0
11
0.051459
21
0.064501
31
0.0
0
LINE
8
0
6
CONTINUOUS
10
0.056387
20
0.064501
30
0.0
11
0.054485
21
0.064501
31
0.0
0
LINE
8
0
6
CONTINUOUS
10
0.057036
20
0.064501
30
0.0
11
0.056387
21
0.064501
31
0.0
0
LINE
8
0
6
CONTINUOUS
10
0.057036
20
0.063949
30
0.0
11
0.057036
21
0.064501
31
0.0
0
LINE
8
0
6
CONTINUOUS
10
0.003572
20
0.058694
30
0.0
11
0.011655
21
0.058310
31
0.0
0
LINE
8
0
6
CONTINUOUS
10
0.010906
20
0.064501
30
0.0
11
0.003593
21
0.064501
31
0.0
0
LINE
8
0
6
CONTINUOUS
10
-0.031892
20
0.059666
30
0.0
11
-0.020848
21
0.058327
31
0.0
0
LINE
8
0
6
CONTINUOUS
10
-0.016500
20
0.059544
30
0.0
11
-0.028559
21
0.060031
31
0.0
0
LINE
8
0
6
CONTINUOUS
10
-0.011034
20
0.064501
30
0.0
11
-0.022004
21
0.064501
31
0.0
0
LINE
8
0
6
CONTINUOUS
10
0.038004
20
0.030301
30
0.0
11
0.042916
21
0.030301
31
0.0
0
LINE
8
0
6
CONTINUOUS
10
0.051459
20
0.030301
30
0.0
11
0.054486
21
0.030301
31
0.0
0
LINE
8
0
6
CONTINUOUS
10
0.047512
20
0.030301
30
0.0
11
0.051459
21
0.030301
31
0.0
0
LINE
8
0
6
CONTINUOUS
10
0.042916
20
0.030301
30
0.0
11
0.047512
21
0.030301
31
0.0
0
LINE
8
0
6
CONTINUOUS
10
0.054486
20
0.030301
30
0.0
11
0.056388
21
0.030301
31
0.0
0
LINE
8
0
6
CONTINUOUS
10
0.057035
20
0.030301
30
0.0
11
0.057035
21
0.030775
31
0.0
0
LINE
8
0
6
CONTINUOUS
10
0.056388
20
0.030301
30
0.0
11
0.057035
21
0.030301
31
0.0
0
LINE
8
0
6
CONTINUOUS
10
0.033050
20
0.030301
30
0.0
11
0.038004
21
0.030301
31
0.0
0
LINE
8
0
6
CONTINUOUS
10
0.024532
20
0.030301
30
0.0
11
0.028475
21
0.030301
31
0.0
0
LINE
8
0
6
CONTINUOUS
10
0.021506
20
0.030301
30
0.0
11
0.024532
21
0.030301
31
0.0
0
LINE
8
0
6
CONTINUOUS
10
0.019604
20
0.030301
30
0.0
11
0.021506
21
0.030301
31
0.0
0
LINE
8
0
6
CONTINUOUS
10
0.018955
20
0.030301
30
0.0
11
0.019604
21
0.030301
31
0.0
0
LINE
8
0
6
CONTINUOUS
10
0.018955
20
0.030775
30
0.0
11
0.018955
21
0.030301
31
0.0
0
LINE
8
0
6
CONTINUOUS
10
0.018955
20
0.043341
30
0.0
11
0.018955
21
0.030775
31
0.0
0
LINE
8
0
6
CONTINUOUS
10
0.047515
20
0.064501
30
0.0
11
0.047191
21
0.064501
31
0.0
0
LINE
8
0
6
CONTINUOUS
10
0.056460
20
0.064501
30
0.0
11
0.047515
21
0.064501
31
0.0
0
LINE
8
0
6
CONTINUOUS
10
0.044727
20
0.064501
30
0.0
11
0.043165
21
0.064501
31
0.0
0
LINE
8
0
6
CONTINUOUS
10
0.050891
20
0.064501
30
0.0
11
0.044727
21
0.064501
31
0.0
0
LINE
8
0
6
CONTINUOUS
10
-0.032974
20
0.064501
30
0.0
11
-0.039252
21
0.064501
31
0.0
0
LINE
8
0
6
CONTINUOUS
10
-0.035592
20
0.062059
30
0.0
11
-0.036449
21
0.063933
31
0.0
0
LINE
8
0
6
CONTINUOUS
10
0.047191
20
0.064501
30
0.0
11
0.037995
21
0.064501
31
0.0
0
LINE
8
0
6
CONTINUOUS
10
-0.038979
20
0.063929
30
0.0
11
-0.040033
21
0.063910
31
0.0
0
LINE
8
0
6
CONTINUOUS
10
-0.038479
20
0.062619
30
0.0
11
-0.038979
21
0.063929
31
0.0
0
LINE
8
0
6
CONTINUOUS
10
-0.038479
20
0.062619
30
0.0
11
-0.040033
21
0.063910
31
0.0
0
LINE
8
0
6
CONTINUOUS
10
-0.040033
20
0.063910
30
0.0
11
-0.040033
21
0.062996
31
0.0
0
LINE
8
0
6
CONTINUOUS
10
0.021978
20
0.064501
30
0.0
11
0.010906
21
0.064501
31
0.0
0
LINE
8
0
6
CONTINUOUS
10
0.013433
20
0.053140
30
0.0
11
0.016185
21
0.051095
31
0.0
0
LINE
8
0
6
CONTINUOUS
10
0.057036
20
0.051798
30
0.0
11
0.057036
21
0.054626
31
0.0
0
LINE
8
0
6
CONTINUOUS
10
-0.035592
20
0.062059
30
0.0
11
-0.038479
21
0.062619
31
0.0
0
LINE
8
0
6
CONTINUOUS
10
-0.037984
20
0.061790
30
0.0
11
-0.035525
21
0.060973
31
0.0
0
LINE
8
0
6
CONTINUOUS
10
-0.029375
20
0.061513
30
0.0
11
-0.019199
21
0.061407
31
0.0
0
LINE
8
0
6
CONTINUOUS
10
0.057036
20
0.054626
30
0.0
11
0.057036
21
0.057436
31
0.0
0
LINE
8
0
6
CONTINUOUS
10
0.057036
20
0.046160
30
0.0
11
0.057036
21
0.048979
31
0.0
0
LINE
8
0
6
CONTINUOUS
10
0.057036
20
0.048979
30
0.0
11
0.057036
21
0.051798
31
0.0
0
LINE
8
0
6
CONTINUOUS
10
0.057036
20
0.060693
30
0.0
11
0.057036
21
0.063949
31
0.0
0
LINE
8
0
6
CONTINUOUS
10
-0.003721
20
0.064501
30
0.0
11
-0.011034
21
0.064501
31
0.0
0
LINE
8
0
6
CONTINUOUS
10
-0.029375
20
0.061513
30
0.0
11
-0.035592
21
0.062059
31
0.0
0
LINE
8
0
6
CONTINUOUS
10
-0.038768
20
0.061950
30
0.0
11
-0.036212
21
0.060722
31
0.0
0
LINE
8
0
6
CONTINUOUS
10
-0.036212
20
0.060722
30
0.0
11
-0.031827
21
0.059666
31
0.0
0
LINE
8
0
6
CONTINUOUS
10
-0.028559
20
0.060031
30
0.0
11
-0.035525
21
0.060973
31
0.0
0
LINE
8
0
6
CONTINUOUS
10
-0.022004
20
0.064501
30
0.0
11
-0.032974
21
0.064501
31
0.0
0
LINE
8
0
6
CONTINUOUS
10
0.011655
20
0.058310
30
0.0
11
0.024777
21
0.054626
31
0.0
0
LINE
8
0
6
CONTINUOUS
10
0.010305
20
0.054626
30
0.0
11
0.013433
21
0.053140
31
0.0
0
LINE
8
0
6
CONTINUOUS
10
0.016185
20
0.051095
30
0.0
11
0.017957
21
0.048130
31
0.0
0
LINE
8
0
6
CONTINUOUS
10
0.019286
20
0.050980
30
0.0
11
0.017002
21
0.051065
31
0.0
0
LINE
8
0
6
CONTINUOUS
10
0.018064
20
0.054626
30
0.0
11
0.013842
21
0.054626
31
0.0
0
LINE
8
0
6
CONTINUOUS
10
0.022925
20
0.050800
30
0.0
11
0.019286
21
0.050980
31
0.0
0
LINE
8
0
6
CONTINUOUS
10
0.020755
20
0.053007
30
0.0
11
0.026727
21
0.052671
31
0.0
0
LINE
8
0
6
CONTINUOUS
10
0.024777
20
0.054626
30
0.0
11
0.018064
21
0.054626
31
0.0
0
LINE
8
0
6
CONTINUOUS
10
0.027896
20
0.050226
30
0.0
11
0.022925
21
0.050800
31
0.0
0
LINE
8
0
6
CONTINUOUS
10
0.017957
20
0.048130
30
0.0
11
0.018704
21
0.044750
31
0.0
0
LINE
8
0
6
CONTINUOUS
10
0.003572
20
0.058694
30
0.0
11
-0.004484
21
0.059030
31
0.0
0
LINE
8
0
6
CONTINUOUS
10
-0.009954
20
0.057158
30
0.0
11
-0.002326
21
0.056593
31
0.0
0
LINE
8
0
6
CONTINUOUS
10
-0.020848
20
0.058327
30
0.0
11
-0.009954
21
0.057158
31
0.0
0
LINE
8
0
6
CONTINUOUS
10
-0.008873
20
0.061275
30
0.0
11
-0.019199
21
0.061407
31
0.0
0
LINE
8
0
6
CONTINUOUS
10
-0.016500
20
0.059544
30
0.0
11
-0.004484
21
0.059030
31
0.0
0
LINE
8
0
6
CONTINUOUS
10
-0.038479
20
0.062619
30
0.0
11
-0.040033
21
0.062996
31
0.0
0
LINE
8
0
6
CONTINUOUS
10
-0.040033
20
0.062996
30
0.0
11
-0.038656
21
0.061924
31
0.0
0
LINE
8
0
6
CONTINUOUS
10
0.057036
20
0.043341
30
0.0
11
0.057036
21
0.046160
31
0.0
0
LINE
8
0
6
CONTINUOUS
10
0.057035
20
0.030775
30
0.0
11
0.057036
21
0.043341
31
0.0
0
LINE
8
0
6
CONTINUOUS
10
0.033050
20
0.064501
30
0.0
11
0.021978
21
0.064501
31
0.0
0
LINE
8
0
6
CONTINUOUS
10
0.037995
20
0.064501
30
0.0
11
0.033050
21
0.064501
31
0.0
0
LINE
8
0
6
CONTINUOUS
10
0.021978
20
0.064501
30
0.0
11
0.010906
21
0.064501
31
0.0
0
LINE
8
0
6
CONTINUOUS
10
0.044727
20
0.064501
30
0.0
11
0.037995
21
0.064501
31
0.0
0
LINE
8
0
6
CONTINUOUS
10
0.046240
20
0.064501
30
0.0
11
0.044727
21
0.064501
31
0.0
0
LINE
8
0
6
CONTINUOUS
10
-0.048543
20
0.002734
30
0.0
11
-0.048589
21
0.003083
31
0.0
0
LINE
8
0
6
CONTINUOUS
10
0.058207
20
-0.006602
30
0.0
11
0.058137
21
-0.007113
31
0.0
0
LINE
8
0
6
CONTINUOUS
10
-0.053955
20
0.020273
30
0.0
11
-0.054220
21
0.021995
31
0.0
0
LINE
8
0
6
CONTINUOUS
10
0.058196
20
-0.010842
30
0.0
11
0.058153
21
-0.009277
31
0.0
0
LINE
8
0
6
CONTINUOUS
10
-0.048973
20
0.004465
30
0.0
11
-0.049014
21
0.004845
31
0.0
0
LINE
8
0
6
CONTINUOUS
10
-0.049014
20
0.004845
30
0.0
11
-0.048943
21
0.005003
31
0.0
0
LINE
8
0
6
CONTINUOUS
10
0.058636
20
-0.017905
30
0.0
11
0.058533
21
-0.017528
31
0.0
0
LINE
8
0
6
CONTINUOUS
10
0.058500
20
-0.017011
30
0.0
11
0.058379
21
-0.015445
31
0.0
0
LINE
8
0
6
CONTINUOUS
10
0.058533
20
-0.017528
30
0.0
11
0.058500
21
-0.017011
31
0.0
0
ENDSEC
0
EOF
