999
Erzeugt mit innoplus bad 
0
SECTION
2
HEADER
9
$ACADVER
1
AC1009
9
$DWGCODEPAGE
3
ISO8859-1
0
ENDSEC
0
SECTION
2
TABLES
0
TABLE
2
LAYER
70
1
0
LAYER
2
0
70
0
62
7
6
CONTINUOUS
0
ENDTAB
0
ENDSEC
0
SECTION
2
ENTITIES
0
LINE
8
0
6
CONTINUOUS
10
-0.040613
20
0.003356
30
0.0
11
-0.038773
21
0.006618
31
0.0
0
LINE
8
0
6
CONTINUOUS
10
-0.058150
20
0.018233
30
0.0
11
-0.060302
21
0.014418
31
0.0
0
LINE
8
0
6
CONTINUOUS
10
-0.060548
20
0.013982
30
0.0
11
-0.060066
21
0.013712
31
0.0
0
LINE
8
0
6
CONTINUOUS
10
-0.060302
20
0.014418
30
0.0
11
-0.060548
21
0.013982
31
0.0
0
LINE
8
0
6
CONTINUOUS
10
-0.058668
20
0.012926
30
0.0
11
-0.060066
21
0.013712
31
0.0
0
LINE
8
0
6
CONTINUOUS
10
-0.056490
20
0.011702
30
0.0
11
-0.058668
21
0.012926
31
0.0
0
LINE
8
0
6
CONTINUOUS
10
-0.053746
20
0.010160
30
0.0
11
-0.056490
21
0.011702
31
0.0
0
LINE
8
0
6
CONTINUOUS
10
-0.050704
20
0.008451
30
0.0
11
-0.053746
21
0.010160
31
0.0
0
LINE
8
0
6
CONTINUOUS
10
-0.050704
20
0.008451
30
0.0
11
-0.047661
21
0.006742
31
0.0
0
LINE
8
0
6
CONTINUOUS
10
-0.047661
20
0.006742
30
0.0
11
-0.044917
21
0.005200
31
0.0
0
LINE
8
0
6
CONTINUOUS
10
-0.042739
20
0.003976
30
0.0
11
-0.044917
21
0.005200
31
0.0
0
LINE
8
0
6
CONTINUOUS
10
-0.042739
20
0.003976
30
0.0
11
-0.041341
21
0.003191
31
0.0
0
LINE
8
0
6
CONTINUOUS
10
-0.040859
20
0.002920
30
0.0
11
-0.040613
21
0.003356
31
0.0
0
LINE
8
0
6
CONTINUOUS
10
-0.041341
20
0.003191
30
0.0
11
-0.040859
21
0.002920
31
0.0
0
LINE
8
0
6
CONTINUOUS
10
0.012168
20
0.055536
30
0.0
11
0.017226
21
0.054625
31
0.0
0
LINE
8
0
6
CONTINUOUS
10
0.025606
20
0.044751
30
0.0
11
0.025857
21
0.043341
31
0.0
0
LINE
8
0
6
CONTINUOUS
10
0.028874
20
0.064500
30
0.0
11
0.039923
21
0.064500
31
0.0
0
LINE
8
0
6
CONTINUOUS
10
0.039923
20
0.064500
30
0.0
11
0.028874
21
0.064500
31
0.0
0
LINE
8
0
6
CONTINUOUS
10
0.028862
20
0.064500
30
0.0
11
0.017802
21
0.064500
31
0.0
0
LINE
8
0
6
CONTINUOUS
10
0.035357
20
0.030302
30
0.0
11
0.039923
21
0.030302
31
0.0
0
LINE
8
0
6
CONTINUOUS
10
0.044857
20
0.064500
30
0.0
11
0.039923
21
0.064500
31
0.0
0
LINE
8
0
6
CONTINUOUS
10
0.039923
20
0.064500
30
0.0
11
0.028862
21
0.064500
31
0.0
0
LINE
8
0
6
CONTINUOUS
10
0.063857
20
0.057435
30
0.0
11
0.063857
21
0.060692
31
0.0
0
LINE
8
0
6
CONTINUOUS
10
0.004621
20
0.056592
30
0.0
11
0.012168
21
0.055536
31
0.0
0
LINE
8
0
6
CONTINUOUS
10
0.003229
20
0.064500
30
0.0
11
0.010528
21
0.064500
31
0.0
0
LINE
8
0
6
CONTINUOUS
10
0.010527
20
0.064500
30
0.0
11
0.003229
21
0.064500
31
0.0
0
LINE
8
0
6
CONTINUOUS
10
0.003214
20
0.064500
30
0.0
11
-0.004080
21
0.064500
31
0.0
0
LINE
8
0
6
CONTINUOUS
10
0.010508
20
0.064500
30
0.0
11
0.003214
21
0.064500
31
0.0
0
LINE
8
0
6
CONTINUOUS
10
-0.015021
20
0.064500
30
0.0
11
-0.025962
21
0.064500
31
0.0
0
LINE
8
0
6
CONTINUOUS
10
-0.025962
20
0.064500
30
0.0
11
-0.029527
21
0.064500
31
0.0
0
LINE
8
0
6
CONTINUOUS
10
0.017802
20
0.064500
30
0.0
11
0.010508
21
0.064500
31
0.0
0
LINE
8
0
6
CONTINUOUS
10
-0.032227
20
0.064500
30
0.0
11
-0.033007
21
0.064500
31
0.0
0
LINE
8
0
6
CONTINUOUS
10
-0.033007
20
0.064500
30
0.0
11
-0.032227
21
0.064500
31
0.0
0
LINE
8
0
6
CONTINUOUS
10
-0.004080
20
0.064500
30
0.0
11
-0.015021
21
0.064500
31
0.0
0
LINE
8
0
6
CONTINUOUS
10
0.044857
20
0.064500
30
0.0
11
0.039923
21
0.064500
31
0.0
0
LINE
8
0
6
CONTINUOUS
10
-0.029527
20
0.064500
30
0.0
11
-0.032081
21
0.064500
31
0.0
0
LINE
8
0
6
CONTINUOUS
10
-0.029431
20
0.063932
30
0.0
11
-0.029527
21
0.064500
31
0.0
0
LINE
8
0
6
CONTINUOUS
10
-0.032081
20
0.064500
30
0.0
11
-0.033007
21
0.064500
31
0.0
0
LINE
8
0
6
CONTINUOUS
10
-0.031955
20
0.063927
30
0.0
11
-0.032081
21
0.064500
31
0.0
0
LINE
8
0
6
CONTINUOUS
10
0.049775
20
0.064500
30
0.0
11
0.044857
21
0.064500
31
0.0
0
LINE
8
0
6
CONTINUOUS
10
0.054357
20
0.064500
30
0.0
11
0.049775
21
0.064500
31
0.0
0
LINE
8
0
6
CONTINUOUS
10
0.058292
20
0.064500
30
0.0
11
0.054357
21
0.064500
31
0.0
0
LINE
8
0
6
CONTINUOUS
10
0.061312
20
0.064500
30
0.0
11
0.058292
21
0.064500
31
0.0
0
LINE
8
0
6
CONTINUOUS
10
0.063210
20
0.064500
30
0.0
11
0.061312
21
0.064500
31
0.0
0
LINE
8
0
6
CONTINUOUS
10
0.063857
20
0.064500
30
0.0
11
0.063210
21
0.064500
31
0.0
0
LINE
8
0
6
CONTINUOUS
10
0.063857
20
0.063948
30
0.0
11
0.063857
21
0.064500
31
0.0
0
LINE
8
0
6
CONTINUOUS
10
0.010506
20
0.058693
30
0.0
11
0.018572
21
0.058309
31
0.0
0
LINE
8
0
6
CONTINUOUS
10
0.010528
20
0.064500
30
0.0
11
0.017825
21
0.064500
31
0.0
0
LINE
8
0
6
CONTINUOUS
10
0.017825
20
0.064500
30
0.0
11
0.010528
21
0.064500
31
0.0
0
LINE
8
0
6
CONTINUOUS
10
-0.024883
20
0.059665
30
0.0
11
-0.013862
21
0.058326
31
0.0
0
LINE
8
0
6
CONTINUOUS
10
-0.009523
20
0.059544
30
0.0
11
-0.021557
21
0.060030
31
0.0
0
LINE
8
0
6
CONTINUOUS
10
-0.004069
20
0.064500
30
0.0
11
-0.015015
21
0.064500
31
0.0
0
LINE
8
0
6
CONTINUOUS
10
-0.015018
20
0.064500
30
0.0
11
-0.004070
21
0.064500
31
0.0
0
LINE
8
0
6
CONTINUOUS
10
0.044865
20
0.030302
30
0.0
11
0.049767
21
0.030302
31
0.0
0
LINE
8
0
6
CONTINUOUS
10
0.058292
20
0.030302
30
0.0
11
0.061313
21
0.030302
31
0.0
0
LINE
8
0
6
CONTINUOUS
10
0.054354
20
0.030302
30
0.0
11
0.058292
21
0.030302
31
0.0
0
LINE
8
0
6
CONTINUOUS
10
0.049767
20
0.030302
30
0.0
11
0.054354
21
0.030302
31
0.0
0
LINE
8
0
6
CONTINUOUS
10
0.061313
20
0.030302
30
0.0
11
0.063212
21
0.030302
31
0.0
0
LINE
8
0
6
CONTINUOUS
10
0.063857
20
0.030302
30
0.0
11
0.063857
21
0.030776
31
0.0
0
LINE
8
0
6
CONTINUOUS
10
0.063212
20
0.030302
30
0.0
11
0.063857
21
0.030302
31
0.0
0
LINE
8
0
6
CONTINUOUS
10
0.039923
20
0.030302
30
0.0
11
0.044865
21
0.030302
31
0.0
0
LINE
8
0
6
CONTINUOUS
10
0.031422
20
0.030302
30
0.0
11
0.035357
21
0.030302
31
0.0
0
LINE
8
0
6
CONTINUOUS
10
0.028403
20
0.030302
30
0.0
11
0.031422
21
0.030302
31
0.0
0
LINE
8
0
6
CONTINUOUS
10
0.026505
20
0.030302
30
0.0
11
0.028403
21
0.030302
31
0.0
0
LINE
8
0
6
CONTINUOUS
10
0.025857
20
0.030302
30
0.0
11
0.026505
21
0.030302
31
0.0
0
LINE
8
0
6
CONTINUOUS
10
0.025857
20
0.030776
30
0.0
11
0.025857
21
0.030302
31
0.0
0
LINE
8
0
6
CONTINUOUS
10
0.025857
20
0.043341
30
0.0
11
0.025857
21
0.030776
31
0.0
0
LINE
8
0
6
CONTINUOUS
10
-0.032227
20
0.064500
30
0.0
11
-0.025962
21
0.064500
31
0.0
0
LINE
8
0
6
CONTINUOUS
10
0.054033
20
0.064500
30
0.0
11
0.062637
21
0.064500
31
0.0
0
LINE
8
0
6
CONTINUOUS
10
0.054357
20
0.064500
30
0.0
11
0.054033
21
0.064500
31
0.0
0
LINE
8
0
6
CONTINUOUS
10
0.063283
20
0.064500
30
0.0
11
0.054357
21
0.064500
31
0.0
0
LINE
8
0
6
CONTINUOUS
10
0.062637
20
0.064500
30
0.0
11
0.063283
21
0.064500
31
0.0
0
LINE
8
0
6
CONTINUOUS
10
0.051575
20
0.064500
30
0.0
11
0.050016
21
0.064500
31
0.0
0
LINE
8
0
6
CONTINUOUS
10
0.057726
20
0.064500
30
0.0
11
0.051575
21
0.064500
31
0.0
0
LINE
8
0
6
CONTINUOUS
10
-0.025962
20
0.064500
30
0.0
11
-0.032227
21
0.064500
31
0.0
0
LINE
8
0
6
CONTINUOUS
10
-0.028575
20
0.062058
30
0.0
11
-0.029431
21
0.063932
31
0.0
0
LINE
8
0
6
CONTINUOUS
10
0.053084
20
0.064500
30
0.0
11
0.054033
21
0.064500
31
0.0
0
LINE
8
0
6
CONTINUOUS
10
0.054033
20
0.064500
30
0.0
11
0.044857
21
0.064500
31
0.0
0
LINE
8
0
6
CONTINUOUS
10
-0.031955
20
0.063927
30
0.0
11
-0.033007
21
0.063909
31
0.0
0
LINE
8
0
6
CONTINUOUS
10
-0.031455
20
0.062618
30
0.0
11
-0.031955
21
0.063927
31
0.0
0
LINE
8
0
6
CONTINUOUS
10
-0.031455
20
0.062618
30
0.0
11
-0.033007
21
0.063909
31
0.0
0
LINE
8
0
6
CONTINUOUS
10
-0.033007
20
0.063909
30
0.0
11
-0.033007
21
0.062995
31
0.0
0
LINE
8
0
6
CONTINUOUS
10
-0.025962
20
0.064500
30
0.0
11
-0.015018
21
0.064500
31
0.0
0
LINE
8
0
6
CONTINUOUS
10
-0.004070
20
0.064500
30
0.0
11
0.003229
21
0.064500
31
0.0
0
LINE
8
0
6
CONTINUOUS
10
0.017825
20
0.064500
30
0.0
11
0.028874
21
0.064500
31
0.0
0
LINE
8
0
6
CONTINUOUS
10
0.028874
20
0.064500
30
0.0
11
0.017825
21
0.064500
31
0.0
0
LINE
8
0
6
CONTINUOUS
10
0.020347
20
0.053140
30
0.0
11
0.023093
21
0.051095
31
0.0
0
LINE
8
0
6
CONTINUOUS
10
0.063857
20
0.051797
30
0.0
11
0.063857
21
0.054625
31
0.0
0
LINE
8
0
6
CONTINUOUS
10
-0.028575
20
0.062058
30
0.0
11
-0.031455
21
0.062618
31
0.0
0
LINE
8
0
6
CONTINUOUS
10
-0.030962
20
0.061789
30
0.0
11
-0.028508
21
0.060972
31
0.0
0
LINE
8
0
6
CONTINUOUS
10
-0.022371
20
0.061512
30
0.0
11
-0.012216
21
0.061405
31
0.0
0
LINE
8
0
6
CONTINUOUS
10
0.063857
20
0.054625
30
0.0
11
0.063857
21
0.057435
31
0.0
0
LINE
8
0
6
CONTINUOUS
10
0.063857
20
0.046160
30
0.0
11
0.063857
21
0.048979
31
0.0
0
LINE
8
0
6
CONTINUOUS
10
0.063857
20
0.048979
30
0.0
11
0.063857
21
0.051797
31
0.0
0
LINE
8
0
6
CONTINUOUS
10
0.063857
20
0.060692
30
0.0
11
0.063857
21
0.063948
31
0.0
0
LINE
8
0
6
CONTINUOUS
10
0.003229
20
0.064500
30
0.0
11
-0.004069
21
0.064500
31
0.0
0
LINE
8
0
6
CONTINUOUS
10
-0.022371
20
0.061512
30
0.0
11
-0.028575
21
0.062058
31
0.0
0
LINE
8
0
6
CONTINUOUS
10
-0.031744
20
0.061949
30
0.0
11
-0.029194
21
0.060721
31
0.0
0
LINE
8
0
6
CONTINUOUS
10
-0.029194
20
0.060721
30
0.0
11
-0.024818
21
0.059665
31
0.0
0
LINE
8
0
6
CONTINUOUS
10
-0.021557
20
0.060030
30
0.0
11
-0.028508
21
0.060972
31
0.0
0
LINE
8
0
6
CONTINUOUS
10
-0.015015
20
0.064500
30
0.0
11
-0.025962
21
0.064500
31
0.0
0
LINE
8
0
6
CONTINUOUS
10
0.018572
20
0.058309
30
0.0
11
0.031667
21
0.054625
31
0.0
0
LINE
8
0
6
CONTINUOUS
10
0.017226
20
0.054625
30
0.0
11
0.020347
21
0.053140
31
0.0
0
LINE
8
0
6
CONTINUOUS
10
0.023093
20
0.051095
30
0.0
11
0.024861
21
0.048130
31
0.0
0
LINE
8
0
6
CONTINUOUS
10
0.026188
20
0.050980
30
0.0
11
0.023908
21
0.051065
31
0.0
0
LINE
8
0
6
CONTINUOUS
10
0.024968
20
0.054625
30
0.0
11
0.020754
21
0.054625
31
0.0
0
LINE
8
0
6
CONTINUOUS
10
0.029819
20
0.050800
30
0.0
11
0.026188
21
0.050980
31
0.0
0
LINE
8
0
6
CONTINUOUS
10
0.027653
20
0.053007
30
0.0
11
0.033613
21
0.052670
31
0.0
0
LINE
8
0
6
CONTINUOUS
10
0.031667
20
0.054625
30
0.0
11
0.024968
21
0.054625
31
0.0
0
LINE
8
0
6
CONTINUOUS
10
0.034779
20
0.050225
30
0.0
11
0.029819
21
0.050800
31
0.0
0
LINE
8
0
6
CONTINUOUS
10
0.024861
20
0.048130
30
0.0
11
0.025606
21
0.044751
31
0.0
0
LINE
8
0
6
CONTINUOUS
10
0.010506
20
0.058693
30
0.0
11
0.002468
21
0.059030
31
0.0
0
LINE
8
0
6
CONTINUOUS
10
-0.002991
20
0.057157
30
0.0
11
0.004621
21
0.056592
31
0.0
0
LINE
8
0
6
CONTINUOUS
10
-0.013862
20
0.058326
30
0.0
11
-0.002991
21
0.057157
31
0.0
0
LINE
8
0
6
CONTINUOUS
10
-0.001912
20
0.061274
30
0.0
11
-0.012216
21
0.061405
31
0.0
0
LINE
8
0
6
CONTINUOUS
10
-0.009523
20
0.059544
30
0.0
11
0.002468
21
0.059030
31
0.0
0
LINE
8
0
6
CONTINUOUS
10
-0.031455
20
0.062618
30
0.0
11
-0.033007
21
0.062995
31
0.0
0
LINE
8
0
6
CONTINUOUS
10
-0.033007
20
0.062995
30
0.0
11
-0.031632
21
0.061923
31
0.0
0
LINE
8
0
6
CONTINUOUS
10
0.063857
20
0.043341
30
0.0
11
0.063857
21
0.046160
31
0.0
0
LINE
8
0
6
CONTINUOUS
10
0.063857
20
0.030776
30
0.0
11
0.063857
21
0.043341
31
0.0
0
LINE
8
0
6
CONTINUOUS
10
0.028874
20
0.064500
30
0.0
11
0.039923
21
0.064500
31
0.0
0
LINE
8
0
6
CONTINUOUS
10
0.039923
20
0.064500
30
0.0
11
0.028874
21
0.064500
31
0.0
0
LINE
8
0
6
CONTINUOUS
10
0.044857
20
0.064500
30
0.0
11
0.039923
21
0.064500
31
0.0
0
LINE
8
0
6
CONTINUOUS
10
0.039923
20
0.064500
30
0.0
11
0.044857
21
0.064500
31
0.0
0
LINE
8
0
6
CONTINUOUS
10
0.044857
20
0.064500
30
0.0
11
0.039923
21
0.064500
31
0.0
0
LINE
8
0
6
CONTINUOUS
10
0.017825
20
0.064500
30
0.0
11
0.028874
21
0.064500
31
0.0
0
LINE
8
0
6
CONTINUOUS
10
0.028874
20
0.064500
30
0.0
11
0.017825
21
0.064500
31
0.0
0
LINE
8
0
6
CONTINUOUS
10
0.049775
20
0.064500
30
0.0
11
0.050016
21
0.064500
31
0.0
0
LINE
8
0
6
CONTINUOUS
10
0.054357
20
0.064500
30
0.0
11
0.049775
21
0.064500
31
0.0
0
LINE
8
0
6
CONTINUOUS
10
0.057726
20
0.064500
30
0.0
11
0.058292
21
0.064500
31
0.0
0
LINE
8
0
6
CONTINUOUS
10
0.058292
20
0.064500
30
0.0
11
0.054357
21
0.064500
31
0.0
0
LINE
8
0
6
CONTINUOUS
10
0.051575
20
0.064500
30
0.0
11
0.044857
21
0.064500
31
0.0
0
LINE
8
0
6
CONTINUOUS
10
0.053084
20
0.064500
30
0.0
11
0.051575
21
0.064500
31
0.0
0
LINE
8
0
6
CONTINUOUS
10
0.027363
20
0.030302
30
0.0
11
0.027363
21
0.028506
31
0.0
0
LINE
8
0
6
CONTINUOUS
10
0.062393
20
0.028506
30
0.0
11
0.062393
21
0.030302
31
0.0
0
LINE
8
0
6
CONTINUOUS
10
0.065121
20
-0.007898
30
0.0
11
0.064765
21
0.002026
31
0.0
0
LINE
8
0
6
CONTINUOUS
10
0.064765
20
0.002026
30
0.0
11
0.064408
21
0.011951
31
0.0
0
LINE
8
0
6
CONTINUOUS
10
0.064408
20
0.011951
30
0.0
11
0.064051
21
0.021876
31
0.0
0
LINE
8
0
6
CONTINUOUS
10
0.064051
20
0.021876
30
0.0
11
0.063836
21
0.027854
31
0.0
0
LINE
8
0
6
CONTINUOUS
10
0.065478
20
-0.017823
30
0.0
11
0.065121
21
-0.007898
31
0.0
0
LINE
8
0
6
CONTINUOUS
10
0.038188
20
-0.064500
30
0.0
11
0.044143
21
-0.064500
31
0.0
0
LINE
8
0
6
CONTINUOUS
10
0.050010
20
-0.064500
30
0.0
11
0.055565
21
-0.064500
31
0.0
0
LINE
8
0
6
CONTINUOUS
10
0.060334
20
-0.064500
30
0.0
11
0.055565
21
-0.064500
31
0.0
0
LINE
8
0
6
CONTINUOUS
10
0.060334
20
-0.064500
30
0.0
11
0.063992
21
-0.064500
31
0.0
0
LINE
8
0
6
CONTINUOUS
10
0.044143
20
-0.064500
30
0.0
11
0.050010
21
-0.064500
31
0.0
0
LINE
8
0
6
CONTINUOUS
10
0.067133
20
-0.064500
30
0.0
11
0.067120
21
-0.063500
31
0.0
0
LINE
8
0
6
CONTINUOUS
10
0.066291
20
-0.064500
30
0.0
11
0.067133
21
-0.064500
31
0.0
0
LINE
8
0
6
CONTINUOUS
10
0.063992
20
-0.064500
30
0.0
11
0.066291
21
-0.064500
31
0.0
0
LINE
8
0
6
CONTINUOUS
10
0.032639
20
-0.064500
30
0.0
11
0.038188
21
-0.064500
31
0.0
0
LINE
8
0
6
CONTINUOUS
10
0.021917
20
-0.064500
30
0.0
11
0.024216
21
-0.064500
31
0.0
0
LINE
8
0
6
CONTINUOUS
10
0.021133
20
-0.064500
30
0.0
11
0.021917
21
-0.064500
31
0.0
0
LINE
8
0
6
CONTINUOUS
10
0.021143
20
-0.063500
30
0.0
11
0.021133
21
-0.064500
31
0.0
0
LINE
8
0
6
CONTINUOUS
10
0.027873
20
-0.064500
30
0.0
11
0.032639
21
-0.064500
31
0.0
0
LINE
8
0
6
CONTINUOUS
10
0.024216
20
-0.064500
30
0.0
11
0.027873
21
-0.064500
31
0.0
0
LINE
8
0
6
CONTINUOUS
10
0.067120
20
-0.063500
30
0.0
11
0.065478
21
-0.017823
31
0.0
0
LINE
8
0
6
CONTINUOUS
10
0.022997
20
-0.014175
30
0.0
11
0.023168
21
-0.020381
31
0.0
0
LINE
8
0
6
CONTINUOUS
10
0.044525
20
-0.018895
30
0.0
11
0.044610
21
-0.008872
31
0.0
0
LINE
8
0
6
CONTINUOUS
10
0.044610
20
-0.008872
30
0.0
11
0.044697
21
0.001512
31
0.0
0
LINE
8
0
6
CONTINUOUS
10
-0.031821
20
0.004945
30
0.0
11
0.008661
21
0.002118
31
0.0
0
LINE
8
0
6
CONTINUOUS
10
-0.061955
20
0.028506
30
0.0
11
-0.064137
21
0.028506
31
0.0
0
LINE
8
0
6
CONTINUOUS
10
0.024363
20
0.028506
30
0.0
11
-0.061955
21
0.028506
31
0.0
0
LINE
8
0
6
CONTINUOUS
10
-0.064137
20
0.028506
30
0.0
11
-0.066515
21
0.028506
31
0.0
0
LINE
8
0
6
CONTINUOUS
10
-0.066515
20
0.028506
30
0.0
11
-0.067133
21
0.028506
31
0.0
0
LINE
8
0
6
CONTINUOUS
10
-0.065870
20
0.027519
30
0.0
11
-0.066515
21
0.028506
31
0.0
0
LINE
8
0
6
CONTINUOUS
10
-0.067133
20
0.028506
30
0.0
11
-0.066493
21
0.027513
31
0.0
0
LINE
8
0
6
CONTINUOUS
10
0.063803
20
0.028506
30
0.0
11
0.063212
21
0.028506
31
0.0
0
LINE
8
0
6
CONTINUOUS
10
0.063836
20
0.027854
30
0.0
11
0.063803
21
0.028506
31
0.0
0
LINE
8
0
6
CONTINUOUS
10
0.049767
20
0.028506
30
0.0
11
0.044923
21
0.028506
31
0.0
0
LINE
8
0
6
CONTINUOUS
10
0.061313
20
0.028506
30
0.0
11
0.058292
21
0.028506
31
0.0
0
LINE
8
0
6
CONTINUOUS
10
0.058292
20
0.028506
30
0.0
11
0.054354
21
0.028506
31
0.0
0
LINE
8
0
6
CONTINUOUS
10
0.054354
20
0.028506
30
0.0
11
0.049767
21
0.028506
31
0.0
0
LINE
8
0
6
CONTINUOUS
10
0.063212
20
0.028506
30
0.0
11
0.061313
21
0.028506
31
0.0
0
LINE
8
0
6
CONTINUOUS
10
0.044923
20
0.028506
30
0.0
11
0.024363
21
0.028506
31
0.0
0
LINE
8
0
6
CONTINUOUS
10
-0.066493
20
0.027513
30
0.0
11
-0.063870
21
0.023445
31
0.0
0
LINE
8
0
6
CONTINUOUS
10
-0.036962
20
0.005595
30
0.0
11
-0.033998
21
0.005097
31
0.0
0
LINE
8
0
6
CONTINUOUS
10
-0.038773
20
0.006618
30
0.0
11
-0.036962
21
0.005595
31
0.0
0
LINE
8
0
6
CONTINUOUS
10
-0.063870
20
0.023445
30
0.0
11
-0.059902
21
0.019562
31
0.0
0
LINE
8
0
6
CONTINUOUS
10
-0.058940
20
0.019272
30
0.0
11
-0.063097
21
0.023269
31
0.0
0
LINE
8
0
6
CONTINUOUS
10
-0.055220
20
0.016010
30
0.0
11
-0.050390
21
0.013023
31
0.0
0
LINE
8
0
6
CONTINUOUS
10
-0.047760
20
0.011916
30
0.0
11
-0.053673
21
0.015392
31
0.0
0
LINE
8
0
6
CONTINUOUS
10
-0.042599
20
0.009160
30
0.0
11
-0.047760
21
0.011916
31
0.0
0
LINE
8
0
6
CONTINUOUS
10
-0.038493
20
0.006716
30
0.0
11
-0.042599
21
0.009160
31
0.0
0
LINE
8
0
6
CONTINUOUS
10
-0.059902
20
0.019562
30
0.0
11
-0.055220
21
0.016010
31
0.0
0
LINE
8
0
6
CONTINUOUS
10
-0.053673
20
0.015392
30
0.0
11
-0.058940
21
0.019272
31
0.0
0
LINE
8
0
6
CONTINUOUS
10
-0.065870
20
0.027519
30
0.0
11
-0.063097
21
0.023269
31
0.0
0
LINE
8
0
6
CONTINUOUS
10
0.023168
20
-0.020381
30
0.0
11
0.021143
21
-0.063500
31
0.0
0
LINE
8
0
6
CONTINUOUS
10
0.019418
20
-0.002811
30
0.0
11
0.022136
21
-0.008054
31
0.0
0
LINE
8
0
6
CONTINUOUS
10
0.020929
20
-0.002303
30
0.0
11
0.022748
21
-0.000857
31
0.0
0
LINE
8
0
6
CONTINUOUS
10
0.014182
20
0.000558
30
0.0
11
0.019418
21
-0.002811
31
0.0
0
LINE
8
0
6
CONTINUOUS
10
0.019418
20
-0.002811
30
0.0
11
0.020929
21
-0.002303
31
0.0
0
LINE
8
0
6
CONTINUOUS
10
0.008661
20
0.002118
30
0.0
11
0.014182
21
0.000558
31
0.0
0
LINE
8
0
6
CONTINUOUS
10
0.022136
20
-0.008054
30
0.0
11
0.022997
21
-0.014175
31
0.0
0
LINE
8
0
6
CONTINUOUS
10
-0.033998
20
0.005097
30
0.0
11
-0.031821
21
0.004945
31
0.0
0
LINE
8
0
6
CONTINUOUS
10
-0.039178
20
0.007025
30
0.0
11
-0.039567
21
0.007252
31
0.0
0
LINE
8
0
6
CONTINUOUS
10
-0.049516
20
0.012655
30
0.0
11
-0.048579
21
0.012217
31
0.0
0
LINE
8
0
6
CONTINUOUS
10
-0.048579
20
0.012217
30
0.0
11
-0.047244
21
0.011555
31
0.0
0
LINE
8
0
6
CONTINUOUS
10
-0.050721
20
0.013262
30
0.0
11
-0.049516
21
0.012655
31
0.0
0
LINE
8
0
6
CONTINUOUS
10
-0.038773
20
0.006618
30
0.0
11
-0.039130
21
0.006989
31
0.0
0
LINE
8
0
6
CONTINUOUS
10
-0.039130
20
0.006989
30
0.0
11
-0.039178
21
0.007025
31
0.0
0
ENDSEC
0
EOF
