999
Erzeugt mit innoplus bad 
0
SECTION
2
HEADER
9
$ACADVER
1
AC1009
9
$DWGCODEPAGE
3
ISO8859-1
0
ENDSEC
0
SECTION
2
TABLES
0
TABLE
2
LAYER
70
1
0
LAYER
2
0
70
0
62
7
6
CONTINUOUS
0
ENDTAB
0
ENDSEC
0
SECTION
2
ENTITIES
0
LINE
8
0
6
CONTINUOUS
10
-0.018353
20
0.083423
30
0.0
11
-0.016455
21
0.078857
31
0.0
0
LINE
8
0
6
CONTINUOUS
10
-0.018353
20
0.093267
30
0.0
11
-0.019000
21
0.088365
31
0.0
0
LINE
8
0
6
CONTINUOUS
10
0.000000
20
0.107357
30
0.0
11
-0.004918
21
0.106711
31
0.0
0
LINE
8
0
6
CONTINUOUS
10
-0.016455
20
0.097854
30
0.0
11
-0.018353
21
0.093267
31
0.0
0
LINE
8
0
6
CONTINUOUS
10
-0.009500
20
0.104813
30
0.0
11
-0.013435
21
0.101792
31
0.0
0
LINE
8
0
6
CONTINUOUS
10
-0.013435
20
0.074922
30
0.0
11
-0.009500
21
0.071903
31
0.0
0
LINE
8
0
6
CONTINUOUS
10
-0.004918
20
0.106711
30
0.0
11
-0.009500
21
0.104813
31
0.0
0
LINE
8
0
6
CONTINUOUS
10
-0.018353
20
0.083423
30
0.0
11
-0.019000
21
0.088365
31
0.0
0
LINE
8
0
6
CONTINUOUS
10
-0.016455
20
0.097854
30
0.0
11
-0.013435
21
0.101792
31
0.0
0
LINE
8
0
6
CONTINUOUS
10
-0.016455
20
0.078857
30
0.0
11
-0.013435
21
0.074922
31
0.0
0
LINE
8
0
6
CONTINUOUS
10
-0.004918
20
0.070005
30
0.0
11
-0.009500
21
0.071903
31
0.0
0
LINE
8
0
6
CONTINUOUS
10
0.000000
20
0.069357
30
0.0
11
-0.004918
21
0.070005
31
0.0
0
LINE
8
0
6
CONTINUOUS
10
-0.004594
20
0.069404
30
0.0
11
-0.001566
21
0.064748
31
0.0
0
LINE
8
0
6
CONTINUOUS
10
-0.001577
20
0.064790
30
0.0
11
-0.001614
21
0.064845
31
0.0
0
LINE
8
0
6
CONTINUOUS
10
0.000000
20
0.063548
30
0.0
11
-0.000697
21
0.063837
31
0.0
0
LINE
8
0
6
CONTINUOUS
10
-0.000697
20
0.063802
30
0.0
11
0.000000
21
0.063548
31
0.0
0
LINE
8
0
6
CONTINUOUS
10
-0.001566
20
0.064748
30
0.0
11
-0.001050
21
0.063954
31
0.0
0
LINE
8
0
6
CONTINUOUS
10
-0.001577
20
0.064790
30
0.0
11
-0.001063
21
0.063999
31
0.0
0
LINE
8
0
6
CONTINUOUS
10
-0.004601
20
0.069433
30
0.0
11
-0.001577
21
0.064790
31
0.0
0
LINE
8
0
6
CONTINUOUS
10
-0.004601
20
0.069433
30
0.0
11
-0.001550
21
0.067269
31
0.0
0
LINE
8
0
6
CONTINUOUS
10
-0.000690
20
0.069429
30
0.0
11
-0.001062
21
0.069478
31
0.0
0
LINE
8
0
6
CONTINUOUS
10
-0.001050
20
0.063954
30
0.0
11
-0.000697
21
0.063802
31
0.0
0
LINE
8
0
6
CONTINUOUS
10
-0.001062
20
0.063996
30
0.0
11
-0.001050
21
0.063954
31
0.0
0
LINE
8
0
6
CONTINUOUS
10
-0.001073
20
0.064645
30
0.0
11
-0.001063
21
0.063999
31
0.0
0
LINE
8
0
6
CONTINUOUS
10
-0.001063
20
0.063999
30
0.0
11
-0.000697
21
0.063837
31
0.0
0
LINE
8
0
6
CONTINUOUS
10
0.000000
20
0.069338
30
0.0
11
-0.000690
21
0.069429
31
0.0
0
LINE
8
0
6
CONTINUOUS
10
-0.004918
20
0.069985
30
0.0
11
-0.004601
21
0.069433
31
0.0
0
LINE
8
0
6
CONTINUOUS
10
-0.004918
20
0.069985
30
0.0
11
-0.004323
21
0.069843
31
0.0
0
LINE
8
0
6
CONTINUOUS
10
-0.004290
20
0.069902
30
0.0
11
-0.004918
21
0.069985
31
0.0
0
LINE
8
0
6
CONTINUOUS
10
-0.001540
20
0.069541
30
0.0
11
-0.004290
21
0.069902
31
0.0
0
LINE
8
0
6
CONTINUOUS
10
-0.001062
20
0.069478
30
0.0
11
-0.001540
21
0.069541
31
0.0
0
LINE
8
0
6
CONTINUOUS
10
-0.004918
20
0.069985
30
0.0
11
-0.004448
21
0.069659
31
0.0
0
LINE
8
0
6
CONTINUOUS
10
-0.004448
20
0.069659
30
0.0
11
-0.004573
21
0.069474
31
0.0
0
LINE
8
0
6
CONTINUOUS
10
-0.001548
20
0.068293
30
0.0
11
-0.004573
21
0.069474
31
0.0
0
LINE
8
0
6
CONTINUOUS
10
-0.004573
20
0.069474
30
0.0
11
-0.001550
21
0.067269
31
0.0
0
LINE
8
0
6
CONTINUOUS
10
-0.004918
20
0.069984
30
0.0
11
-0.004594
21
0.069404
31
0.0
0
LINE
8
0
6
CONTINUOUS
10
0.016455
20
0.078857
30
0.0
11
0.018353
21
0.083423
31
0.0
0
LINE
8
0
6
CONTINUOUS
10
0.019000
20
0.088365
30
0.0
11
0.018353
21
0.093267
31
0.0
0
LINE
8
0
6
CONTINUOUS
10
0.004918
20
0.106711
30
0.0
11
0.000000
21
0.107357
31
0.0
0
LINE
8
0
6
CONTINUOUS
10
0.018353
20
0.093267
30
0.0
11
0.016455
21
0.097854
31
0.0
0
LINE
8
0
6
CONTINUOUS
10
0.013435
20
0.101792
30
0.0
11
0.009500
21
0.104813
31
0.0
0
LINE
8
0
6
CONTINUOUS
10
0.009500
20
0.071903
30
0.0
11
0.013435
21
0.074922
31
0.0
0
LINE
8
0
6
CONTINUOUS
10
0.009500
20
0.104813
30
0.0
11
0.004918
21
0.106711
31
0.0
0
LINE
8
0
6
CONTINUOUS
10
0.019000
20
0.088365
30
0.0
11
0.018353
21
0.083423
31
0.0
0
LINE
8
0
6
CONTINUOUS
10
0.013435
20
0.101792
30
0.0
11
0.016455
21
0.097854
31
0.0
0
LINE
8
0
6
CONTINUOUS
10
0.013435
20
0.074922
30
0.0
11
0.016455
21
0.078857
31
0.0
0
LINE
8
0
6
CONTINUOUS
10
0.009500
20
0.071903
30
0.0
11
0.004918
21
0.070005
31
0.0
0
LINE
8
0
6
CONTINUOUS
10
0.004918
20
0.070005
30
0.0
11
0.000000
21
0.069357
31
0.0
0
LINE
8
0
6
CONTINUOUS
10
0.000000
20
0.064379
30
0.0
11
0.000000
21
0.063548
31
0.0
0
LINE
8
0
6
CONTINUOUS
10
0.001566
20
0.064748
30
0.0
11
0.004594
21
0.069404
31
0.0
0
LINE
8
0
6
CONTINUOUS
10
0.001614
20
0.064845
30
0.0
11
0.001577
21
0.064790
31
0.0
0
LINE
8
0
6
CONTINUOUS
10
0.000697
20
0.063837
30
0.0
11
0.000000
21
0.063548
31
0.0
0
LINE
8
0
6
CONTINUOUS
10
0.000000
20
0.063548
30
0.0
11
0.000697
21
0.063802
31
0.0
0
LINE
8
0
6
CONTINUOUS
10
0.001050
20
0.063954
30
0.0
11
0.001566
21
0.064748
31
0.0
0
LINE
8
0
6
CONTINUOUS
10
0.001063
20
0.063999
30
0.0
11
0.001577
21
0.064790
31
0.0
0
LINE
8
0
6
CONTINUOUS
10
0.001577
20
0.064790
30
0.0
11
0.004601
21
0.069433
31
0.0
0
LINE
8
0
6
CONTINUOUS
10
0.004601
20
0.069433
30
0.0
11
0.001550
21
0.067269
31
0.0
0
LINE
8
0
6
CONTINUOUS
10
0.001062
20
0.069478
30
0.0
11
0.000690
21
0.069429
31
0.0
0
LINE
8
0
6
CONTINUOUS
10
0.001050
20
0.063954
30
0.0
11
0.001062
21
0.063996
31
0.0
0
LINE
8
0
6
CONTINUOUS
10
0.000697
20
0.063802
30
0.0
11
0.001050
21
0.063954
31
0.0
0
LINE
8
0
6
CONTINUOUS
10
0.000697
20
0.063837
30
0.0
11
0.001063
21
0.063999
31
0.0
0
LINE
8
0
6
CONTINUOUS
10
0.001063
20
0.063999
30
0.0
11
0.001073
21
0.064645
31
0.0
0
LINE
8
0
6
CONTINUOUS
10
0.000690
20
0.069429
30
0.0
11
0.000000
21
0.069338
31
0.0
0
LINE
8
0
6
CONTINUOUS
10
0.004601
20
0.069433
30
0.0
11
0.004918
21
0.069985
31
0.0
0
LINE
8
0
6
CONTINUOUS
10
0.004323
20
0.069843
30
0.0
11
0.004918
21
0.069985
31
0.0
0
LINE
8
0
6
CONTINUOUS
10
0.004918
20
0.069985
30
0.0
11
0.004290
21
0.069902
31
0.0
0
LINE
8
0
6
CONTINUOUS
10
0.004290
20
0.069902
30
0.0
11
0.001540
21
0.069541
31
0.0
0
LINE
8
0
6
CONTINUOUS
10
0.001540
20
0.069541
30
0.0
11
0.001062
21
0.069478
31
0.0
0
LINE
8
0
6
CONTINUOUS
10
0.004448
20
0.069659
30
0.0
11
0.004918
21
0.069985
31
0.0
0
LINE
8
0
6
CONTINUOUS
10
0.001550
20
0.067269
30
0.0
11
0.004573
21
0.069474
31
0.0
0
LINE
8
0
6
CONTINUOUS
10
0.001548
20
0.068293
30
0.0
11
0.004573
21
0.069474
31
0.0
0
LINE
8
0
6
CONTINUOUS
10
0.004573
20
0.069474
30
0.0
11
0.004448
21
0.069659
31
0.0
0
LINE
8
0
6
CONTINUOUS
10
0.004594
20
0.069404
30
0.0
11
0.004918
21
0.069984
31
0.0
0
LINE
8
0
6
CONTINUOUS
10
-0.019544
20
0.088321
30
0.0
11
-0.019176
21
0.084852
31
0.0
0
LINE
8
0
6
CONTINUOUS
10
-0.019034
20
0.088421
30
0.0
11
-0.019012
21
0.074952
31
0.0
0
LINE
8
0
6
CONTINUOUS
10
-0.016852
20
-0.110015
30
0.0
11
-0.014454
21
-0.110633
31
0.0
0
LINE
8
0
6
CONTINUOUS
10
-0.017514
20
-0.107637
30
0.0
11
-0.016852
21
-0.110015
31
0.0
0
LINE
8
0
6
CONTINUOUS
10
-0.012511
20
-0.110633
30
0.0
11
0.000000
21
-0.110633
31
0.0
0
LINE
8
0
6
CONTINUOUS
10
-0.019000
20
0.067863
30
0.0
11
-0.017550
21
-0.105455
31
0.0
0
LINE
8
0
6
CONTINUOUS
10
-0.019222
20
0.088384
30
0.0
11
-0.019047
21
0.074998
31
0.0
0
LINE
8
0
6
CONTINUOUS
10
-0.017550
20
-0.105455
30
0.0
11
-0.017514
21
-0.107637
31
0.0
0
LINE
8
0
6
CONTINUOUS
10
-0.014454
20
-0.110633
30
0.0
11
-0.012511
21
-0.110633
31
0.0
0
LINE
8
0
6
CONTINUOUS
10
-0.018992
20
0.088307
30
0.0
11
-0.019000
21
0.067863
31
0.0
0
LINE
8
0
6
CONTINUOUS
10
-0.019866
20
0.088258
30
0.0
11
-0.019167
21
0.084173
31
0.0
0
LINE
8
0
6
CONTINUOUS
10
0.019176
20
0.084844
30
0.0
11
0.019546
21
0.088321
31
0.0
0
LINE
8
0
6
CONTINUOUS
10
0.019012
20
0.074952
30
0.0
11
0.019034
21
0.088421
31
0.0
0
LINE
8
0
6
CONTINUOUS
10
0.014454
20
-0.110633
30
0.0
11
0.016852
21
-0.110015
31
0.0
0
LINE
8
0
6
CONTINUOUS
10
0.016852
20
-0.110015
30
0.0
11
0.017514
21
-0.107637
31
0.0
0
LINE
8
0
6
CONTINUOUS
10
0.000000
20
-0.110633
30
0.0
11
0.012511
21
-0.110633
31
0.0
0
LINE
8
0
6
CONTINUOUS
10
0.017550
20
-0.105455
30
0.0
11
0.019000
21
0.067863
31
0.0
0
LINE
8
0
6
CONTINUOUS
10
0.019048
20
0.074999
30
0.0
11
0.019223
21
0.088384
31
0.0
0
LINE
8
0
6
CONTINUOUS
10
0.017514
20
-0.107637
30
0.0
11
0.017550
21
-0.105455
31
0.0
0
LINE
8
0
6
CONTINUOUS
10
0.012511
20
-0.110633
30
0.0
11
0.014454
21
-0.110633
31
0.0
0
LINE
8
0
6
CONTINUOUS
10
0.019000
20
0.067863
30
0.0
11
0.018992
21
0.088307
31
0.0
0
LINE
8
0
6
CONTINUOUS
10
0.019167
20
0.084167
30
0.0
11
0.019869
21
0.088257
31
0.0
0
LINE
8
0
6
CONTINUOUS
10
-0.019922
20
0.076139
30
0.0
11
-0.019047
21
0.074998
31
0.0
0
LINE
8
0
6
CONTINUOUS
10
-0.022218
20
0.081688
30
0.0
11
-0.019922
21
0.076139
31
0.0
0
LINE
8
0
6
CONTINUOUS
10
-0.005955
20
0.109791
30
0.0
11
-0.011505
21
0.107492
31
0.0
0
LINE
8
0
6
CONTINUOUS
10
0.000000
20
0.110633
30
0.0
11
-0.005955
21
0.109791
31
0.0
0
LINE
8
0
6
CONTINUOUS
10
-0.022225
20
0.093510
30
0.0
11
-0.023000
21
0.087643
31
0.0
0
LINE
8
0
6
CONTINUOUS
10
-0.011505
20
0.107492
30
0.0
11
-0.016270
21
0.103834
31
0.0
0
LINE
8
0
6
CONTINUOUS
10
-0.016270
20
0.103834
30
0.0
11
-0.019927
21
0.099065
31
0.0
0
LINE
8
0
6
CONTINUOUS
10
-0.019927
20
0.099065
30
0.0
11
-0.022225
21
0.093510
31
0.0
0
LINE
8
0
6
CONTINUOUS
10
-0.023000
20
0.087643
30
0.0
11
-0.022218
21
0.081688
31
0.0
0
LINE
8
0
6
CONTINUOUS
10
0.019048
20
0.074999
30
0.0
11
0.019922
21
0.076139
31
0.0
0
LINE
8
0
6
CONTINUOUS
10
0.019922
20
0.076139
30
0.0
11
0.022218
21
0.081688
31
0.0
0
LINE
8
0
6
CONTINUOUS
10
0.011505
20
0.107492
30
0.0
11
0.005955
21
0.109791
31
0.0
0
LINE
8
0
6
CONTINUOUS
10
0.005955
20
0.109791
30
0.0
11
0.000000
21
0.110633
31
0.0
0
LINE
8
0
6
CONTINUOUS
10
0.023000
20
0.087643
30
0.0
11
0.022225
21
0.093510
31
0.0
0
LINE
8
0
6
CONTINUOUS
10
0.016270
20
0.103834
30
0.0
11
0.011505
21
0.107492
31
0.0
0
LINE
8
0
6
CONTINUOUS
10
0.019927
20
0.099065
30
0.0
11
0.016270
21
0.103834
31
0.0
0
LINE
8
0
6
CONTINUOUS
10
0.022225
20
0.093510
30
0.0
11
0.019927
21
0.099065
31
0.0
0
LINE
8
0
6
CONTINUOUS
10
0.022218
20
0.081688
30
0.0
11
0.023000
21
0.087643
31
0.0
0
ENDSEC
0
EOF
