999
Erzeugt mit innoplus bad 
0
SECTION
2
HEADER
9
$ACADVER
1
AC1009
9
$DWGCODEPAGE
3
ISO8859-1
0
ENDSEC
0
SECTION
2
TABLES
0
TABLE
2
LAYER
70
1
0
LAYER
2
0
70
0
62
7
6
CONTINUOUS
0
ENDTAB
0
ENDSEC
0
SECTION
2
ENTITIES
0
LINE
8
0
6
CONTINUOUS
10
0.083423
20
0.154000
30
0.0
11
0.078857
21
0.154000
31
0.0
0
LINE
8
0
6
CONTINUOUS
10
0.097854
20
0.154000
30
0.0
11
0.093267
21
0.154000
31
0.0
0
LINE
8
0
6
CONTINUOUS
10
0.074922
20
0.154000
30
0.0
11
0.071903
21
0.154000
31
0.0
0
LINE
8
0
6
CONTINUOUS
10
0.093267
20
0.154000
30
0.0
11
0.088365
21
0.154000
31
0.0
0
LINE
8
0
6
CONTINUOUS
10
0.106711
20
0.154000
30
0.0
11
0.104813
21
0.154000
31
0.0
0
LINE
8
0
6
CONTINUOUS
10
0.088365
20
0.154000
30
0.0
11
0.083423
21
0.154000
31
0.0
0
LINE
8
0
6
CONTINUOUS
10
0.107357
20
0.154000
30
0.0
11
0.106711
21
0.154000
31
0.0
0
LINE
8
0
6
CONTINUOUS
10
0.107357
20
0.153610
30
0.0
11
0.107357
21
0.154000
31
0.0
0
LINE
8
0
6
CONTINUOUS
10
0.101792
20
0.154000
30
0.0
11
0.097854
21
0.154000
31
0.0
0
LINE
8
0
6
CONTINUOUS
10
0.078857
20
0.154000
30
0.0
11
0.074922
21
0.154000
31
0.0
0
LINE
8
0
6
CONTINUOUS
10
0.071903
20
0.154000
30
0.0
11
0.070005
21
0.154000
31
0.0
0
LINE
8
0
6
CONTINUOUS
10
0.104813
20
0.154000
30
0.0
11
0.101792
21
0.154000
31
0.0
0
LINE
8
0
6
CONTINUOUS
10
0.107357
20
0.128901
30
0.0
11
0.107357
21
0.153610
31
0.0
0
LINE
8
0
6
CONTINUOUS
10
0.069357
20
0.154000
30
0.0
11
0.069357
21
0.153511
31
0.0
0
LINE
8
0
6
CONTINUOUS
10
0.070005
20
0.154000
30
0.0
11
0.069357
21
0.154000
31
0.0
0
LINE
8
0
6
CONTINUOUS
10
0.064379
20
0.145605
30
0.0
11
0.063548
21
0.144949
31
0.0
0
LINE
8
0
6
CONTINUOUS
10
0.063548
20
0.144949
30
0.0
11
0.063548
21
0.144445
31
0.0
0
LINE
8
0
6
CONTINUOUS
10
0.063837
20
0.144994
30
0.0
11
0.063548
21
0.144949
31
0.0
0
LINE
8
0
6
CONTINUOUS
10
0.063548
20
0.144445
30
0.0
11
0.063548
21
0.128901
31
0.0
0
LINE
8
0
6
CONTINUOUS
10
0.063999
20
0.145017
30
0.0
11
0.064790
21
0.145289
31
0.0
0
LINE
8
0
6
CONTINUOUS
10
0.064790
20
0.145289
30
0.0
11
0.069433
21
0.147386
31
0.0
0
LINE
8
0
6
CONTINUOUS
10
0.069433
20
0.147386
30
0.0
11
0.067269
21
0.147268
31
0.0
0
LINE
8
0
6
CONTINUOUS
10
0.069478
20
0.150139
30
0.0
11
0.069429
21
0.150142
31
0.0
0
LINE
8
0
6
CONTINUOUS
10
0.063954
20
0.128901
30
0.0
11
0.063996
21
0.144509
31
0.0
0
LINE
8
0
6
CONTINUOUS
10
0.063996
20
0.144509
30
0.0
11
0.063999
21
0.145017
31
0.0
0
LINE
8
0
6
CONTINUOUS
10
0.063837
20
0.144994
30
0.0
11
0.063999
21
0.145017
31
0.0
0
LINE
8
0
6
CONTINUOUS
10
0.063999
20
0.145017
30
0.0
11
0.064645
21
0.145622
31
0.0
0
LINE
8
0
6
CONTINUOUS
10
0.069985
20
0.146445
30
0.0
11
0.069985
21
0.147015
31
0.0
0
LINE
8
0
6
CONTINUOUS
10
0.069985
20
0.147015
30
0.0
11
0.069985
21
0.147585
31
0.0
0
LINE
8
0
6
CONTINUOUS
10
0.069338
20
0.150148
30
0.0
11
0.068404
21
0.148860
31
0.0
0
LINE
8
0
6
CONTINUOUS
10
0.069429
20
0.150142
30
0.0
11
0.069338
21
0.150148
31
0.0
0
LINE
8
0
6
CONTINUOUS
10
0.069985
20
0.147585
30
0.0
11
0.069985
21
0.147705
31
0.0
0
LINE
8
0
6
CONTINUOUS
10
0.069985
20
0.149949
30
0.0
11
0.069985
21
0.150104
31
0.0
0
LINE
8
0
6
CONTINUOUS
10
0.069985
20
0.150104
30
0.0
11
0.069902
21
0.150110
31
0.0
0
LINE
8
0
6
CONTINUOUS
10
0.069902
20
0.150110
30
0.0
11
0.069541
21
0.150134
31
0.0
0
LINE
8
0
6
CONTINUOUS
10
0.069541
20
0.150134
30
0.0
11
0.069478
21
0.150139
31
0.0
0
LINE
8
0
6
CONTINUOUS
10
0.066651
20
0.147160
30
0.0
11
0.064379
21
0.145605
31
0.0
0
LINE
8
0
6
CONTINUOUS
10
0.069659
20
0.148731
30
0.0
11
0.069985
21
0.147705
31
0.0
0
LINE
8
0
6
CONTINUOUS
10
0.069985
20
0.147705
30
0.0
11
0.069985
21
0.148827
31
0.0
0
LINE
8
0
6
CONTINUOUS
10
0.069985
20
0.148827
30
0.0
11
0.069985
21
0.149949
31
0.0
0
LINE
8
0
6
CONTINUOUS
10
0.067269
20
0.147268
30
0.0
11
0.069474
21
0.147632
31
0.0
0
LINE
8
0
6
CONTINUOUS
10
0.068293
20
0.148010
30
0.0
11
0.069474
21
0.147632
31
0.0
0
LINE
8
0
6
CONTINUOUS
10
0.069474
20
0.147632
30
0.0
11
0.069659
21
0.148731
31
0.0
0
LINE
8
0
6
CONTINUOUS
10
0.067700
20
0.147877
30
0.0
11
0.066651
21
0.147160
31
0.0
0
LINE
8
0
6
CONTINUOUS
10
0.068404
20
0.148860
30
0.0
11
0.067700
21
0.147877
31
0.0
0
LINE
8
0
6
CONTINUOUS
10
0.069984
20
0.128901
30
0.0
11
0.069985
21
0.146445
31
0.0
0
LINE
8
0
6
CONTINUOUS
10
0.078857
20
0.103802
30
0.0
11
0.083423
21
0.103802
31
0.0
0
LINE
8
0
6
CONTINUOUS
10
0.093267
20
0.103802
30
0.0
11
0.097854
21
0.103802
31
0.0
0
LINE
8
0
6
CONTINUOUS
10
0.071903
20
0.103802
30
0.0
11
0.074922
21
0.103802
31
0.0
0
LINE
8
0
6
CONTINUOUS
10
0.088365
20
0.103802
30
0.0
11
0.093267
21
0.103802
31
0.0
0
LINE
8
0
6
CONTINUOUS
10
0.104813
20
0.103802
30
0.0
11
0.106711
21
0.103802
31
0.0
0
LINE
8
0
6
CONTINUOUS
10
0.083423
20
0.103802
30
0.0
11
0.088365
21
0.103802
31
0.0
0
LINE
8
0
6
CONTINUOUS
10
0.107357
20
0.103802
30
0.0
11
0.107357
21
0.104193
31
0.0
0
LINE
8
0
6
CONTINUOUS
10
0.106711
20
0.103802
30
0.0
11
0.107357
21
0.103802
31
0.0
0
LINE
8
0
6
CONTINUOUS
10
0.097854
20
0.103802
30
0.0
11
0.101792
21
0.103802
31
0.0
0
LINE
8
0
6
CONTINUOUS
10
0.074922
20
0.103802
30
0.0
11
0.078857
21
0.103802
31
0.0
0
LINE
8
0
6
CONTINUOUS
10
0.070005
20
0.103802
30
0.0
11
0.071903
21
0.103802
31
0.0
0
LINE
8
0
6
CONTINUOUS
10
0.101792
20
0.103802
30
0.0
11
0.104813
21
0.103802
31
0.0
0
LINE
8
0
6
CONTINUOUS
10
0.107357
20
0.104193
30
0.0
11
0.107357
21
0.128901
31
0.0
0
LINE
8
0
6
CONTINUOUS
10
0.069357
20
0.103802
30
0.0
11
0.070005
21
0.103802
31
0.0
0
LINE
8
0
6
CONTINUOUS
10
0.069357
20
0.104291
30
0.0
11
0.069357
21
0.103802
31
0.0
0
LINE
8
0
6
CONTINUOUS
10
0.063548
20
0.112853
30
0.0
11
0.064379
21
0.112197
31
0.0
0
LINE
8
0
6
CONTINUOUS
10
0.063548
20
0.112853
30
0.0
11
0.063837
21
0.112809
31
0.0
0
LINE
8
0
6
CONTINUOUS
10
0.063548
20
0.113358
30
0.0
11
0.063548
21
0.112853
31
0.0
0
LINE
8
0
6
CONTINUOUS
10
0.063548
20
0.128901
30
0.0
11
0.063548
21
0.113358
31
0.0
0
LINE
8
0
6
CONTINUOUS
10
0.064790
20
0.112513
30
0.0
11
0.063999
21
0.112785
31
0.0
0
LINE
8
0
6
CONTINUOUS
10
0.064790
20
0.112513
30
0.0
11
0.069433
21
0.110416
31
0.0
0
LINE
8
0
6
CONTINUOUS
10
0.069433
20
0.110416
30
0.0
11
0.067269
21
0.110534
31
0.0
0
LINE
8
0
6
CONTINUOUS
10
0.069429
20
0.107660
30
0.0
11
0.069478
21
0.107664
31
0.0
0
LINE
8
0
6
CONTINUOUS
10
0.063996
20
0.113293
30
0.0
11
0.063954
21
0.128901
31
0.0
0
LINE
8
0
6
CONTINUOUS
10
0.063999
20
0.112785
30
0.0
11
0.063996
21
0.113293
31
0.0
0
LINE
8
0
6
CONTINUOUS
10
0.064645
20
0.112180
30
0.0
11
0.063999
21
0.112785
31
0.0
0
LINE
8
0
6
CONTINUOUS
10
0.063999
20
0.112785
30
0.0
11
0.063837
21
0.112809
31
0.0
0
LINE
8
0
6
CONTINUOUS
10
0.069985
20
0.110788
30
0.0
11
0.069985
21
0.111357
31
0.0
0
LINE
8
0
6
CONTINUOUS
10
0.069985
20
0.110217
30
0.0
11
0.069985
21
0.110788
31
0.0
0
LINE
8
0
6
CONTINUOUS
10
0.069338
20
0.107654
30
0.0
11
0.069429
21
0.107660
31
0.0
0
LINE
8
0
6
CONTINUOUS
10
0.068404
20
0.108942
30
0.0
11
0.069338
21
0.107654
31
0.0
0
LINE
8
0
6
CONTINUOUS
10
0.069985
20
0.110097
30
0.0
11
0.069985
21
0.110217
31
0.0
0
LINE
8
0
6
CONTINUOUS
10
0.069902
20
0.107692
30
0.0
11
0.069985
21
0.107698
31
0.0
0
LINE
8
0
6
CONTINUOUS
10
0.069985
20
0.107698
30
0.0
11
0.069985
21
0.107853
31
0.0
0
LINE
8
0
6
CONTINUOUS
10
0.069541
20
0.107668
30
0.0
11
0.069902
21
0.107692
31
0.0
0
LINE
8
0
6
CONTINUOUS
10
0.069478
20
0.107664
30
0.0
11
0.069541
21
0.107668
31
0.0
0
LINE
8
0
6
CONTINUOUS
10
0.064379
20
0.112197
30
0.0
11
0.066651
21
0.110643
31
0.0
0
LINE
8
0
6
CONTINUOUS
10
0.069985
20
0.108975
30
0.0
11
0.069985
21
0.110097
31
0.0
0
LINE
8
0
6
CONTINUOUS
10
0.069659
20
0.109071
30
0.0
11
0.069985
21
0.110097
31
0.0
0
LINE
8
0
6
CONTINUOUS
10
0.069985
20
0.107853
30
0.0
11
0.069985
21
0.108975
31
0.0
0
LINE
8
0
6
CONTINUOUS
10
0.069659
20
0.109071
30
0.0
11
0.069474
21
0.110170
31
0.0
0
LINE
8
0
6
CONTINUOUS
10
0.068293
20
0.109792
30
0.0
11
0.069474
21
0.110170
31
0.0
0
LINE
8
0
6
CONTINUOUS
10
0.069474
20
0.110170
30
0.0
11
0.067269
21
0.110534
31
0.0
0
LINE
8
0
6
CONTINUOUS
10
0.066651
20
0.110643
30
0.0
11
0.067700
21
0.109926
31
0.0
0
LINE
8
0
6
CONTINUOUS
10
0.067700
20
0.109926
30
0.0
11
0.068404
21
0.108942
31
0.0
0
LINE
8
0
6
CONTINUOUS
10
0.069985
20
0.111357
30
0.0
11
0.069984
21
0.128900
31
0.0
0
LINE
8
0
6
CONTINUOUS
10
0.092899
20
0.102006
30
0.0
11
0.097137
21
0.102006
31
0.0
0
LINE
8
0
6
CONTINUOUS
10
0.097137
20
0.102006
30
0.0
11
0.100771
21
0.102006
31
0.0
0
LINE
8
0
6
CONTINUOUS
10
0.083697
20
0.102006
30
0.0
11
0.088366
21
0.102006
31
0.0
0
LINE
8
0
6
CONTINUOUS
10
0.100771
20
0.102006
30
0.0
11
0.103554
21
0.102006
31
0.0
0
LINE
8
0
6
CONTINUOUS
10
0.105893
20
0.102006
30
0.0
11
0.105893
21
0.103802
31
0.0
0
LINE
8
0
6
CONTINUOUS
10
0.105300
20
0.102006
30
0.0
11
0.105893
21
0.102006
31
0.0
0
LINE
8
0
6
CONTINUOUS
10
0.088366
20
0.102006
30
0.0
11
0.092899
21
0.102006
31
0.0
0
LINE
8
0
6
CONTINUOUS
10
0.103554
20
0.102006
30
0.0
11
0.105300
21
0.102006
31
0.0
0
LINE
8
0
6
CONTINUOUS
10
-0.084352
20
0.076104
30
0.0
11
-0.084107
21
0.076539
31
0.0
0
LINE
8
0
6
CONTINUOUS
10
-0.084833
20
0.076374
30
0.0
11
-0.084352
21
0.076104
31
0.0
0
LINE
8
0
6
CONTINUOUS
10
-0.084833
20
0.076374
30
0.0
11
-0.086228
21
0.077160
31
0.0
0
LINE
8
0
6
CONTINUOUS
10
-0.088402
20
0.078384
30
0.0
11
-0.086228
21
0.077160
31
0.0
0
LINE
8
0
6
CONTINUOUS
10
-0.088402
20
0.078384
30
0.0
11
-0.091140
21
0.079925
31
0.0
0
LINE
8
0
6
CONTINUOUS
10
-0.091140
20
0.079925
30
0.0
11
-0.094176
21
0.081635
31
0.0
0
LINE
8
0
6
CONTINUOUS
10
-0.094176
20
0.081635
30
0.0
11
-0.097212
21
0.083344
31
0.0
0
LINE
8
0
6
CONTINUOUS
10
-0.099950
20
0.084886
30
0.0
11
-0.097212
21
0.083344
31
0.0
0
LINE
8
0
6
CONTINUOUS
10
-0.102124
20
0.086109
30
0.0
11
-0.099950
21
0.084886
31
0.0
0
LINE
8
0
6
CONTINUOUS
10
-0.102124
20
0.086109
30
0.0
11
-0.103519
21
0.086895
31
0.0
0
LINE
8
0
6
CONTINUOUS
10
-0.103876
20
0.087386
30
0.0
11
-0.104000
21
0.087165
31
0.0
0
LINE
8
0
6
CONTINUOUS
10
-0.103519
20
0.086895
30
0.0
11
-0.104000
21
0.087165
31
0.0
0
LINE
8
0
6
CONTINUOUS
10
-0.084107
20
0.076539
30
0.0
11
-0.082136
21
0.080041
31
0.0
0
LINE
8
0
6
CONTINUOUS
10
-0.077498
20
0.078597
30
0.0
11
-0.075321
21
0.078445
31
0.0
0
LINE
8
0
6
CONTINUOUS
10
0.066096
20
0.065446
30
0.0
11
0.067079
21
0.059325
31
0.0
0
LINE
8
0
6
CONTINUOUS
10
0.052161
20
0.075618
30
0.0
11
0.057682
21
0.074058
31
0.0
0
LINE
8
0
6
CONTINUOUS
10
0.057682
20
0.074058
30
0.0
11
0.062918
21
0.070689
31
0.0
0
LINE
8
0
6
CONTINUOUS
10
0.062918
20
0.070689
30
0.0
11
0.066096
21
0.065446
31
0.0
0
LINE
8
0
6
CONTINUOUS
10
0.066668
20
0.053119
30
0.0
11
0.064643
21
-0.153000
31
0.0
0
LINE
8
0
6
CONTINUOUS
10
0.107991
20
0.076492
30
0.0
11
0.107743
21
0.085894
31
0.0
0
LINE
8
0
6
CONTINUOUS
10
0.108574
20
0.054341
30
0.0
11
0.108239
21
0.067089
31
0.0
0
LINE
8
0
6
CONTINUOUS
10
0.108239
20
0.067089
30
0.0
11
0.107991
21
0.076492
31
0.0
0
LINE
8
0
6
CONTINUOUS
10
0.110620
20
-0.153000
30
0.0
11
0.108574
21
0.054341
31
0.0
0
LINE
8
0
6
CONTINUOUS
10
0.107496
20
0.095297
30
0.0
11
0.107336
21
0.101354
31
0.0
0
LINE
8
0
6
CONTINUOUS
10
0.107743
20
0.085894
30
0.0
11
0.107496
21
0.095297
31
0.0
0
LINE
8
0
6
CONTINUOUS
10
-0.103402
20
0.093062
30
0.0
11
-0.098720
21
0.089510
31
0.0
0
LINE
8
0
6
CONTINUOUS
10
-0.102440
20
0.092772
30
0.0
11
-0.097173
21
0.088892
31
0.0
0
LINE
8
0
6
CONTINUOUS
10
-0.084469
20
0.081689
30
0.0
11
-0.082026
21
0.080236
31
0.0
0
LINE
8
0
6
CONTINUOUS
10
-0.091260
20
0.085416
30
0.0
11
-0.088623
21
0.084008
31
0.0
0
LINE
8
0
6
CONTINUOUS
10
-0.098720
20
0.089510
30
0.0
11
-0.093890
21
0.086523
31
0.0
0
LINE
8
0
6
CONTINUOUS
10
-0.097173
20
0.088892
30
0.0
11
-0.091260
21
0.085416
31
0.0
0
LINE
8
0
6
CONTINUOUS
10
-0.107370
20
0.096945
30
0.0
11
-0.103402
21
0.093062
31
0.0
0
LINE
8
0
6
CONTINUOUS
10
-0.106597
20
0.096769
30
0.0
11
-0.102440
21
0.092772
31
0.0
0
LINE
8
0
6
CONTINUOUS
10
-0.082136
20
0.080041
30
0.0
11
-0.080462
21
0.079095
31
0.0
0
LINE
8
0
6
CONTINUOUS
10
-0.080462
20
0.079095
30
0.0
11
-0.077498
21
0.078597
31
0.0
0
LINE
8
0
6
CONTINUOUS
10
-0.109993
20
0.101013
30
0.0
11
-0.107370
21
0.096945
31
0.0
0
LINE
8
0
6
CONTINUOUS
10
-0.106597
20
0.096769
30
0.0
11
-0.109370
21
0.101019
31
0.0
0
LINE
8
0
6
CONTINUOUS
10
0.088423
20
0.102006
30
0.0
11
0.067863
21
0.102006
31
0.0
0
LINE
8
0
6
CONTINUOUS
10
0.106711
20
0.102006
30
0.0
11
0.104813
21
0.102006
31
0.0
0
LINE
8
0
6
CONTINUOUS
10
0.097854
20
0.102006
30
0.0
11
0.093267
21
0.102006
31
0.0
0
LINE
8
0
6
CONTINUOUS
10
0.101792
20
0.102006
30
0.0
11
0.097854
21
0.102006
31
0.0
0
LINE
8
0
6
CONTINUOUS
10
0.104813
20
0.102006
30
0.0
11
0.101792
21
0.102006
31
0.0
0
LINE
8
0
6
CONTINUOUS
10
0.093267
20
0.102006
30
0.0
11
0.088423
21
0.102006
31
0.0
0
LINE
8
0
6
CONTINUOUS
10
0.107303
20
0.102006
30
0.0
11
0.106711
21
0.102006
31
0.0
0
LINE
8
0
6
CONTINUOUS
10
0.107336
20
0.101354
30
0.0
11
0.107303
21
0.102006
31
0.0
0
LINE
8
0
6
CONTINUOUS
10
-0.110015
20
0.102006
30
0.0
11
-0.110633
21
0.102006
31
0.0
0
LINE
8
0
6
CONTINUOUS
10
-0.110633
20
0.102006
30
0.0
11
-0.109993
21
0.101013
31
0.0
0
LINE
8
0
6
CONTINUOUS
10
-0.107637
20
0.102006
30
0.0
11
-0.110015
21
0.102006
31
0.0
0
LINE
8
0
6
CONTINUOUS
10
-0.110015
20
0.102006
30
0.0
11
-0.109370
21
0.101019
31
0.0
0
LINE
8
0
6
CONTINUOUS
10
0.067863
20
0.102006
30
0.0
11
-0.105455
21
0.102006
31
0.0
0
LINE
8
0
6
CONTINUOUS
10
-0.105455
20
0.102006
30
0.0
11
-0.107637
21
0.102006
31
0.0
0
LINE
8
0
6
CONTINUOUS
10
-0.075321
20
0.078445
30
0.0
11
0.052161
21
0.075618
31
0.0
0
LINE
8
0
6
CONTINUOUS
10
0.067079
20
0.059325
30
0.0
11
0.066668
21
0.053119
31
0.0
0
LINE
8
0
6
CONTINUOUS
10
0.071373
20
-0.154000
30
0.0
11
0.067716
21
-0.154000
31
0.0
0
LINE
8
0
6
CONTINUOUS
10
0.076139
20
-0.154000
30
0.0
11
0.071373
21
-0.154000
31
0.0
0
LINE
8
0
6
CONTINUOUS
10
0.064643
20
-0.153000
30
0.0
11
0.064633
21
-0.154000
31
0.0
0
LINE
8
0
6
CONTINUOUS
10
0.065417
20
-0.154000
30
0.0
11
0.064633
21
-0.154000
31
0.0
0
LINE
8
0
6
CONTINUOUS
10
0.067716
20
-0.154000
30
0.0
11
0.065417
21
-0.154000
31
0.0
0
LINE
8
0
6
CONTINUOUS
10
0.081688
20
-0.154000
30
0.0
11
0.076139
21
-0.154000
31
0.0
0
LINE
8
0
6
CONTINUOUS
10
0.109791
20
-0.154000
30
0.0
11
0.107492
21
-0.154000
31
0.0
0
LINE
8
0
6
CONTINUOUS
10
0.110633
20
-0.154000
30
0.0
11
0.110620
21
-0.153000
31
0.0
0
LINE
8
0
6
CONTINUOUS
10
0.110633
20
-0.154000
30
0.0
11
0.109791
21
-0.154000
31
0.0
0
LINE
8
0
6
CONTINUOUS
10
0.093510
20
-0.154000
30
0.0
11
0.087643
21
-0.154000
31
0.0
0
LINE
8
0
6
CONTINUOUS
10
0.107492
20
-0.154000
30
0.0
11
0.103834
21
-0.154000
31
0.0
0
LINE
8
0
6
CONTINUOUS
10
0.099065
20
-0.154000
30
0.0
11
0.103834
21
-0.154000
31
0.0
0
LINE
8
0
6
CONTINUOUS
10
0.099065
20
-0.154000
30
0.0
11
0.093510
21
-0.154000
31
0.0
0
LINE
8
0
6
CONTINUOUS
10
0.087643
20
-0.154000
30
0.0
11
0.081688
21
-0.154000
31
0.0
0
LINE
8
0
6
CONTINUOUS
10
-0.101650
20
0.091733
30
0.0
11
-0.103802
21
0.087918
31
0.0
0
LINE
8
0
6
CONTINUOUS
10
-0.104048
20
0.087482
30
0.0
11
-0.103566
21
0.087212
31
0.0
0
LINE
8
0
6
CONTINUOUS
10
-0.103802
20
0.087918
30
0.0
11
-0.104048
21
0.087482
31
0.0
0
LINE
8
0
6
CONTINUOUS
10
-0.102168
20
0.086426
30
0.0
11
-0.103566
21
0.087212
31
0.0
0
LINE
8
0
6
CONTINUOUS
10
-0.099990
20
0.085202
30
0.0
11
-0.102168
21
0.086426
31
0.0
0
LINE
8
0
6
CONTINUOUS
10
-0.097246
20
0.083660
30
0.0
11
-0.099990
21
0.085202
31
0.0
0
LINE
8
0
6
CONTINUOUS
10
-0.094204
20
0.081951
30
0.0
11
-0.097246
21
0.083660
31
0.0
0
LINE
8
0
6
CONTINUOUS
10
0.070789
20
0.103802
30
0.0
11
0.070789
21
0.102006
31
0.0
0
LINE
8
0
6
CONTINUOUS
10
0.105893
20
0.102002
30
0.0
11
0.105893
21
0.103802
31
0.0
0
LINE
8
0
6
CONTINUOUS
10
-0.094222
20
0.086762
30
0.0
11
-0.093015
21
0.086155
31
0.0
0
LINE
8
0
6
CONTINUOUS
10
-0.093015
20
0.086155
30
0.0
11
-0.092079
21
0.085717
31
0.0
0
ENDSEC
0
EOF
