999
Erzeugt mit innoplus bad 
0
SECTION
2
HEADER
9
$ACADVER
1
AC1009
9
$DWGCODEPAGE
3
ISO8859-1
0
ENDSEC
0
SECTION
2
TABLES
0
TABLE
2
LAYER
70
1
0
LAYER
2
0
70
0
62
7
6
CONTINUOUS
0
ENDTAB
0
ENDSEC
0
SECTION
2
ENTITIES
0
LINE
8
0
6
CONTINUOUS
10
-40.499995
20
-16.616130
30
0.0
11
-40.499995
21
-28.855980
31
0.0
0
LINE
8
0
6
CONTINUOUS
10
25.956765
20
-28.855980
30
0.0
11
25.956765
21
-16.616130
31
0.0
0
LINE
8
0
6
CONTINUOUS
10
-40.499995
20
-29.500190
30
0.0
11
-39.872845
21
-29.500190
31
0.0
0
LINE
8
0
6
CONTINUOUS
10
-40.499995
20
-28.855980
30
0.0
11
-40.499995
21
-29.500190
31
0.0
0
LINE
8
0
6
CONTINUOUS
10
4.552165
20
-29.500190
30
0.0
11
8.727975
21
-29.500190
31
0.0
0
LINE
8
0
6
CONTINUOUS
10
19.687495
20
-29.500190
30
0.0
11
22.349435
21
-29.500190
31
0.0
0
LINE
8
0
6
CONTINUOUS
10
8.727975
20
-29.500190
30
0.0
11
12.743335
21
-29.500190
31
0.0
0
LINE
8
0
6
CONTINUOUS
10
22.349435
20
-29.500190
30
0.0
11
24.327435
21
-29.500190
31
0.0
0
LINE
8
0
6
CONTINUOUS
10
16.443915
20
-29.500190
30
0.0
11
19.687495
21
-29.500190
31
0.0
0
LINE
8
0
6
CONTINUOUS
10
12.743335
20
-29.500190
30
0.0
11
16.443915
21
-29.500190
31
0.0
0
LINE
8
0
6
CONTINUOUS
10
25.545485
20
-29.500190
30
0.0
11
25.956765
21
-29.500190
31
0.0
0
LINE
8
0
6
CONTINUOUS
10
25.956765
20
-29.500190
30
0.0
11
25.956765
21
-28.855980
31
0.0
0
LINE
8
0
6
CONTINUOUS
10
24.327435
20
-29.500190
30
0.0
11
25.545485
21
-29.500190
31
0.0
0
LINE
8
0
6
CONTINUOUS
10
-39.872845
20
-29.500190
30
0.0
11
4.552165
21
-29.500190
31
0.0
0
LINE
8
0
6
CONTINUOUS
10
-40.499995
20
-4.376280
30
0.0
11
-40.499995
21
-16.616130
31
0.0
0
LINE
8
0
6
CONTINUOUS
10
25.956765
20
-16.616130
30
0.0
11
25.956765
21
-4.376280
31
0.0
0
LINE
8
0
6
CONTINUOUS
10
-40.499995
20
-3.732080
30
0.0
11
-40.499995
21
-4.376280
31
0.0
0
LINE
8
0
6
CONTINUOUS
10
-39.872845
20
-3.732080
30
0.0
11
-40.499995
21
-3.732080
31
0.0
0
LINE
8
0
6
CONTINUOUS
10
8.727975
20
-3.732080
30
0.0
11
4.552165
21
-3.732080
31
0.0
0
LINE
8
0
6
CONTINUOUS
10
22.349435
20
-3.732080
30
0.0
11
19.687495
21
-3.732080
31
0.0
0
LINE
8
0
6
CONTINUOUS
10
12.743335
20
-3.732080
30
0.0
11
8.727975
21
-3.732080
31
0.0
0
LINE
8
0
6
CONTINUOUS
10
24.327435
20
-3.732080
30
0.0
11
22.349435
21
-3.732080
31
0.0
0
LINE
8
0
6
CONTINUOUS
10
19.687495
20
-3.732080
30
0.0
11
16.443915
21
-3.732080
31
0.0
0
LINE
8
0
6
CONTINUOUS
10
16.443915
20
-3.732080
30
0.0
11
12.743335
21
-3.732080
31
0.0
0
LINE
8
0
6
CONTINUOUS
10
25.956765
20
-4.376280
30
0.0
11
25.956765
21
-3.732080
31
0.0
0
LINE
8
0
6
CONTINUOUS
10
25.956765
20
-3.732080
30
0.0
11
25.545485
21
-3.732080
31
0.0
0
LINE
8
0
6
CONTINUOUS
10
25.545485
20
-3.732080
30
0.0
11
24.327435
21
-3.732080
31
0.0
0
LINE
8
0
6
CONTINUOUS
10
4.552165
20
-3.732080
30
0.0
11
-39.872845
21
-3.732080
31
0.0
0
LINE
8
0
6
CONTINUOUS
10
-15.058575
20
5.704860
30
0.0
11
-13.980665
21
2.419450
31
0.0
0
LINE
8
0
6
CONTINUOUS
10
-15.376485
20
17.742440
30
0.0
11
-15.379105
21
13.636620
31
0.0
0
LINE
8
0
6
CONTINUOUS
10
-9.669835
20
28.959640
30
0.0
11
-12.168975
21
27.374870
31
0.0
0
LINE
8
0
6
CONTINUOUS
10
25.059547
20
23.238761
30
0.0
11
40.271605
21
23.238570
31
0.0
0
LINE
8
0
6
CONTINUOUS
10
-12.168975
20
27.374870
30
0.0
11
-13.980665
21
24.853890
31
0.0
0
LINE
8
0
6
CONTINUOUS
10
-15.379105
20
13.636620
30
0.0
11
-15.376495
21
9.530850
31
0.0
0
LINE
8
0
6
CONTINUOUS
10
-15.376495
20
9.530850
30
0.0
11
-15.058575
21
5.704860
31
0.0
0
LINE
8
0
6
CONTINUOUS
10
-15.058585
20
21.568410
30
0.0
11
-15.376485
21
17.742440
31
0.0
0
LINE
8
0
6
CONTINUOUS
10
24.618015
20
-3.732090
30
0.0
11
24.496025
21
-2.227218
31
0.0
0
LINE
8
0
6
CONTINUOUS
10
18.740865
20
-3.732070
30
0.0
11
21.929695
21
-3.732080
31
0.0
0
LINE
8
0
6
CONTINUOUS
10
14.585105
20
-3.732060
30
0.0
11
18.740865
21
-3.732070
31
0.0
0
LINE
8
0
6
CONTINUOUS
10
9.745595
20
-3.732060
30
0.0
11
14.585105
21
-3.732060
31
0.0
0
LINE
8
0
6
CONTINUOUS
10
4.552165
20
-3.732060
30
0.0
11
9.745595
21
-3.732060
31
0.0
0
LINE
8
0
6
CONTINUOUS
10
-0.641255
20
-3.732050
30
0.0
11
4.552165
21
-3.732060
31
0.0
0
LINE
8
0
6
CONTINUOUS
10
-5.480755
20
-3.732050
30
0.0
11
-0.641255
21
-3.732050
31
0.0
0
LINE
8
0
6
CONTINUOUS
10
-9.636535
20
-3.732060
30
0.0
11
-5.480755
21
-3.732050
31
0.0
0
LINE
8
0
6
CONTINUOUS
10
-12.825375
20
-3.732070
30
0.0
11
-9.636535
21
-3.732060
31
0.0
0
LINE
8
0
6
CONTINUOUS
10
-14.829965
20
-3.732070
30
0.0
11
-12.825375
21
-3.732070
31
0.0
0
LINE
8
0
6
CONTINUOUS
10
-15.513695
20
-3.732070
30
0.0
11
-14.829965
21
-3.732070
31
0.0
0
LINE
8
0
6
CONTINUOUS
10
-15.359105
20
-1.825430
30
0.0
11
-15.513695
21
-3.732070
31
0.0
0
LINE
8
0
6
CONTINUOUS
10
-13.393255
20
4.531860
30
0.0
11
-14.623185
21
1.496530
31
0.0
0
LINE
8
0
6
CONTINUOUS
10
20.156595
20
16.926770
30
0.0
11
21.309395
21
20.144980
31
0.0
0
LINE
8
0
6
CONTINUOUS
10
21.309395
20
20.144980
30
0.0
11
23.020865
21
22.260760
31
0.0
0
LINE
8
0
6
CONTINUOUS
10
40.143015
20
25.173280
30
0.0
11
37.686005
21
27.374500
31
0.0
0
LINE
8
0
6
CONTINUOUS
10
23.020865
20
22.260760
30
0.0
11
25.101695
21
23.258980
31
0.0
0
LINE
8
0
6
CONTINUOUS
10
25.101695
20
23.258980
30
0.0
11
27.236825
21
23.258980
31
0.0
0
LINE
8
0
6
CONTINUOUS
10
27.236825
20
23.258980
30
0.0
11
30.752635
21
23.258980
31
0.0
0
LINE
8
0
6
CONTINUOUS
10
30.752635
20
23.258980
30
0.0
11
34.270145
21
23.258980
31
0.0
0
LINE
8
0
6
CONTINUOUS
10
34.270145
20
23.258980
30
0.0
11
37.549275
21
23.258980
31
0.0
0
LINE
8
0
6
CONTINUOUS
10
30.892385
20
-2.227280
30
0.0
11
34.409025
21
-1.686720
31
0.0
0
LINE
8
0
6
CONTINUOUS
10
34.409025
20
-1.686720
30
0.0
11
37.685985
21
-0.101960
31
0.0
0
LINE
8
0
6
CONTINUOUS
10
40.499975
20
2.419070
30
0.0
11
40.499975
21
2.813490
31
0.0
0
LINE
8
0
6
CONTINUOUS
10
39.973795
20
1.947660
30
0.0
11
40.499975
21
2.419070
31
0.0
0
LINE
8
0
6
CONTINUOUS
10
30.892405
20
29.499820
30
0.0
11
30.664025
21
29.499820
31
0.0
0
LINE
8
0
6
CONTINUOUS
10
21.284795
20
2.419080
30
0.0
11
19.125515
21
5.704480
31
0.0
0
LINE
8
0
6
CONTINUOUS
10
17.305205
20
13.636240
30
0.0
11
17.768155
21
17.742070
31
0.0
0
LINE
8
0
6
CONTINUOUS
10
24.098775
20
-0.101950
30
0.0
11
21.284795
21
2.419080
31
0.0
0
LINE
8
0
6
CONTINUOUS
10
27.375755
20
-1.686720
30
0.0
11
24.105408
21
-0.105158
31
0.0
0
LINE
8
0
6
CONTINUOUS
10
17.768155
20
9.530470
30
0.0
11
17.305205
21
13.636240
31
0.0
0
LINE
8
0
6
CONTINUOUS
10
30.664005
20
-2.227280
30
0.0
11
30.892385
21
-2.227280
31
0.0
0
LINE
8
0
6
CONTINUOUS
10
30.892385
20
-2.227280
30
0.0
11
27.375755
21
-1.686720
31
0.0
0
LINE
8
0
6
CONTINUOUS
10
19.125515
20
5.704480
30
0.0
11
17.768155
21
9.530470
31
0.0
0
LINE
8
0
6
CONTINUOUS
10
40.271605
20
4.040180
30
0.0
11
24.926211
21
4.040377
31
0.0
0
LINE
8
0
6
CONTINUOUS
10
19.125525
20
21.568040
30
0.0
11
17.768155
21
17.742070
31
0.0
0
LINE
8
0
6
CONTINUOUS
10
21.284785
20
24.853520
30
0.0
11
19.125525
21
21.568040
31
0.0
0
LINE
8
0
6
CONTINUOUS
10
24.098785
20
27.374510
30
0.0
11
21.284785
21
24.853520
31
0.0
0
LINE
8
0
6
CONTINUOUS
10
27.375765
20
28.959270
30
0.0
11
24.098785
21
27.374510
31
0.0
0
LINE
8
0
6
CONTINUOUS
10
30.892405
20
29.499820
30
0.0
11
27.375765
21
28.959270
31
0.0
0
LINE
8
0
6
CONTINUOUS
10
34.409035
20
28.959270
30
0.0
11
30.892405
21
29.499820
31
0.0
0
LINE
8
0
6
CONTINUOUS
10
37.686005
20
27.374500
30
0.0
11
34.409035
21
28.959270
31
0.0
0
LINE
8
0
6
CONTINUOUS
10
40.499975
20
2.813490
30
0.0
11
40.499995
21
3.579630
31
0.0
0
LINE
8
0
6
CONTINUOUS
10
37.549275
20
23.258980
30
0.0
11
40.125675
21
23.241160
31
0.0
0
LINE
8
0
6
CONTINUOUS
10
19.721675
20
13.639390
30
0.0
11
20.156595
21
16.926770
31
0.0
0
LINE
8
0
6
CONTINUOUS
10
20.156555
20
10.335250
30
0.0
11
19.721675
21
13.639390
31
0.0
0
LINE
8
0
6
CONTINUOUS
10
21.309405
20
7.100270
30
0.0
11
20.156555
21
10.335250
31
0.0
0
LINE
8
0
6
CONTINUOUS
10
23.020845
20
4.954450
30
0.0
11
21.309405
21
7.100270
31
0.0
0
LINE
8
0
6
CONTINUOUS
10
25.101675
20
3.956200
30
0.0
11
23.020845
21
4.954450
31
0.0
0
LINE
8
0
6
CONTINUOUS
10
27.236825
20
3.956200
30
0.0
11
25.101675
21
3.956200
31
0.0
0
LINE
8
0
6
CONTINUOUS
10
30.752615
20
3.956200
30
0.0
11
27.236825
21
3.956200
31
0.0
0
LINE
8
0
6
CONTINUOUS
10
34.270135
20
3.956200
30
0.0
11
30.752615
21
3.956200
31
0.0
0
LINE
8
0
6
CONTINUOUS
10
37.549255
20
3.956200
30
0.0
11
34.270135
21
3.956200
31
0.0
0
LINE
8
0
6
CONTINUOUS
10
40.499995
20
3.579630
30
0.0
11
40.499995
21
4.040180
31
0.0
0
LINE
8
0
6
CONTINUOUS
10
40.499995
20
24.853470
30
0.0
11
40.143015
21
25.173280
31
0.0
0
LINE
8
0
6
CONTINUOUS
10
40.499995
20
24.459050
30
0.0
11
40.499995
21
24.853470
31
0.0
0
LINE
8
0
6
CONTINUOUS
10
40.499995
20
23.699120
30
0.0
11
40.499995
21
24.459050
31
0.0
0
LINE
8
0
6
CONTINUOUS
10
40.125675
20
23.241160
30
0.0
11
40.499995
21
23.238560
31
0.0
0
LINE
8
0
6
CONTINUOUS
10
40.499995
20
23.238560
30
0.0
11
40.499995
21
23.699120
31
0.0
0
LINE
8
0
6
CONTINUOUS
10
-13.980665
20
24.853890
30
0.0
11
-15.058585
21
21.568410
31
0.0
0
LINE
8
0
6
CONTINUOUS
10
37.685985
20
-0.101960
30
0.0
11
39.973795
21
1.947660
31
0.0
0
LINE
8
0
6
CONTINUOUS
10
40.499995
20
4.040180
30
0.0
11
40.271605
21
4.040180
31
0.0
0
LINE
8
0
6
CONTINUOUS
10
39.948215
20
4.024480
30
0.0
11
40.499995
21
4.040180
31
0.0
0
LINE
8
0
6
CONTINUOUS
10
39.948215
20
4.024480
30
0.0
11
37.549255
21
3.956200
31
0.0
0
LINE
8
0
6
CONTINUOUS
10
-6.368285
20
29.500190
30
0.0
11
-9.669835
21
28.959640
31
0.0
0
LINE
8
0
6
CONTINUOUS
10
-6.177735
20
29.500190
30
0.0
11
-6.368285
21
29.500190
31
0.0
0
LINE
8
0
6
CONTINUOUS
10
14.191409
20
-2.227115
30
0.0
11
30.664005
21
-2.227280
31
0.0
0
LINE
8
0
6
CONTINUOUS
10
30.664025
20
29.499820
30
0.0
11
-6.177735
21
29.500190
31
0.0
0
LINE
8
0
6
CONTINUOUS
10
-14.623185
20
1.496530
30
0.0
11
-15.359105
21
-1.825430
31
0.0
0
LINE
8
0
6
CONTINUOUS
10
11.325931
20
-1.825420
30
0.0
11
14.191409
21
-2.227115
31
0.0
0
LINE
8
0
6
CONTINUOUS
10
0.382125
20
3.605273
30
0.0
11
1.877157
21
2.419284
31
0.0
0
LINE
8
0
6
CONTINUOUS
10
0.260083
20
3.688632
30
0.0
11
0.382125
21
3.605273
31
0.0
0
LINE
8
0
6
CONTINUOUS
10
-6.557283
20
7.594304
30
0.0
11
-4.621140
21
6.573372
31
0.0
0
LINE
8
0
6
CONTINUOUS
10
10.326290
20
-1.686555
30
0.0
11
11.325931
21
-1.825420
31
0.0
0
LINE
8
0
6
CONTINUOUS
10
6.111426
20
-0.101777
30
0.0
11
9.683457
21
-1.414278
31
0.0
0
LINE
8
0
6
CONTINUOUS
10
9.683457
20
-1.414278
30
0.0
11
10.326290
21
-1.686555
31
0.0
0
LINE
8
0
6
CONTINUOUS
10
4.552185
20
0.922656
30
0.0
11
6.111426
21
-0.101777
31
0.0
0
ENDSEC
0
EOF
