999
Erzeugt mit innoplus bad 
0
SECTION
2
HEADER
9
$ACADVER
1
AC1009
9
$DWGCODEPAGE
3
ISO8859-1
0
ENDSEC
0
SECTION
2
TABLES
0
TABLE
2
LAYER
70
1
0
LAYER
2
0
70
0
62
7
6
CONTINUOUS
0
ENDTAB
0
ENDSEC
0
SECTION
2
ENTITIES
0
LINE
8
0
6
CONTINUOUS
10
-40.499995
20
-16.095400
30
0.0
11
-40.499995
21
-36.939420
31
0.0
0
LINE
8
0
6
CONTINUOUS
10
-40.499995
20
4.748620
30
0.0
11
-40.499995
21
-16.095400
31
0.0
0
LINE
8
0
6
CONTINUOUS
10
4.552165
20
-37.500010
30
0.0
11
8.727995
21
-37.088720
31
0.0
0
LINE
8
0
6
CONTINUOUS
10
8.727995
20
-37.088720
30
0.0
11
12.743345
21
-35.870680
31
0.0
0
LINE
8
0
6
CONTINUOUS
10
12.743345
20
-35.870680
30
0.0
11
16.443925
21
-33.892680
31
0.0
0
LINE
8
0
6
CONTINUOUS
10
16.443925
20
-33.892680
30
0.0
11
19.687505
21
-31.230740
31
0.0
0
LINE
8
0
6
CONTINUOUS
10
19.687505
20
-31.230740
30
0.0
11
22.349445
21
-27.987160
31
0.0
0
LINE
8
0
6
CONTINUOUS
10
22.349445
20
-27.987160
30
0.0
11
24.327445
21
-24.286580
31
0.0
0
LINE
8
0
6
CONTINUOUS
10
24.327445
20
-24.286580
30
0.0
11
25.545485
21
-20.271230
31
0.0
0
LINE
8
0
6
CONTINUOUS
10
25.545485
20
-20.271230
30
0.0
11
25.956765
21
-16.095400
31
0.0
0
LINE
8
0
6
CONTINUOUS
10
25.956765
20
-16.095400
30
0.0
11
25.545485
21
-11.919560
31
0.0
0
LINE
8
0
6
CONTINUOUS
10
25.545485
20
-11.919560
30
0.0
11
24.327435
21
-7.904200
31
0.0
0
LINE
8
0
6
CONTINUOUS
10
24.327435
20
-7.904200
30
0.0
11
22.349435
21
-4.203630
31
0.0
0
LINE
8
0
6
CONTINUOUS
10
22.349435
20
-4.203630
30
0.0
11
19.687495
21
-0.960050
31
0.0
0
LINE
8
0
6
CONTINUOUS
10
19.687495
20
-0.960050
30
0.0
11
16.443915
21
1.701890
31
0.0
0
LINE
8
0
6
CONTINUOUS
10
16.443915
20
1.701890
30
0.0
11
12.743335
21
3.679880
31
0.0
0
LINE
8
0
6
CONTINUOUS
10
12.743335
20
3.679880
30
0.0
11
8.727975
21
4.897930
31
0.0
0
LINE
8
0
6
CONTINUOUS
10
-40.499995
20
5.309200
30
0.0
11
-40.499995
21
4.748620
31
0.0
0
LINE
8
0
6
CONTINUOUS
10
-39.872845
20
5.309200
30
0.0
11
-40.499995
21
5.309200
31
0.0
0
LINE
8
0
6
CONTINUOUS
10
8.727975
20
4.897930
30
0.0
11
4.552165
21
5.309200
31
0.0
0
LINE
8
0
6
CONTINUOUS
10
-40.499995
20
-37.500000
30
0.0
11
-39.872845
21
-37.500000
31
0.0
0
LINE
8
0
6
CONTINUOUS
10
-40.499995
20
-36.939420
30
0.0
11
-40.499995
21
-37.500000
31
0.0
0
LINE
8
0
6
CONTINUOUS
10
4.552165
20
5.309200
30
0.0
11
-39.872845
21
5.309200
31
0.0
0
LINE
8
0
6
CONTINUOUS
10
-39.872845
20
-37.500000
30
0.0
11
4.552165
21
-37.500010
31
0.0
0
LINE
8
0
6
CONTINUOUS
10
34.409025
20
27.192700
30
0.0
11
30.892385
21
29.311920
31
0.0
0
LINE
8
0
6
CONTINUOUS
10
21.284795
20
35.101790
30
0.0
11
19.125515
21
36.402980
31
0.0
0
LINE
8
0
6
CONTINUOUS
10
37.685985
20
25.217870
30
0.0
11
34.409025
21
27.192700
31
0.0
0
LINE
8
0
6
CONTINUOUS
10
24.098775
20
33.405930
30
0.0
11
21.284795
21
35.101790
31
0.0
0
LINE
8
0
6
CONTINUOUS
10
27.375755
20
31.431140
30
0.0
11
24.098775
21
33.405930
31
0.0
0
LINE
8
0
6
CONTINUOUS
10
17.305205
20
37.500010
30
0.0
11
17.076815
21
37.116460
31
0.0
0
LINE
8
0
6
CONTINUOUS
10
17.768155
20
37.221010
30
0.0
11
17.305205
21
37.500010
31
0.0
0
LINE
8
0
6
CONTINUOUS
10
39.973795
20
23.839200
30
0.0
11
37.685985
21
25.217870
31
0.0
0
LINE
8
0
6
CONTINUOUS
10
30.892385
20
29.311920
30
0.0
11
27.375755
21
31.431140
31
0.0
0
LINE
8
0
6
CONTINUOUS
10
19.125515
20
36.402980
30
0.0
11
17.768155
21
37.221010
31
0.0
0
LINE
8
0
6
CONTINUOUS
10
40.271585
20
23.138490
30
0.0
11
40.499975
21
23.522080
31
0.0
0
LINE
8
0
6
CONTINUOUS
10
40.499975
20
23.522080
30
0.0
11
39.973795
21
23.839200
31
0.0
0
LINE
8
0
6
CONTINUOUS
10
17.076815
20
37.116460
30
0.0
11
-1.897032
21
5.309200
31
0.0
0
LINE
8
0
6
CONTINUOUS
10
23.111158
20
-5.628710
30
0.0
11
40.271585
21
23.138490
31
0.0
0
ENDSEC
0
EOF
