999
Erzeugt mit innoplus bad 
0
SECTION
2
HEADER
9
$ACADVER
1
AC1009
9
$DWGCODEPAGE
3
ISO8859-1
0
ENDSEC
0
SECTION
2
TABLES
0
TABLE
2
LAYER
70
1
0
LAYER
2
0
70
0
62
7
6
CONTINUOUS
0
ENDTAB
0
ENDSEC
0
SECTION
2
ENTITIES
0
LINE
8
0
6
CONTINUOUS
10
11.833000
20
-91.500000
30
0.0
11
11.833000
21
-93.500000
31
0.0
0
LINE
8
0
6
CONTINUOUS
10
7.530000
20
-91.500000
30
0.0
11
7.530000
21
-93.500000
31
0.0
0
LINE
8
0
6
CONTINUOUS
10
8.175000
20
-91.500000
30
0.0
11
8.175000
21
-93.500000
31
0.0
0
LINE
8
0
6
CONTINUOUS
10
7.530000
20
-93.500000
30
0.0
11
7.530000
21
-91.500000
31
0.0
0
LINE
8
0
6
CONTINUOUS
10
8.175000
20
-93.500000
30
0.0
11
7.530000
21
-93.500000
31
0.0
0
LINE
8
0
6
CONTINUOUS
10
9.681000
20
-91.500000
30
0.0
11
9.681000
21
-93.500000
31
0.0
0
LINE
8
0
6
CONTINUOUS
10
8.175000
20
-93.500000
30
0.0
11
8.175000
21
-91.500000
31
0.0
0
LINE
8
0
6
CONTINUOUS
10
9.681000
20
-93.500000
30
0.0
11
8.175000
21
-93.500000
31
0.0
0
LINE
8
0
6
CONTINUOUS
10
11.187000
20
-93.500000
30
0.0
11
11.187000
21
-91.500000
31
0.0
0
LINE
8
0
6
CONTINUOUS
10
9.681000
20
-93.500000
30
0.0
11
11.187000
21
-93.500000
31
0.0
0
LINE
8
0
6
CONTINUOUS
10
9.681000
20
-91.500000
30
0.0
11
9.681000
21
-93.500000
31
0.0
0
LINE
8
0
6
CONTINUOUS
10
11.833000
20
-93.500000
30
0.0
11
11.833000
21
-91.500000
31
0.0
0
LINE
8
0
6
CONTINUOUS
10
11.187000
20
-93.500000
30
0.0
11
11.833000
21
-93.500000
31
0.0
0
LINE
8
0
6
CONTINUOUS
10
11.187000
20
-91.500000
30
0.0
11
11.187000
21
-93.500000
31
0.0
0
LINE
8
0
6
CONTINUOUS
10
7.530000
20
-93.500000
30
0.0
11
8.175000
21
-93.500000
31
0.0
0
LINE
8
0
6
CONTINUOUS
10
8.175000
20
-93.500000
30
0.0
11
9.681000
21
-93.500000
31
0.0
0
LINE
8
0
6
CONTINUOUS
10
11.187000
20
-93.500000
30
0.0
11
9.681000
21
-93.500000
31
0.0
0
LINE
8
0
6
CONTINUOUS
10
11.833000
20
-93.500000
30
0.0
11
11.187000
21
-93.500000
31
0.0
0
LINE
8
0
6
CONTINUOUS
10
31.195000
20
-91.500000
30
0.0
11
31.195000
21
-93.500000
31
0.0
0
LINE
8
0
6
CONTINUOUS
10
26.892000
20
-91.500000
30
0.0
11
26.892000
21
-93.500000
31
0.0
0
LINE
8
0
6
CONTINUOUS
10
27.538000
20
-91.500000
30
0.0
11
27.538000
21
-93.500000
31
0.0
0
LINE
8
0
6
CONTINUOUS
10
26.892000
20
-93.500000
30
0.0
11
26.892000
21
-91.500000
31
0.0
0
LINE
8
0
6
CONTINUOUS
10
27.538000
20
-93.500000
30
0.0
11
26.892000
21
-93.500000
31
0.0
0
LINE
8
0
6
CONTINUOUS
10
29.044000
20
-91.500000
30
0.0
11
29.044000
21
-93.500000
31
0.0
0
LINE
8
0
6
CONTINUOUS
10
27.538000
20
-93.500000
30
0.0
11
27.538000
21
-91.500000
31
0.0
0
LINE
8
0
6
CONTINUOUS
10
29.044000
20
-93.500000
30
0.0
11
27.538000
21
-93.500000
31
0.0
0
LINE
8
0
6
CONTINUOUS
10
30.550000
20
-93.500000
30
0.0
11
30.550000
21
-91.500000
31
0.0
0
LINE
8
0
6
CONTINUOUS
10
29.044000
20
-93.500000
30
0.0
11
30.550000
21
-93.500000
31
0.0
0
LINE
8
0
6
CONTINUOUS
10
29.044000
20
-91.500000
30
0.0
11
29.044000
21
-93.500000
31
0.0
0
LINE
8
0
6
CONTINUOUS
10
31.195000
20
-93.500000
30
0.0
11
31.195000
21
-91.500000
31
0.0
0
LINE
8
0
6
CONTINUOUS
10
30.550000
20
-93.500000
30
0.0
11
31.195000
21
-93.500000
31
0.0
0
LINE
8
0
6
CONTINUOUS
10
30.550000
20
-91.500000
30
0.0
11
30.550000
21
-93.500000
31
0.0
0
LINE
8
0
6
CONTINUOUS
10
26.892000
20
-93.500000
30
0.0
11
27.538000
21
-93.500000
31
0.0
0
LINE
8
0
6
CONTINUOUS
10
27.538000
20
-93.500000
30
0.0
11
29.044000
21
-93.500000
31
0.0
0
LINE
8
0
6
CONTINUOUS
10
30.550000
20
-93.500000
30
0.0
11
29.044000
21
-93.500000
31
0.0
0
LINE
8
0
6
CONTINUOUS
10
31.195000
20
-93.500000
30
0.0
11
30.550000
21
-93.500000
31
0.0
0
LINE
8
0
6
CONTINUOUS
10
50.558000
20
-91.500000
30
0.0
11
50.558000
21
-93.500000
31
0.0
0
LINE
8
0
6
CONTINUOUS
10
46.255000
20
-91.500000
30
0.0
11
46.255000
21
-93.500000
31
0.0
0
LINE
8
0
6
CONTINUOUS
10
46.900000
20
-91.500000
30
0.0
11
46.900000
21
-93.500000
31
0.0
0
LINE
8
0
6
CONTINUOUS
10
46.255000
20
-93.500000
30
0.0
11
46.255000
21
-91.500000
31
0.0
0
LINE
8
0
6
CONTINUOUS
10
46.900000
20
-93.500000
30
0.0
11
46.255000
21
-93.500000
31
0.0
0
LINE
8
0
6
CONTINUOUS
10
48.406000
20
-91.500000
30
0.0
11
48.406000
21
-93.500000
31
0.0
0
LINE
8
0
6
CONTINUOUS
10
46.900000
20
-93.500000
30
0.0
11
46.900000
21
-91.500000
31
0.0
0
LINE
8
0
6
CONTINUOUS
10
48.406000
20
-93.500000
30
0.0
11
46.900000
21
-93.500000
31
0.0
0
LINE
8
0
6
CONTINUOUS
10
49.912000
20
-93.500000
30
0.0
11
49.912000
21
-91.500000
31
0.0
0
LINE
8
0
6
CONTINUOUS
10
48.406000
20
-93.500000
30
0.0
11
49.912000
21
-93.500000
31
0.0
0
LINE
8
0
6
CONTINUOUS
10
48.406000
20
-91.500000
30
0.0
11
48.406000
21
-93.500000
31
0.0
0
LINE
8
0
6
CONTINUOUS
10
50.558000
20
-93.500000
30
0.0
11
50.558000
21
-91.500000
31
0.0
0
LINE
8
0
6
CONTINUOUS
10
49.912000
20
-93.500000
30
0.0
11
50.558000
21
-93.500000
31
0.0
0
LINE
8
0
6
CONTINUOUS
10
49.912000
20
-91.500000
30
0.0
11
49.912000
21
-93.500000
31
0.0
0
LINE
8
0
6
CONTINUOUS
10
46.255000
20
-93.500000
30
0.0
11
46.900000
21
-93.500000
31
0.0
0
LINE
8
0
6
CONTINUOUS
10
46.900000
20
-93.500000
30
0.0
11
48.406000
21
-93.500000
31
0.0
0
LINE
8
0
6
CONTINUOUS
10
49.912000
20
-93.500000
30
0.0
11
48.406000
21
-93.500000
31
0.0
0
LINE
8
0
6
CONTINUOUS
10
50.558000
20
-93.500000
30
0.0
11
49.912000
21
-93.500000
31
0.0
0
LINE
8
0
6
CONTINUOUS
10
147.371000
20
-91.500000
30
0.0
11
147.371000
21
-93.500000
31
0.0
0
LINE
8
0
6
CONTINUOUS
10
143.068000
20
-91.500000
30
0.0
11
143.068000
21
-93.500000
31
0.0
0
LINE
8
0
6
CONTINUOUS
10
143.713000
20
-91.500000
30
0.0
11
143.713000
21
-93.500000
31
0.0
0
LINE
8
0
6
CONTINUOUS
10
143.068000
20
-93.500000
30
0.0
11
143.068000
21
-91.500000
31
0.0
0
LINE
8
0
6
CONTINUOUS
10
143.713000
20
-93.500000
30
0.0
11
143.068000
21
-93.500000
31
0.0
0
LINE
8
0
6
CONTINUOUS
10
145.219000
20
-91.500000
30
0.0
11
145.219000
21
-93.500000
31
0.0
0
LINE
8
0
6
CONTINUOUS
10
143.713000
20
-93.500000
30
0.0
11
143.713000
21
-91.500000
31
0.0
0
LINE
8
0
6
CONTINUOUS
10
145.219000
20
-93.500000
30
0.0
11
143.713000
21
-93.500000
31
0.0
0
LINE
8
0
6
CONTINUOUS
10
146.725000
20
-93.500000
30
0.0
11
146.725000
21
-91.500000
31
0.0
0
LINE
8
0
6
CONTINUOUS
10
145.219000
20
-93.500000
30
0.0
11
146.725000
21
-93.500000
31
0.0
0
LINE
8
0
6
CONTINUOUS
10
145.219000
20
-91.500000
30
0.0
11
145.219000
21
-93.500000
31
0.0
0
LINE
8
0
6
CONTINUOUS
10
147.371000
20
-93.500000
30
0.0
11
147.371000
21
-91.500000
31
0.0
0
LINE
8
0
6
CONTINUOUS
10
146.725000
20
-93.500000
30
0.0
11
147.371000
21
-93.500000
31
0.0
0
LINE
8
0
6
CONTINUOUS
10
146.725000
20
-91.500000
30
0.0
11
146.725000
21
-93.500000
31
0.0
0
LINE
8
0
6
CONTINUOUS
10
143.068000
20
-93.500000
30
0.0
11
143.713000
21
-93.500000
31
0.0
0
LINE
8
0
6
CONTINUOUS
10
143.713000
20
-93.500000
30
0.0
11
145.219000
21
-93.500000
31
0.0
0
LINE
8
0
6
CONTINUOUS
10
146.725000
20
-93.500000
30
0.0
11
145.219000
21
-93.500000
31
0.0
0
LINE
8
0
6
CONTINUOUS
10
147.371000
20
-93.500000
30
0.0
11
146.725000
21
-93.500000
31
0.0
0
LINE
8
0
6
CONTINUOUS
10
128.008000
20
-91.500000
30
0.0
11
128.008000
21
-93.500000
31
0.0
0
LINE
8
0
6
CONTINUOUS
10
123.705000
20
-91.500000
30
0.0
11
123.705000
21
-93.500000
31
0.0
0
LINE
8
0
6
CONTINUOUS
10
124.351000
20
-91.500000
30
0.0
11
124.351000
21
-93.500000
31
0.0
0
LINE
8
0
6
CONTINUOUS
10
123.705000
20
-93.500000
30
0.0
11
123.705000
21
-91.500000
31
0.0
0
LINE
8
0
6
CONTINUOUS
10
124.351000
20
-93.500000
30
0.0
11
123.705000
21
-93.500000
31
0.0
0
LINE
8
0
6
CONTINUOUS
10
125.857000
20
-91.500000
30
0.0
11
125.857000
21
-93.500000
31
0.0
0
LINE
8
0
6
CONTINUOUS
10
124.351000
20
-93.500000
30
0.0
11
124.351000
21
-91.500000
31
0.0
0
LINE
8
0
6
CONTINUOUS
10
125.857000
20
-93.500000
30
0.0
11
124.351000
21
-93.500000
31
0.0
0
LINE
8
0
6
CONTINUOUS
10
127.363000
20
-93.500000
30
0.0
11
127.363000
21
-91.500000
31
0.0
0
LINE
8
0
6
CONTINUOUS
10
125.857000
20
-93.500000
30
0.0
11
127.363000
21
-93.500000
31
0.0
0
LINE
8
0
6
CONTINUOUS
10
125.857000
20
-91.500000
30
0.0
11
125.857000
21
-93.500000
31
0.0
0
LINE
8
0
6
CONTINUOUS
10
128.008000
20
-93.500000
30
0.0
11
128.008000
21
-91.500000
31
0.0
0
LINE
8
0
6
CONTINUOUS
10
127.363000
20
-93.500000
30
0.0
11
128.008000
21
-93.500000
31
0.0
0
LINE
8
0
6
CONTINUOUS
10
127.363000
20
-91.500000
30
0.0
11
127.363000
21
-93.500000
31
0.0
0
LINE
8
0
6
CONTINUOUS
10
123.705000
20
-93.500000
30
0.0
11
124.351000
21
-93.500000
31
0.0
0
LINE
8
0
6
CONTINUOUS
10
124.351000
20
-93.500000
30
0.0
11
125.857000
21
-93.500000
31
0.0
0
LINE
8
0
6
CONTINUOUS
10
127.363000
20
-93.500000
30
0.0
11
125.857000
21
-93.500000
31
0.0
0
LINE
8
0
6
CONTINUOUS
10
128.008000
20
-93.500000
30
0.0
11
127.363000
21
-93.500000
31
0.0
0
LINE
8
0
6
CONTINUOUS
10
108.645000
20
-91.500000
30
0.0
11
108.645000
21
-93.500000
31
0.0
0
LINE
8
0
6
CONTINUOUS
10
104.343000
20
-91.500000
30
0.0
11
104.343000
21
-93.500000
31
0.0
0
LINE
8
0
6
CONTINUOUS
10
104.988000
20
-91.500000
30
0.0
11
104.988000
21
-93.500000
31
0.0
0
LINE
8
0
6
CONTINUOUS
10
104.343000
20
-93.500000
30
0.0
11
104.343000
21
-91.500000
31
0.0
0
LINE
8
0
6
CONTINUOUS
10
104.988000
20
-93.500000
30
0.0
11
104.343000
21
-93.500000
31
0.0
0
LINE
8
0
6
CONTINUOUS
10
106.494000
20
-91.500000
30
0.0
11
106.494000
21
-93.500000
31
0.0
0
LINE
8
0
6
CONTINUOUS
10
104.988000
20
-93.500000
30
0.0
11
104.988000
21
-91.500000
31
0.0
0
LINE
8
0
6
CONTINUOUS
10
106.494000
20
-93.500000
30
0.0
11
104.988000
21
-93.500000
31
0.0
0
LINE
8
0
6
CONTINUOUS
10
108.000000
20
-93.500000
30
0.0
11
108.000000
21
-91.500000
31
0.0
0
LINE
8
0
6
CONTINUOUS
10
106.494000
20
-93.500000
30
0.0
11
108.000000
21
-93.500000
31
0.0
0
LINE
8
0
6
CONTINUOUS
10
106.494000
20
-91.500000
30
0.0
11
106.494000
21
-93.500000
31
0.0
0
LINE
8
0
6
CONTINUOUS
10
108.645000
20
-93.500000
30
0.0
11
108.645000
21
-91.500000
31
0.0
0
LINE
8
0
6
CONTINUOUS
10
108.000000
20
-93.500000
30
0.0
11
108.645000
21
-93.500000
31
0.0
0
LINE
8
0
6
CONTINUOUS
10
108.000000
20
-91.500000
30
0.0
11
108.000000
21
-93.500000
31
0.0
0
LINE
8
0
6
CONTINUOUS
10
104.343000
20
-93.500000
30
0.0
11
104.988000
21
-93.500000
31
0.0
0
LINE
8
0
6
CONTINUOUS
10
104.988000
20
-93.500000
30
0.0
11
106.494000
21
-93.500000
31
0.0
0
LINE
8
0
6
CONTINUOUS
10
108.000000
20
-93.500000
30
0.0
11
106.494000
21
-93.500000
31
0.0
0
LINE
8
0
6
CONTINUOUS
10
108.645000
20
-93.500000
30
0.0
11
108.000000
21
-93.500000
31
0.0
0
LINE
8
0
6
CONTINUOUS
10
89.283000
20
-91.500000
30
0.0
11
89.283000
21
-93.500000
31
0.0
0
LINE
8
0
6
CONTINUOUS
10
84.980000
20
-91.500000
30
0.0
11
84.980000
21
-93.500000
31
0.0
0
LINE
8
0
6
CONTINUOUS
10
85.625000
20
-91.500000
30
0.0
11
85.625000
21
-93.500000
31
0.0
0
LINE
8
0
6
CONTINUOUS
10
84.980000
20
-93.500000
30
0.0
11
84.980000
21
-91.500000
31
0.0
0
LINE
8
0
6
CONTINUOUS
10
85.625000
20
-93.500000
30
0.0
11
84.980000
21
-93.500000
31
0.0
0
LINE
8
0
6
CONTINUOUS
10
87.131000
20
-91.500000
30
0.0
11
87.131000
21
-93.500000
31
0.0
0
LINE
8
0
6
CONTINUOUS
10
85.625000
20
-93.500000
30
0.0
11
85.625000
21
-91.500000
31
0.0
0
LINE
8
0
6
CONTINUOUS
10
87.131000
20
-93.500000
30
0.0
11
85.625000
21
-93.500000
31
0.0
0
LINE
8
0
6
CONTINUOUS
10
88.637000
20
-93.500000
30
0.0
11
88.637000
21
-91.500000
31
0.0
0
LINE
8
0
6
CONTINUOUS
10
87.131000
20
-93.500000
30
0.0
11
88.637000
21
-93.500000
31
0.0
0
LINE
8
0
6
CONTINUOUS
10
87.131000
20
-91.500000
30
0.0
11
87.131000
21
-93.500000
31
0.0
0
LINE
8
0
6
CONTINUOUS
10
89.283000
20
-93.500000
30
0.0
11
89.283000
21
-91.500000
31
0.0
0
LINE
8
0
6
CONTINUOUS
10
88.637000
20
-93.500000
30
0.0
11
89.283000
21
-93.500000
31
0.0
0
LINE
8
0
6
CONTINUOUS
10
88.637000
20
-91.500000
30
0.0
11
88.637000
21
-93.500000
31
0.0
0
LINE
8
0
6
CONTINUOUS
10
84.980000
20
-93.500000
30
0.0
11
85.625000
21
-93.500000
31
0.0
0
LINE
8
0
6
CONTINUOUS
10
85.625000
20
-93.500000
30
0.0
11
87.131000
21
-93.500000
31
0.0
0
LINE
8
0
6
CONTINUOUS
10
88.637000
20
-93.500000
30
0.0
11
87.131000
21
-93.500000
31
0.0
0
LINE
8
0
6
CONTINUOUS
10
89.283000
20
-93.500000
30
0.0
11
88.637000
21
-93.500000
31
0.0
0
LINE
8
0
6
CONTINUOUS
10
166.733000
20
-91.500000
30
0.0
11
166.733000
21
-93.500000
31
0.0
0
LINE
8
0
6
CONTINUOUS
10
162.430000
20
-91.500000
30
0.0
11
162.430000
21
-93.500000
31
0.0
0
LINE
8
0
6
CONTINUOUS
10
163.076000
20
-91.500000
30
0.0
11
163.076000
21
-93.500000
31
0.0
0
LINE
8
0
6
CONTINUOUS
10
162.430000
20
-93.500000
30
0.0
11
162.430000
21
-91.500000
31
0.0
0
LINE
8
0
6
CONTINUOUS
10
163.076000
20
-93.500000
30
0.0
11
162.430000
21
-93.500000
31
0.0
0
LINE
8
0
6
CONTINUOUS
10
164.582000
20
-91.500000
30
0.0
11
164.582000
21
-93.500000
31
0.0
0
LINE
8
0
6
CONTINUOUS
10
163.076000
20
-93.500000
30
0.0
11
163.076000
21
-91.500000
31
0.0
0
LINE
8
0
6
CONTINUOUS
10
164.582000
20
-93.500000
30
0.0
11
163.076000
21
-93.500000
31
0.0
0
LINE
8
0
6
CONTINUOUS
10
166.088000
20
-93.500000
30
0.0
11
166.088000
21
-91.500000
31
0.0
0
LINE
8
0
6
CONTINUOUS
10
164.582000
20
-93.500000
30
0.0
11
166.088000
21
-93.500000
31
0.0
0
LINE
8
0
6
CONTINUOUS
10
164.582000
20
-91.500000
30
0.0
11
164.582000
21
-93.500000
31
0.0
0
LINE
8
0
6
CONTINUOUS
10
166.733000
20
-93.500000
30
0.0
11
166.733000
21
-91.500000
31
0.0
0
LINE
8
0
6
CONTINUOUS
10
166.088000
20
-93.500000
30
0.0
11
166.733000
21
-93.500000
31
0.0
0
LINE
8
0
6
CONTINUOUS
10
166.088000
20
-91.500000
30
0.0
11
166.088000
21
-93.500000
31
0.0
0
LINE
8
0
6
CONTINUOUS
10
162.430000
20
-93.500000
30
0.0
11
163.076000
21
-93.500000
31
0.0
0
LINE
8
0
6
CONTINUOUS
10
163.076000
20
-93.500000
30
0.0
11
164.582000
21
-93.500000
31
0.0
0
LINE
8
0
6
CONTINUOUS
10
166.088000
20
-93.500000
30
0.0
11
164.582000
21
-93.500000
31
0.0
0
LINE
8
0
6
CONTINUOUS
10
166.733000
20
-93.500000
30
0.0
11
166.088000
21
-93.500000
31
0.0
0
LINE
8
0
6
CONTINUOUS
10
69.920000
20
-91.500000
30
0.0
11
69.920000
21
-93.500000
31
0.0
0
LINE
8
0
6
CONTINUOUS
10
65.618000
20
-91.500000
30
0.0
11
65.618000
21
-93.500000
31
0.0
0
LINE
8
0
6
CONTINUOUS
10
66.263000
20
-91.500000
30
0.0
11
66.263000
21
-93.500000
31
0.0
0
LINE
8
0
6
CONTINUOUS
10
65.618000
20
-93.500000
30
0.0
11
65.618000
21
-91.500000
31
0.0
0
LINE
8
0
6
CONTINUOUS
10
66.263000
20
-93.500000
30
0.0
11
65.618000
21
-93.500000
31
0.0
0
LINE
8
0
6
CONTINUOUS
10
67.769000
20
-91.500000
30
0.0
11
67.769000
21
-93.500000
31
0.0
0
LINE
8
0
6
CONTINUOUS
10
66.263000
20
-93.500000
30
0.0
11
66.263000
21
-91.500000
31
0.0
0
LINE
8
0
6
CONTINUOUS
10
67.769000
20
-93.500000
30
0.0
11
66.263000
21
-93.500000
31
0.0
0
LINE
8
0
6
CONTINUOUS
10
69.275000
20
-93.500000
30
0.0
11
69.275000
21
-91.500000
31
0.0
0
LINE
8
0
6
CONTINUOUS
10
67.769000
20
-93.500000
30
0.0
11
69.275000
21
-93.500000
31
0.0
0
LINE
8
0
6
CONTINUOUS
10
67.769000
20
-91.500000
30
0.0
11
67.769000
21
-93.500000
31
0.0
0
LINE
8
0
6
CONTINUOUS
10
69.920000
20
-93.500000
30
0.0
11
69.920000
21
-91.500000
31
0.0
0
LINE
8
0
6
CONTINUOUS
10
69.275000
20
-93.500000
30
0.0
11
69.920000
21
-93.500000
31
0.0
0
LINE
8
0
6
CONTINUOUS
10
69.275000
20
-91.500000
30
0.0
11
69.275000
21
-93.500000
31
0.0
0
LINE
8
0
6
CONTINUOUS
10
65.618000
20
-93.500000
30
0.0
11
66.263000
21
-93.500000
31
0.0
0
LINE
8
0
6
CONTINUOUS
10
66.263000
20
-93.500000
30
0.0
11
67.769000
21
-93.500000
31
0.0
0
LINE
8
0
6
CONTINUOUS
10
69.275000
20
-93.500000
30
0.0
11
67.769000
21
-93.500000
31
0.0
0
LINE
8
0
6
CONTINUOUS
10
69.920000
20
-93.500000
30
0.0
11
69.275000
21
-93.500000
31
0.0
0
LINE
8
0
6
CONTINUOUS
10
-166.733100
20
-91.500000
30
0.0
11
-166.733100
21
-93.500000
31
0.0
0
LINE
8
0
6
CONTINUOUS
10
-162.430300
20
-91.500000
30
0.0
11
-162.430300
21
-93.500000
31
0.0
0
LINE
8
0
6
CONTINUOUS
10
-163.075700
20
-91.500000
30
0.0
11
-163.075700
21
-93.500000
31
0.0
0
LINE
8
0
6
CONTINUOUS
10
-162.430300
20
-93.500000
30
0.0
11
-162.430300
21
-91.500000
31
0.0
0
LINE
8
0
6
CONTINUOUS
10
-163.075700
20
-93.500000
30
0.0
11
-162.430300
21
-93.500000
31
0.0
0
LINE
8
0
6
CONTINUOUS
10
-164.581700
20
-91.500000
30
0.0
11
-164.581700
21
-93.500000
31
0.0
0
LINE
8
0
6
CONTINUOUS
10
-163.075700
20
-93.500000
30
0.0
11
-163.075700
21
-91.500000
31
0.0
0
LINE
8
0
6
CONTINUOUS
10
-164.581700
20
-93.500000
30
0.0
11
-163.075700
21
-93.500000
31
0.0
0
LINE
8
0
6
CONTINUOUS
10
-166.087700
20
-93.500000
30
0.0
11
-166.087700
21
-91.500000
31
0.0
0
LINE
8
0
6
CONTINUOUS
10
-164.581700
20
-93.500000
30
0.0
11
-166.087700
21
-93.500000
31
0.0
0
LINE
8
0
6
CONTINUOUS
10
-164.581700
20
-91.500000
30
0.0
11
-164.581700
21
-93.500000
31
0.0
0
LINE
8
0
6
CONTINUOUS
10
-166.733100
20
-93.500000
30
0.0
11
-166.733100
21
-91.500000
31
0.0
0
LINE
8
0
6
CONTINUOUS
10
-166.087700
20
-93.500000
30
0.0
11
-166.733100
21
-93.500000
31
0.0
0
LINE
8
0
6
CONTINUOUS
10
-166.087700
20
-91.500000
30
0.0
11
-166.087700
21
-93.500000
31
0.0
0
LINE
8
0
6
CONTINUOUS
10
-162.430300
20
-93.500000
30
0.0
11
-163.075700
21
-93.500000
31
0.0
0
LINE
8
0
6
CONTINUOUS
10
-163.075700
20
-93.500000
30
0.0
11
-164.581700
21
-93.500000
31
0.0
0
LINE
8
0
6
CONTINUOUS
10
-166.087700
20
-93.500000
30
0.0
11
-164.581700
21
-93.500000
31
0.0
0
LINE
8
0
6
CONTINUOUS
10
-166.733100
20
-93.500000
30
0.0
11
-166.087700
21
-93.500000
31
0.0
0
LINE
8
0
6
CONTINUOUS
10
-89.282900
20
-91.500000
30
0.0
11
-89.282900
21
-93.500000
31
0.0
0
LINE
8
0
6
CONTINUOUS
10
-84.980100
20
-91.500000
30
0.0
11
-84.980100
21
-93.500000
31
0.0
0
LINE
8
0
6
CONTINUOUS
10
-85.625500
20
-91.500000
30
0.0
11
-85.625500
21
-93.500000
31
0.0
0
LINE
8
0
6
CONTINUOUS
10
-84.980100
20
-93.500000
30
0.0
11
-84.980100
21
-91.500000
31
0.0
0
LINE
8
0
6
CONTINUOUS
10
-85.625500
20
-93.500000
30
0.0
11
-84.980100
21
-93.500000
31
0.0
0
LINE
8
0
6
CONTINUOUS
10
-87.131500
20
-91.500000
30
0.0
11
-87.131500
21
-93.500000
31
0.0
0
LINE
8
0
6
CONTINUOUS
10
-85.625500
20
-93.500000
30
0.0
11
-85.625500
21
-91.500000
31
0.0
0
LINE
8
0
6
CONTINUOUS
10
-87.131500
20
-93.500000
30
0.0
11
-85.625500
21
-93.500000
31
0.0
0
LINE
8
0
6
CONTINUOUS
10
-88.637500
20
-93.500000
30
0.0
11
-88.637500
21
-91.500000
31
0.0
0
LINE
8
0
6
CONTINUOUS
10
-87.131500
20
-93.500000
30
0.0
11
-88.637500
21
-93.500000
31
0.0
0
LINE
8
0
6
CONTINUOUS
10
-87.131500
20
-91.500000
30
0.0
11
-87.131500
21
-93.500000
31
0.0
0
LINE
8
0
6
CONTINUOUS
10
-89.282900
20
-93.500000
30
0.0
11
-89.282900
21
-91.500000
31
0.0
0
LINE
8
0
6
CONTINUOUS
10
-88.637500
20
-93.500000
30
0.0
11
-89.282900
21
-93.500000
31
0.0
0
LINE
8
0
6
CONTINUOUS
10
-88.637500
20
-91.500000
30
0.0
11
-88.637500
21
-93.500000
31
0.0
0
LINE
8
0
6
CONTINUOUS
10
-84.980100
20
-93.500000
30
0.0
11
-85.625500
21
-93.500000
31
0.0
0
LINE
8
0
6
CONTINUOUS
10
-85.625500
20
-93.500000
30
0.0
11
-87.131500
21
-93.500000
31
0.0
0
LINE
8
0
6
CONTINUOUS
10
-88.637500
20
-93.500000
30
0.0
11
-87.131500
21
-93.500000
31
0.0
0
LINE
8
0
6
CONTINUOUS
10
-89.282900
20
-93.500000
30
0.0
11
-88.637500
21
-93.500000
31
0.0
0
LINE
8
0
6
CONTINUOUS
10
-108.645400
20
-91.500000
30
0.0
11
-108.645400
21
-93.500000
31
0.0
0
LINE
8
0
6
CONTINUOUS
10
-104.342600
20
-91.500000
30
0.0
11
-104.342600
21
-93.500000
31
0.0
0
LINE
8
0
6
CONTINUOUS
10
-104.988000
20
-91.500000
30
0.0
11
-104.988000
21
-93.500000
31
0.0
0
LINE
8
0
6
CONTINUOUS
10
-104.342600
20
-93.500000
30
0.0
11
-104.342600
21
-91.500000
31
0.0
0
LINE
8
0
6
CONTINUOUS
10
-104.988000
20
-93.500000
30
0.0
11
-104.342600
21
-93.500000
31
0.0
0
LINE
8
0
6
CONTINUOUS
10
-106.494000
20
-91.500000
30
0.0
11
-106.494000
21
-93.500000
31
0.0
0
LINE
8
0
6
CONTINUOUS
10
-104.988000
20
-93.500000
30
0.0
11
-104.988000
21
-91.500000
31
0.0
0
LINE
8
0
6
CONTINUOUS
10
-106.494000
20
-93.500000
30
0.0
11
-104.988000
21
-93.500000
31
0.0
0
LINE
8
0
6
CONTINUOUS
10
-108.000000
20
-93.500000
30
0.0
11
-108.000000
21
-91.500000
31
0.0
0
LINE
8
0
6
CONTINUOUS
10
-106.494000
20
-93.500000
30
0.0
11
-108.000000
21
-93.500000
31
0.0
0
LINE
8
0
6
CONTINUOUS
10
-106.494000
20
-91.500000
30
0.0
11
-106.494000
21
-93.500000
31
0.0
0
LINE
8
0
6
CONTINUOUS
10
-108.645400
20
-93.500000
30
0.0
11
-108.645400
21
-91.500000
31
0.0
0
LINE
8
0
6
CONTINUOUS
10
-108.000000
20
-93.500000
30
0.0
11
-108.645400
21
-93.500000
31
0.0
0
LINE
8
0
6
CONTINUOUS
10
-108.000000
20
-91.500000
30
0.0
11
-108.000000
21
-93.500000
31
0.0
0
LINE
8
0
6
CONTINUOUS
10
-104.342600
20
-93.500000
30
0.0
11
-104.988000
21
-93.500000
31
0.0
0
LINE
8
0
6
CONTINUOUS
10
-104.988000
20
-93.500000
30
0.0
11
-106.494000
21
-93.500000
31
0.0
0
LINE
8
0
6
CONTINUOUS
10
-108.000000
20
-93.500000
30
0.0
11
-106.494000
21
-93.500000
31
0.0
0
LINE
8
0
6
CONTINUOUS
10
-108.645400
20
-93.500000
30
0.0
11
-108.000000
21
-93.500000
31
0.0
0
LINE
8
0
6
CONTINUOUS
10
-128.008000
20
-91.500000
30
0.0
11
-128.008000
21
-93.500000
31
0.0
0
LINE
8
0
6
CONTINUOUS
10
-123.705200
20
-91.500000
30
0.0
11
-123.705200
21
-93.500000
31
0.0
0
LINE
8
0
6
CONTINUOUS
10
-124.350600
20
-91.500000
30
0.0
11
-124.350600
21
-93.500000
31
0.0
0
LINE
8
0
6
CONTINUOUS
10
-123.705200
20
-93.500000
30
0.0
11
-123.705200
21
-91.500000
31
0.0
0
LINE
8
0
6
CONTINUOUS
10
-124.350600
20
-93.500000
30
0.0
11
-123.705200
21
-93.500000
31
0.0
0
LINE
8
0
6
CONTINUOUS
10
-125.856600
20
-91.500000
30
0.0
11
-125.856600
21
-93.500000
31
0.0
0
LINE
8
0
6
CONTINUOUS
10
-124.350600
20
-93.500000
30
0.0
11
-124.350600
21
-91.500000
31
0.0
0
LINE
8
0
6
CONTINUOUS
10
-125.856600
20
-93.500000
30
0.0
11
-124.350600
21
-93.500000
31
0.0
0
LINE
8
0
6
CONTINUOUS
10
-127.362500
20
-93.500000
30
0.0
11
-127.362500
21
-91.500000
31
0.0
0
LINE
8
0
6
CONTINUOUS
10
-125.856600
20
-93.500000
30
0.0
11
-127.362500
21
-93.500000
31
0.0
0
LINE
8
0
6
CONTINUOUS
10
-125.856600
20
-91.500000
30
0.0
11
-125.856600
21
-93.500000
31
0.0
0
LINE
8
0
6
CONTINUOUS
10
-128.008000
20
-93.500000
30
0.0
11
-128.008000
21
-91.500000
31
0.0
0
LINE
8
0
6
CONTINUOUS
10
-127.362500
20
-93.500000
30
0.0
11
-128.008000
21
-93.500000
31
0.0
0
LINE
8
0
6
CONTINUOUS
10
-127.362500
20
-91.500000
30
0.0
11
-127.362500
21
-93.500000
31
0.0
0
LINE
8
0
6
CONTINUOUS
10
-123.705200
20
-93.500000
30
0.0
11
-124.350600
21
-93.500000
31
0.0
0
LINE
8
0
6
CONTINUOUS
10
-124.350600
20
-93.500000
30
0.0
11
-125.856600
21
-93.500000
31
0.0
0
LINE
8
0
6
CONTINUOUS
10
-127.362500
20
-93.500000
30
0.0
11
-125.856600
21
-93.500000
31
0.0
0
LINE
8
0
6
CONTINUOUS
10
-128.008000
20
-93.500000
30
0.0
11
-127.362500
21
-93.500000
31
0.0
0
LINE
8
0
6
CONTINUOUS
10
-147.370500
20
-91.500000
30
0.0
11
-147.370500
21
-93.500000
31
0.0
0
LINE
8
0
6
CONTINUOUS
10
-143.067700
20
-91.500000
30
0.0
11
-143.067700
21
-93.500000
31
0.0
0
LINE
8
0
6
CONTINUOUS
10
-143.713100
20
-91.500000
30
0.0
11
-143.713100
21
-93.500000
31
0.0
0
LINE
8
0
6
CONTINUOUS
10
-143.067700
20
-93.500000
30
0.0
11
-143.067700
21
-91.500000
31
0.0
0
LINE
8
0
6
CONTINUOUS
10
-143.713100
20
-93.500000
30
0.0
11
-143.067700
21
-93.500000
31
0.0
0
LINE
8
0
6
CONTINUOUS
10
-145.219100
20
-91.500000
30
0.0
11
-145.219100
21
-93.500000
31
0.0
0
LINE
8
0
6
CONTINUOUS
10
-143.713100
20
-93.500000
30
0.0
11
-143.713100
21
-91.500000
31
0.0
0
LINE
8
0
6
CONTINUOUS
10
-145.219100
20
-93.500000
30
0.0
11
-143.713100
21
-93.500000
31
0.0
0
LINE
8
0
6
CONTINUOUS
10
-146.725100
20
-93.500000
30
0.0
11
-146.725100
21
-91.500000
31
0.0
0
LINE
8
0
6
CONTINUOUS
10
-145.219100
20
-93.500000
30
0.0
11
-146.725100
21
-93.500000
31
0.0
0
LINE
8
0
6
CONTINUOUS
10
-145.219100
20
-91.500000
30
0.0
11
-145.219100
21
-93.500000
31
0.0
0
LINE
8
0
6
CONTINUOUS
10
-147.370500
20
-93.500000
30
0.0
11
-147.370500
21
-91.500000
31
0.0
0
LINE
8
0
6
CONTINUOUS
10
-146.725100
20
-93.500000
30
0.0
11
-147.370500
21
-93.500000
31
0.0
0
LINE
8
0
6
CONTINUOUS
10
-146.725100
20
-91.500000
30
0.0
11
-146.725100
21
-93.500000
31
0.0
0
LINE
8
0
6
CONTINUOUS
10
-143.067700
20
-93.500000
30
0.0
11
-143.713100
21
-93.500000
31
0.0
0
LINE
8
0
6
CONTINUOUS
10
-143.713100
20
-93.500000
30
0.0
11
-145.219100
21
-93.500000
31
0.0
0
LINE
8
0
6
CONTINUOUS
10
-146.725100
20
-93.500000
30
0.0
11
-145.219100
21
-93.500000
31
0.0
0
LINE
8
0
6
CONTINUOUS
10
-147.370500
20
-93.500000
30
0.0
11
-146.725100
21
-93.500000
31
0.0
0
LINE
8
0
6
CONTINUOUS
10
-50.558000
20
-91.500000
30
0.0
11
-50.558000
21
-93.500000
31
0.0
0
LINE
8
0
6
CONTINUOUS
10
-46.255000
20
-91.500000
30
0.0
11
-46.255000
21
-93.500000
31
0.0
0
LINE
8
0
6
CONTINUOUS
10
-46.900000
20
-91.500000
30
0.0
11
-46.900000
21
-93.500000
31
0.0
0
LINE
8
0
6
CONTINUOUS
10
-46.255000
20
-93.500000
30
0.0
11
-46.255000
21
-91.500000
31
0.0
0
LINE
8
0
6
CONTINUOUS
10
-46.900000
20
-93.500000
30
0.0
11
-46.255000
21
-93.500000
31
0.0
0
LINE
8
0
6
CONTINUOUS
10
-48.406000
20
-91.500000
30
0.0
11
-48.406000
21
-93.500000
31
0.0
0
LINE
8
0
6
CONTINUOUS
10
-46.900000
20
-93.500000
30
0.0
11
-46.900000
21
-91.500000
31
0.0
0
LINE
8
0
6
CONTINUOUS
10
-48.406000
20
-93.500000
30
0.0
11
-46.900000
21
-93.500000
31
0.0
0
LINE
8
0
6
CONTINUOUS
10
-49.912000
20
-93.500000
30
0.0
11
-49.912000
21
-91.500000
31
0.0
0
LINE
8
0
6
CONTINUOUS
10
-48.406000
20
-93.500000
30
0.0
11
-49.912000
21
-93.500000
31
0.0
0
LINE
8
0
6
CONTINUOUS
10
-48.406000
20
-91.500000
30
0.0
11
-48.406000
21
-93.500000
31
0.0
0
LINE
8
0
6
CONTINUOUS
10
-50.558000
20
-93.500000
30
0.0
11
-50.558000
21
-91.500000
31
0.0
0
LINE
8
0
6
CONTINUOUS
10
-49.912000
20
-93.500000
30
0.0
11
-50.558000
21
-93.500000
31
0.0
0
LINE
8
0
6
CONTINUOUS
10
-49.912000
20
-91.500000
30
0.0
11
-49.912000
21
-93.500000
31
0.0
0
LINE
8
0
6
CONTINUOUS
10
-46.255000
20
-93.500000
30
0.0
11
-46.900000
21
-93.500000
31
0.0
0
LINE
8
0
6
CONTINUOUS
10
-46.900000
20
-93.500000
30
0.0
11
-48.406000
21
-93.500000
31
0.0
0
LINE
8
0
6
CONTINUOUS
10
-49.912000
20
-93.500000
30
0.0
11
-48.406000
21
-93.500000
31
0.0
0
LINE
8
0
6
CONTINUOUS
10
-50.558000
20
-93.500000
30
0.0
11
-49.912000
21
-93.500000
31
0.0
0
LINE
8
0
6
CONTINUOUS
10
-69.920000
20
-91.500000
30
0.0
11
-69.920000
21
-93.500000
31
0.0
0
LINE
8
0
6
CONTINUOUS
10
-65.618000
20
-91.500000
30
0.0
11
-65.618000
21
-93.500000
31
0.0
0
LINE
8
0
6
CONTINUOUS
10
-66.263000
20
-91.500000
30
0.0
11
-66.263000
21
-93.500000
31
0.0
0
LINE
8
0
6
CONTINUOUS
10
-65.618000
20
-93.500000
30
0.0
11
-65.618000
21
-91.500000
31
0.0
0
LINE
8
0
6
CONTINUOUS
10
-66.263000
20
-93.500000
30
0.0
11
-65.618000
21
-93.500000
31
0.0
0
LINE
8
0
6
CONTINUOUS
10
-67.769000
20
-91.500000
30
0.0
11
-67.769000
21
-93.500000
31
0.0
0
LINE
8
0
6
CONTINUOUS
10
-66.263000
20
-93.500000
30
0.0
11
-66.263000
21
-91.500000
31
0.0
0
LINE
8
0
6
CONTINUOUS
10
-67.769000
20
-93.500000
30
0.0
11
-66.263000
21
-93.500000
31
0.0
0
LINE
8
0
6
CONTINUOUS
10
-69.275000
20
-93.500000
30
0.0
11
-69.275000
21
-91.500000
31
0.0
0
LINE
8
0
6
CONTINUOUS
10
-67.769000
20
-93.500000
30
0.0
11
-69.275000
21
-93.500000
31
0.0
0
LINE
8
0
6
CONTINUOUS
10
-67.769000
20
-91.500000
30
0.0
11
-67.769000
21
-93.500000
31
0.0
0
LINE
8
0
6
CONTINUOUS
10
-69.920000
20
-93.500000
30
0.0
11
-69.920000
21
-91.500000
31
0.0
0
LINE
8
0
6
CONTINUOUS
10
-69.275000
20
-93.500000
30
0.0
11
-69.920000
21
-93.500000
31
0.0
0
LINE
8
0
6
CONTINUOUS
10
-69.275000
20
-91.500000
30
0.0
11
-69.275000
21
-93.500000
31
0.0
0
LINE
8
0
6
CONTINUOUS
10
-65.618000
20
-93.500000
30
0.0
11
-66.263000
21
-93.500000
31
0.0
0
LINE
8
0
6
CONTINUOUS
10
-66.263000
20
-93.500000
30
0.0
11
-67.769000
21
-93.500000
31
0.0
0
LINE
8
0
6
CONTINUOUS
10
-69.275000
20
-93.500000
30
0.0
11
-67.769000
21
-93.500000
31
0.0
0
LINE
8
0
6
CONTINUOUS
10
-69.920000
20
-93.500000
30
0.0
11
-69.275000
21
-93.500000
31
0.0
0
LINE
8
0
6
CONTINUOUS
10
-31.195000
20
-91.500000
30
0.0
11
-31.195000
21
-93.500000
31
0.0
0
LINE
8
0
6
CONTINUOUS
10
-26.892000
20
-91.500000
30
0.0
11
-26.892000
21
-93.500000
31
0.0
0
LINE
8
0
6
CONTINUOUS
10
-27.538000
20
-91.500000
30
0.0
11
-27.538000
21
-93.500000
31
0.0
0
LINE
8
0
6
CONTINUOUS
10
-26.892000
20
-93.500000
30
0.0
11
-26.892000
21
-91.500000
31
0.0
0
LINE
8
0
6
CONTINUOUS
10
-27.538000
20
-93.500000
30
0.0
11
-26.892000
21
-93.500000
31
0.0
0
LINE
8
0
6
CONTINUOUS
10
-29.044000
20
-91.500000
30
0.0
11
-29.044000
21
-93.500000
31
0.0
0
LINE
8
0
6
CONTINUOUS
10
-27.538000
20
-93.500000
30
0.0
11
-27.538000
21
-91.500000
31
0.0
0
LINE
8
0
6
CONTINUOUS
10
-29.044000
20
-93.500000
30
0.0
11
-27.538000
21
-93.500000
31
0.0
0
LINE
8
0
6
CONTINUOUS
10
-30.550000
20
-93.500000
30
0.0
11
-30.550000
21
-91.500000
31
0.0
0
LINE
8
0
6
CONTINUOUS
10
-29.044000
20
-93.500000
30
0.0
11
-30.550000
21
-93.500000
31
0.0
0
LINE
8
0
6
CONTINUOUS
10
-29.044000
20
-91.500000
30
0.0
11
-29.044000
21
-93.500000
31
0.0
0
LINE
8
0
6
CONTINUOUS
10
-31.195000
20
-93.500000
30
0.0
11
-31.195000
21
-91.500000
31
0.0
0
LINE
8
0
6
CONTINUOUS
10
-30.550000
20
-93.500000
30
0.0
11
-31.195000
21
-93.500000
31
0.0
0
LINE
8
0
6
CONTINUOUS
10
-30.550000
20
-91.500000
30
0.0
11
-30.550000
21
-93.500000
31
0.0
0
LINE
8
0
6
CONTINUOUS
10
-26.892000
20
-93.500000
30
0.0
11
-27.538000
21
-93.500000
31
0.0
0
LINE
8
0
6
CONTINUOUS
10
-27.538000
20
-93.500000
30
0.0
11
-29.044000
21
-93.500000
31
0.0
0
LINE
8
0
6
CONTINUOUS
10
-30.550000
20
-93.500000
30
0.0
11
-29.044000
21
-93.500000
31
0.0
0
LINE
8
0
6
CONTINUOUS
10
-31.195000
20
-93.500000
30
0.0
11
-30.550000
21
-93.500000
31
0.0
0
LINE
8
0
6
CONTINUOUS
10
-11.833000
20
-91.500000
30
0.0
11
-11.833000
21
-93.500000
31
0.0
0
LINE
8
0
6
CONTINUOUS
10
-7.530000
20
-91.500000
30
0.0
11
-7.530000
21
-93.500000
31
0.0
0
LINE
8
0
6
CONTINUOUS
10
-8.175000
20
-91.500000
30
0.0
11
-8.175000
21
-93.500000
31
0.0
0
LINE
8
0
6
CONTINUOUS
10
-7.530000
20
-93.500000
30
0.0
11
-7.530000
21
-91.500000
31
0.0
0
LINE
8
0
6
CONTINUOUS
10
-8.175000
20
-93.500000
30
0.0
11
-7.530000
21
-93.500000
31
0.0
0
LINE
8
0
6
CONTINUOUS
10
-9.681000
20
-91.500000
30
0.0
11
-9.681000
21
-93.500000
31
0.0
0
LINE
8
0
6
CONTINUOUS
10
-8.175000
20
-93.500000
30
0.0
11
-8.175000
21
-91.500000
31
0.0
0
LINE
8
0
6
CONTINUOUS
10
-9.681000
20
-93.500000
30
0.0
11
-8.175000
21
-93.500000
31
0.0
0
LINE
8
0
6
CONTINUOUS
10
-11.187000
20
-93.500000
30
0.0
11
-11.187000
21
-91.500000
31
0.0
0
LINE
8
0
6
CONTINUOUS
10
-9.681000
20
-93.500000
30
0.0
11
-11.187000
21
-93.500000
31
0.0
0
LINE
8
0
6
CONTINUOUS
10
-9.681000
20
-91.500000
30
0.0
11
-9.681000
21
-93.500000
31
0.0
0
LINE
8
0
6
CONTINUOUS
10
-11.833000
20
-93.500000
30
0.0
11
-11.833000
21
-91.500000
31
0.0
0
LINE
8
0
6
CONTINUOUS
10
-11.187000
20
-93.500000
30
0.0
11
-11.833000
21
-93.500000
31
0.0
0
LINE
8
0
6
CONTINUOUS
10
-11.187000
20
-91.500000
30
0.0
11
-11.187000
21
-93.500000
31
0.0
0
LINE
8
0
6
CONTINUOUS
10
-7.530000
20
-93.500000
30
0.0
11
-8.175000
21
-93.500000
31
0.0
0
LINE
8
0
6
CONTINUOUS
10
-8.175000
20
-93.500000
30
0.0
11
-9.681000
21
-93.500000
31
0.0
0
LINE
8
0
6
CONTINUOUS
10
-11.187000
20
-93.500000
30
0.0
11
-9.681000
21
-93.500000
31
0.0
0
LINE
8
0
6
CONTINUOUS
10
-11.833000
20
-93.500000
30
0.0
11
-11.187000
21
-93.500000
31
0.0
0
LINE
8
0
6
CONTINUOUS
10
39.269000
20
79.649000
30
0.0
11
39.263000
21
79.550000
31
0.0
0
LINE
8
0
6
CONTINUOUS
10
39.298000
20
80.064000
30
0.0
11
39.269000
21
79.649000
31
0.0
0
LINE
8
0
6
CONTINUOUS
10
39.263000
20
79.550000
30
0.0
11
39.298000
21
80.064000
31
0.0
0
LINE
8
0
6
CONTINUOUS
10
39.269000
20
79.649000
30
0.0
11
39.263000
21
79.550000
31
0.0
0
LINE
8
0
6
CONTINUOUS
10
39.298000
20
80.064000
30
0.0
11
39.269000
21
79.649000
31
0.0
0
LINE
8
0
6
CONTINUOUS
10
39.263000
20
79.550000
30
0.0
11
39.298000
21
80.064000
31
0.0
0
LINE
8
0
6
CONTINUOUS
10
39.269000
20
79.649000
30
0.0
11
39.263000
21
79.550000
31
0.0
0
LINE
8
0
6
CONTINUOUS
10
39.298000
20
80.064000
30
0.0
11
39.269000
21
79.649000
31
0.0
0
LINE
8
0
6
CONTINUOUS
10
39.263000
20
79.550000
30
0.0
11
39.298000
21
80.064000
31
0.0
0
LINE
8
0
6
CONTINUOUS
10
39.269000
20
79.649000
30
0.0
11
39.263000
21
79.550000
31
0.0
0
LINE
8
0
6
CONTINUOUS
10
39.298000
20
80.064000
30
0.0
11
39.269000
21
79.649000
31
0.0
0
LINE
8
0
6
CONTINUOUS
10
39.263000
20
79.550000
30
0.0
11
39.298000
21
80.064000
31
0.0
0
LINE
8
0
6
CONTINUOUS
10
39.263000
20
79.550000
30
0.0
11
39.298000
21
80.064000
31
0.0
0
LINE
8
0
6
CONTINUOUS
10
40.000000
20
93.500000
30
0.0
11
39.263000
21
79.550000
31
0.0
0
LINE
8
0
6
CONTINUOUS
10
39.298000
20
80.064000
30
0.0
11
40.000000
21
93.500000
31
0.0
0
LINE
8
0
6
CONTINUOUS
10
40.000000
20
93.500000
30
0.0
11
39.298000
21
80.064000
31
0.0
0
LINE
8
0
6
CONTINUOUS
10
39.263000
20
79.550000
30
0.0
11
40.000000
21
93.500000
31
0.0
0
LINE
8
0
6
CONTINUOUS
10
39.958000
20
93.500000
30
0.0
11
39.852000
21
93.500000
31
0.0
0
LINE
8
0
6
CONTINUOUS
10
39.640000
20
93.500000
30
0.0
11
39.565000
21
93.500000
31
0.0
0
LINE
8
0
6
CONTINUOUS
10
39.852000
20
93.500000
30
0.0
11
39.640000
21
93.500000
31
0.0
0
LINE
8
0
6
CONTINUOUS
10
10.357000
20
77.011000
30
0.0
11
11.626000
21
77.013000
31
0.0
0
LINE
8
0
6
CONTINUOUS
10
13.150000
20
77.016000
30
0.0
11
13.541000
21
77.017000
31
0.0
0
LINE
8
0
6
CONTINUOUS
10
13.541000
20
77.017000
30
0.0
11
13.671000
21
77.018000
31
0.0
0
LINE
8
0
6
CONTINUOUS
10
11.626000
20
77.013000
30
0.0
11
12.508000
21
77.014000
31
0.0
0
LINE
8
0
6
CONTINUOUS
10
12.508000
20
77.014000
30
0.0
11
13.150000
21
77.016000
31
0.0
0
LINE
8
0
6
CONTINUOUS
10
-11.626000
20
77.013000
30
0.0
11
-10.357000
21
77.011000
31
0.0
0
LINE
8
0
6
CONTINUOUS
10
-13.150000
20
77.016000
30
0.0
11
-12.508000
21
77.014000
31
0.0
0
LINE
8
0
6
CONTINUOUS
10
-12.508000
20
77.014000
30
0.0
11
-11.626000
21
77.013000
31
0.0
0
LINE
8
0
6
CONTINUOUS
10
-13.671000
20
77.018000
30
0.0
11
-13.541000
21
77.017000
31
0.0
0
LINE
8
0
6
CONTINUOUS
10
-13.541000
20
77.017000
30
0.0
11
-13.150000
21
77.016000
31
0.0
0
LINE
8
0
6
CONTINUOUS
10
-5.307000
20
77.014000
30
0.0
11
-3.338000
21
77.016000
31
0.0
0
LINE
8
0
6
CONTINUOUS
10
-3.338000
20
77.016000
30
0.0
11
-1.292000
21
77.017000
31
0.0
0
LINE
8
0
6
CONTINUOUS
10
-1.292000
20
77.017000
30
0.0
11
0.000000
21
77.018000
31
0.0
0
LINE
8
0
6
CONTINUOUS
10
0.000000
20
77.018000
30
0.0
11
1.292000
21
77.017000
31
0.0
0
LINE
8
0
6
CONTINUOUS
10
1.292000
20
77.017000
30
0.0
11
3.338000
21
77.016000
31
0.0
0
LINE
8
0
6
CONTINUOUS
10
3.338000
20
77.016000
30
0.0
11
5.307000
21
77.014000
31
0.0
0
LINE
8
0
6
CONTINUOUS
10
-10.357000
20
77.011000
30
0.0
11
-8.834000
21
77.011000
31
0.0
0
LINE
8
0
6
CONTINUOUS
10
-8.834000
20
77.011000
30
0.0
11
-7.153000
21
77.013000
31
0.0
0
LINE
8
0
6
CONTINUOUS
10
-7.153000
20
77.013000
30
0.0
11
-5.307000
21
77.014000
31
0.0
0
LINE
8
0
6
CONTINUOUS
10
37.032000
20
77.799000
30
0.0
11
37.903000
21
77.909000
31
0.0
0
LINE
8
0
6
CONTINUOUS
10
36.982000
20
77.812000
30
0.0
11
37.032000
21
77.799000
31
0.0
0
LINE
8
0
6
CONTINUOUS
10
38.445000
20
78.069000
30
0.0
11
38.728000
21
78.333000
31
0.0
0
LINE
8
0
6
CONTINUOUS
10
38.728000
20
78.333000
30
0.0
11
38.278000
21
78.029000
31
0.0
0
LINE
8
0
6
CONTINUOUS
10
38.278000
20
78.029000
30
0.0
11
38.445000
21
78.069000
31
0.0
0
LINE
8
0
6
CONTINUOUS
10
5.307000
20
77.014000
30
0.0
11
7.153000
21
77.013000
31
0.0
0
LINE
8
0
6
CONTINUOUS
10
7.153000
20
77.013000
30
0.0
11
8.834000
21
77.011000
31
0.0
0
LINE
8
0
6
CONTINUOUS
10
8.834000
20
77.011000
30
0.0
11
10.357000
21
77.011000
31
0.0
0
LINE
8
0
6
CONTINUOUS
10
-39.263000
20
79.550000
30
0.0
11
-39.269000
21
79.649000
31
0.0
0
LINE
8
0
6
CONTINUOUS
10
-39.297000
20
80.064000
30
0.0
11
-39.263000
21
79.550000
31
0.0
0
LINE
8
0
6
CONTINUOUS
10
-39.269000
20
79.649000
30
0.0
11
-39.297000
21
80.064000
31
0.0
0
LINE
8
0
6
CONTINUOUS
10
-39.263000
20
79.550000
30
0.0
11
-39.269000
21
79.649000
31
0.0
0
LINE
8
0
6
CONTINUOUS
10
-39.297000
20
80.064000
30
0.0
11
-39.263000
21
79.550000
31
0.0
0
LINE
8
0
6
CONTINUOUS
10
-39.269000
20
79.649000
30
0.0
11
-39.297000
21
80.064000
31
0.0
0
LINE
8
0
6
CONTINUOUS
10
-39.263000
20
79.550000
30
0.0
11
-39.269000
21
79.649000
31
0.0
0
LINE
8
0
6
CONTINUOUS
10
-39.297000
20
80.064000
30
0.0
11
-39.263000
21
79.550000
31
0.0
0
LINE
8
0
6
CONTINUOUS
10
-39.269000
20
79.649000
30
0.0
11
-39.297000
21
80.064000
31
0.0
0
LINE
8
0
6
CONTINUOUS
10
-39.263000
20
79.550000
30
0.0
11
-39.269000
21
79.649000
31
0.0
0
LINE
8
0
6
CONTINUOUS
10
-39.297000
20
80.064000
30
0.0
11
-39.263000
21
79.550000
31
0.0
0
LINE
8
0
6
CONTINUOUS
10
-39.269000
20
79.649000
30
0.0
11
-39.297000
21
80.064000
31
0.0
0
LINE
8
0
6
CONTINUOUS
10
-39.297000
20
80.064000
30
0.0
11
-40.000000
21
93.500000
31
0.0
0
LINE
8
0
6
CONTINUOUS
10
-39.297000
20
80.064000
30
0.0
11
-39.263000
21
79.550000
31
0.0
0
LINE
8
0
6
CONTINUOUS
10
-40.000000
20
93.500000
30
0.0
11
-39.297000
21
80.064000
31
0.0
0
LINE
8
0
6
CONTINUOUS
10
-39.263000
20
79.550000
30
0.0
11
-40.000000
21
93.500000
31
0.0
0
LINE
8
0
6
CONTINUOUS
10
-40.000000
20
93.500000
30
0.0
11
-39.263000
21
79.550000
31
0.0
0
LINE
8
0
6
CONTINUOUS
10
-39.852000
20
93.500000
30
0.0
11
-39.958000
21
93.500000
31
0.0
0
LINE
8
0
6
CONTINUOUS
10
-38.787000
20
78.323000
30
0.0
11
-38.728000
21
78.333000
31
0.0
0
LINE
8
0
6
CONTINUOUS
10
-39.030000
20
78.785000
30
0.0
11
-38.787000
21
78.323000
31
0.0
0
LINE
8
0
6
CONTINUOUS
10
-38.445000
20
78.069000
30
0.0
11
-38.278000
21
78.029000
31
0.0
0
LINE
8
0
6
CONTINUOUS
10
-38.728000
20
78.333000
30
0.0
11
-38.445000
21
78.069000
31
0.0
0
LINE
8
0
6
CONTINUOUS
10
-37.032000
20
77.799000
30
0.0
11
-36.982000
21
77.812000
31
0.0
0
LINE
8
0
6
CONTINUOUS
10
-37.903000
20
77.909000
30
0.0
11
-37.032000
21
77.799000
31
0.0
0
LINE
8
0
6
CONTINUOUS
10
38.654000
20
93.500000
30
0.0
11
38.435000
21
93.500000
31
0.0
0
LINE
8
0
6
CONTINUOUS
10
38.435000
20
93.500000
30
0.0
11
38.184000
21
93.500000
31
0.0
0
LINE
8
0
6
CONTINUOUS
10
37.300000
20
93.500000
30
0.0
11
36.955000
21
93.500000
31
0.0
0
LINE
8
0
6
CONTINUOUS
10
38.184000
20
93.500000
30
0.0
11
37.889000
21
93.500000
31
0.0
0
LINE
8
0
6
CONTINUOUS
10
37.889000
20
93.500000
30
0.0
11
37.300000
21
93.500000
31
0.0
0
LINE
8
0
6
CONTINUOUS
10
26.003000
20
77.805000
30
0.0
11
19.505000
21
77.807000
31
0.0
0
LINE
8
0
6
CONTINUOUS
10
-13.004000
20
77.812000
30
0.0
11
-9.259000
21
77.416000
31
0.0
0
LINE
8
0
6
CONTINUOUS
10
-9.259000
20
77.416000
30
0.0
11
0.000000
21
77.799000
31
0.0
0
LINE
8
0
6
CONTINUOUS
10
0.000000
20
77.799000
30
0.0
11
9.259000
21
77.416000
31
0.0
0
LINE
8
0
6
CONTINUOUS
10
9.259000
20
77.416000
30
0.0
11
13.004000
21
77.812000
31
0.0
0
LINE
8
0
6
CONTINUOUS
10
29.074000
20
93.500000
30
0.0
11
26.090000
21
93.500000
31
0.0
0
LINE
8
0
6
CONTINUOUS
10
36.149000
20
93.500000
30
0.0
11
35.690000
21
93.500000
31
0.0
0
LINE
8
0
6
CONTINUOUS
10
35.690000
20
93.500000
30
0.0
11
34.715000
21
93.500000
31
0.0
0
LINE
8
0
6
CONTINUOUS
10
30.967000
20
93.500000
30
0.0
11
29.074000
21
93.500000
31
0.0
0
LINE
8
0
6
CONTINUOUS
10
31.907000
20
93.500000
30
0.0
11
30.967000
21
93.500000
31
0.0
0
LINE
8
0
6
CONTINUOUS
10
32.858000
20
93.500000
30
0.0
11
31.907000
21
93.500000
31
0.0
0
LINE
8
0
6
CONTINUOUS
10
33.798000
20
93.500000
30
0.0
11
32.858000
21
93.500000
31
0.0
0
LINE
8
0
6
CONTINUOUS
10
34.715000
20
93.500000
30
0.0
11
33.798000
21
93.500000
31
0.0
0
LINE
8
0
6
CONTINUOUS
10
14.049000
20
93.500000
30
0.0
11
9.333000
21
93.500000
31
0.0
0
LINE
8
0
6
CONTINUOUS
10
21.118000
20
93.500000
30
0.0
11
14.049000
21
93.500000
31
0.0
0
LINE
8
0
6
CONTINUOUS
10
26.090000
20
93.500000
30
0.0
11
21.118000
21
93.500000
31
0.0
0
LINE
8
0
6
CONTINUOUS
10
0.000000
20
93.500000
30
0.0
11
-9.333000
21
93.500000
31
0.0
0
LINE
8
0
6
CONTINUOUS
10
-21.118000
20
93.500000
30
0.0
11
-26.090000
21
93.500000
31
0.0
0
LINE
8
0
6
CONTINUOUS
10
-14.049000
20
93.500000
30
0.0
11
-21.118000
21
93.500000
31
0.0
0
LINE
8
0
6
CONTINUOUS
10
-13.038000
20
78.333000
30
0.0
11
0.000000
21
78.315000
31
0.0
0
LINE
8
0
6
CONTINUOUS
10
0.000000
20
78.353000
30
0.0
11
-13.038000
21
78.333000
31
0.0
0
LINE
8
0
6
CONTINUOUS
10
-9.333000
20
93.500000
30
0.0
11
-14.049000
21
93.500000
31
0.0
0
LINE
8
0
6
CONTINUOUS
10
-13.030000
20
78.029000
30
0.0
11
0.000000
21
78.013000
31
0.0
0
LINE
8
0
6
CONTINUOUS
10
0.000000
20
78.271000
30
0.0
11
-13.030000
21
78.029000
31
0.0
0
LINE
8
0
6
CONTINUOUS
10
13.030000
20
78.029000
30
0.0
11
0.000000
21
78.271000
31
0.0
0
LINE
8
0
6
CONTINUOUS
10
0.000000
20
78.013000
30
0.0
11
13.030000
21
78.029000
31
0.0
0
LINE
8
0
6
CONTINUOUS
10
13.038000
20
78.333000
30
0.0
11
0.000000
21
78.353000
31
0.0
0
LINE
8
0
6
CONTINUOUS
10
0.000000
20
78.315000
30
0.0
11
13.038000
21
78.333000
31
0.0
0
LINE
8
0
6
CONTINUOUS
10
9.333000
20
93.500000
30
0.0
11
0.000000
21
93.500000
31
0.0
0
LINE
8
0
6
CONTINUOUS
10
0.000000
20
77.892000
30
0.0
11
-13.004000
21
77.812000
31
0.0
0
LINE
8
0
6
CONTINUOUS
10
-26.004000
20
77.805000
30
0.0
11
-19.505000
21
77.807000
31
0.0
0
LINE
8
0
6
CONTINUOUS
10
26.036000
20
77.876000
30
0.0
11
26.003000
21
77.805000
31
0.0
0
LINE
8
0
6
CONTINUOUS
10
36.955000
20
93.500000
30
0.0
11
36.583000
21
93.500000
31
0.0
0
LINE
8
0
6
CONTINUOUS
10
36.583000
20
93.500000
30
0.0
11
36.149000
21
93.500000
31
0.0
0
LINE
8
0
6
CONTINUOUS
10
26.004000
20
77.805000
30
0.0
11
26.036000
21
77.876000
31
0.0
0
LINE
8
0
6
CONTINUOUS
10
19.505000
20
77.807000
30
0.0
11
26.004000
21
77.805000
31
0.0
0
LINE
8
0
6
CONTINUOUS
10
13.004000
20
77.812000
30
0.0
11
0.000000
21
77.892000
31
0.0
0
LINE
8
0
6
CONTINUOUS
10
-39.565000
20
93.500000
30
0.0
11
-39.640000
21
93.500000
31
0.0
0
LINE
8
0
6
CONTINUOUS
10
-39.106000
20
93.500000
30
0.0
11
-39.264000
21
93.500000
31
0.0
0
LINE
8
0
6
CONTINUOUS
10
-37.300000
20
93.500000
30
0.0
11
-37.889000
21
93.500000
31
0.0
0
LINE
8
0
6
CONTINUOUS
10
-37.889000
20
93.500000
30
0.0
11
-38.184000
21
93.500000
31
0.0
0
LINE
8
0
6
CONTINUOUS
10
-36.955000
20
93.500000
30
0.0
11
-37.300000
21
93.500000
31
0.0
0
LINE
8
0
6
CONTINUOUS
10
-38.184000
20
93.500000
30
0.0
11
-38.435000
21
93.500000
31
0.0
0
LINE
8
0
6
CONTINUOUS
10
-38.654000
20
93.500000
30
0.0
11
-38.834000
21
93.500000
31
0.0
0
LINE
8
0
6
CONTINUOUS
10
-38.834000
20
93.500000
30
0.0
11
-39.106000
21
93.500000
31
0.0
0
LINE
8
0
6
CONTINUOUS
10
-38.435000
20
93.500000
30
0.0
11
-38.654000
21
93.500000
31
0.0
0
LINE
8
0
6
CONTINUOUS
10
-39.378000
20
93.500000
30
0.0
11
-39.565000
21
93.500000
31
0.0
0
LINE
8
0
6
CONTINUOUS
10
-39.264000
20
93.500000
30
0.0
11
-39.378000
21
93.500000
31
0.0
0
LINE
8
0
6
CONTINUOUS
10
-33.798000
20
93.500000
30
0.0
11
-34.715000
21
93.500000
31
0.0
0
LINE
8
0
6
CONTINUOUS
10
-32.858000
20
93.500000
30
0.0
11
-33.798000
21
93.500000
31
0.0
0
LINE
8
0
6
CONTINUOUS
10
-31.907000
20
93.500000
30
0.0
11
-32.858000
21
93.500000
31
0.0
0
LINE
8
0
6
CONTINUOUS
10
-30.967000
20
93.500000
30
0.0
11
-31.907000
21
93.500000
31
0.0
0
LINE
8
0
6
CONTINUOUS
10
-29.074000
20
93.500000
30
0.0
11
-30.967000
21
93.500000
31
0.0
0
LINE
8
0
6
CONTINUOUS
10
-34.715000
20
93.500000
30
0.0
11
-35.690000
21
93.500000
31
0.0
0
LINE
8
0
6
CONTINUOUS
10
-35.690000
20
93.500000
30
0.0
11
-36.149000
21
93.500000
31
0.0
0
LINE
8
0
6
CONTINUOUS
10
-36.149000
20
93.500000
30
0.0
11
-36.583000
21
93.500000
31
0.0
0
LINE
8
0
6
CONTINUOUS
10
-36.583000
20
93.500000
30
0.0
11
-36.955000
21
93.500000
31
0.0
0
LINE
8
0
6
CONTINUOUS
10
-26.090000
20
93.500000
30
0.0
11
-29.074000
21
93.500000
31
0.0
0
LINE
8
0
6
CONTINUOUS
10
-39.640000
20
93.500000
30
0.0
11
-39.852000
21
93.500000
31
0.0
0
LINE
8
0
6
CONTINUOUS
10
-9.259000
20
77.154000
30
0.0
11
0.000000
21
77.202000
31
0.0
0
LINE
8
0
6
CONTINUOUS
10
9.259000
20
77.154000
30
0.0
11
0.000000
21
77.318000
31
0.0
0
LINE
8
0
6
CONTINUOUS
10
0.000000
20
77.202000
30
0.0
11
9.259000
21
77.154000
31
0.0
0
LINE
8
0
6
CONTINUOUS
10
13.035000
20
-22.000000
30
0.0
11
12.297000
21
-22.000000
31
0.0
0
LINE
8
0
6
CONTINUOUS
10
11.842000
20
-22.500000
30
0.0
11
12.553000
21
-22.500000
31
0.0
0
LINE
8
0
6
CONTINUOUS
10
12.553000
20
-22.500000
30
0.0
11
11.842000
21
-22.500000
31
0.0
0
LINE
8
0
6
CONTINUOUS
10
12.920000
20
-22.500000
30
0.0
11
12.553000
21
-22.500000
31
0.0
0
LINE
8
0
6
CONTINUOUS
10
12.920000
20
-22.500000
30
0.0
11
12.553000
21
-22.500000
31
0.0
0
LINE
8
0
6
CONTINUOUS
10
12.553000
20
-22.500000
30
0.0
11
12.920000
21
-22.500000
31
0.0
0
LINE
8
0
6
CONTINUOUS
10
13.417000
20
-22.000000
30
0.0
11
13.035000
21
-22.000000
31
0.0
0
LINE
8
0
6
CONTINUOUS
10
11.224000
20
-22.000000
30
0.0
11
9.844000
21
-22.000000
31
0.0
0
LINE
8
0
6
CONTINUOUS
10
9.480000
20
-22.500000
30
0.0
11
10.808000
21
-22.500000
31
0.0
0
LINE
8
0
6
CONTINUOUS
10
8.197000
20
-22.000000
30
0.0
11
6.326000
21
-22.000000
31
0.0
0
LINE
8
0
6
CONTINUOUS
10
6.091000
20
-22.500000
30
0.0
11
7.893000
21
-22.500000
31
0.0
0
LINE
8
0
6
CONTINUOUS
10
9.844000
20
-22.000000
30
0.0
11
8.197000
21
-22.000000
31
0.0
0
LINE
8
0
6
CONTINUOUS
10
7.893000
20
-22.500000
30
0.0
11
9.480000
21
-22.500000
31
0.0
0
LINE
8
0
6
CONTINUOUS
10
12.297000
20
-22.000000
30
0.0
11
11.224000
21
-22.000000
31
0.0
0
LINE
8
0
6
CONTINUOUS
10
10.808000
20
-22.500000
30
0.0
11
11.842000
21
-22.500000
31
0.0
0
LINE
8
0
6
CONTINUOUS
10
11.842000
20
-22.500000
30
0.0
11
10.808000
21
-22.500000
31
0.0
0
LINE
8
0
6
CONTINUOUS
10
10.808000
20
-22.500000
30
0.0
11
9.480000
21
-22.500000
31
0.0
0
LINE
8
0
6
CONTINUOUS
10
-12.297000
20
-22.000000
30
0.0
11
-13.035000
21
-22.000000
31
0.0
0
LINE
8
0
6
CONTINUOUS
10
-12.553000
20
-22.500000
30
0.0
11
-11.842000
21
-22.500000
31
0.0
0
LINE
8
0
6
CONTINUOUS
10
-12.920000
20
-22.500000
30
0.0
11
-12.553000
21
-22.500000
31
0.0
0
LINE
8
0
6
CONTINUOUS
10
-13.035000
20
-22.000000
30
0.0
11
-13.417000
21
-22.000000
31
0.0
0
LINE
8
0
6
CONTINUOUS
10
-12.553000
20
-22.500000
30
0.0
11
-12.920000
21
-22.500000
31
0.0
0
LINE
8
0
6
CONTINUOUS
10
-12.553000
20
-22.500000
30
0.0
11
-12.920000
21
-22.500000
31
0.0
0
LINE
8
0
6
CONTINUOUS
10
-11.842000
20
-22.500000
30
0.0
11
-12.553000
21
-22.500000
31
0.0
0
LINE
8
0
6
CONTINUOUS
10
-6.326000
20
-22.000000
30
0.0
11
-8.197000
21
-22.000000
31
0.0
0
LINE
8
0
6
CONTINUOUS
10
-7.893000
20
-22.500000
30
0.0
11
-6.091000
21
-22.500000
31
0.0
0
LINE
8
0
6
CONTINUOUS
10
-6.091000
20
-22.500000
30
0.0
11
-7.893000
21
-22.500000
31
0.0
0
LINE
8
0
6
CONTINUOUS
10
-7.893000
20
-22.500000
30
0.0
11
-9.480000
21
-22.500000
31
0.0
0
LINE
8
0
6
CONTINUOUS
10
-8.197000
20
-22.000000
30
0.0
11
-9.844000
21
-22.000000
31
0.0
0
LINE
8
0
6
CONTINUOUS
10
-9.480000
20
-22.500000
30
0.0
11
-7.893000
21
-22.500000
31
0.0
0
LINE
8
0
6
CONTINUOUS
10
-9.844000
20
-22.000000
30
0.0
11
-11.224000
21
-22.000000
31
0.0
0
LINE
8
0
6
CONTINUOUS
10
-10.808000
20
-22.500000
30
0.0
11
-9.480000
21
-22.500000
31
0.0
0
LINE
8
0
6
CONTINUOUS
10
-9.480000
20
-22.500000
30
0.0
11
-10.808000
21
-22.500000
31
0.0
0
LINE
8
0
6
CONTINUOUS
10
-10.808000
20
-22.500000
30
0.0
11
-11.842000
21
-22.500000
31
0.0
0
LINE
8
0
6
CONTINUOUS
10
-11.224000
20
-22.000000
30
0.0
11
-12.297000
21
-22.000000
31
0.0
0
LINE
8
0
6
CONTINUOUS
10
-11.842000
20
-22.500000
30
0.0
11
-10.808000
21
-22.500000
31
0.0
0
LINE
8
0
6
CONTINUOUS
10
9.480000
20
-22.500000
30
0.0
11
7.893000
21
-22.500000
31
0.0
0
LINE
8
0
6
CONTINUOUS
10
7.893000
20
-22.500000
30
0.0
11
6.091000
21
-22.500000
31
0.0
0
LINE
8
0
6
CONTINUOUS
10
-2.042000
20
-22.500000
30
0.0
11
0.000000
21
-22.500000
31
0.0
0
LINE
8
0
6
CONTINUOUS
10
0.000000
20
-22.000000
30
0.0
11
-2.120000
21
-22.000000
31
0.0
0
LINE
8
0
6
CONTINUOUS
10
2.120000
20
-22.000000
30
0.0
11
0.000000
21
-22.000000
31
0.0
0
LINE
8
0
6
CONTINUOUS
10
0.000000
20
-22.500000
30
0.0
11
2.042000
21
-22.500000
31
0.0
0
LINE
8
0
6
CONTINUOUS
10
-4.122000
20
-22.500000
30
0.0
11
-6.091000
21
-22.500000
31
0.0
0
LINE
8
0
6
CONTINUOUS
10
-2.042000
20
-22.500000
30
0.0
11
-4.122000
21
-22.500000
31
0.0
0
LINE
8
0
6
CONTINUOUS
10
0.000000
20
-22.500000
30
0.0
11
-2.042000
21
-22.500000
31
0.0
0
LINE
8
0
6
CONTINUOUS
10
-4.281000
20
-22.000000
30
0.0
11
-6.326000
21
-22.000000
31
0.0
0
LINE
8
0
6
CONTINUOUS
10
-6.091000
20
-22.500000
30
0.0
11
-4.122000
21
-22.500000
31
0.0
0
LINE
8
0
6
CONTINUOUS
10
-2.120000
20
-22.000000
30
0.0
11
-4.281000
21
-22.000000
31
0.0
0
LINE
8
0
6
CONTINUOUS
10
-4.122000
20
-22.500000
30
0.0
11
-2.042000
21
-22.500000
31
0.0
0
LINE
8
0
6
CONTINUOUS
10
4.281000
20
-22.000000
30
0.0
11
2.120000
21
-22.000000
31
0.0
0
LINE
8
0
6
CONTINUOUS
10
2.042000
20
-22.500000
30
0.0
11
4.122000
21
-22.500000
31
0.0
0
LINE
8
0
6
CONTINUOUS
10
6.326000
20
-22.000000
30
0.0
11
4.281000
21
-22.000000
31
0.0
0
LINE
8
0
6
CONTINUOUS
10
4.122000
20
-22.500000
30
0.0
11
6.091000
21
-22.500000
31
0.0
0
LINE
8
0
6
CONTINUOUS
10
2.042000
20
-22.500000
30
0.0
11
0.000000
21
-22.500000
31
0.0
0
LINE
8
0
6
CONTINUOUS
10
4.122000
20
-22.500000
30
0.0
11
2.042000
21
-22.500000
31
0.0
0
LINE
8
0
6
CONTINUOUS
10
6.091000
20
-22.500000
30
0.0
11
4.122000
21
-22.500000
31
0.0
0
LINE
8
0
6
CONTINUOUS
10
-11.224000
20
-22.000000
30
0.0
11
-9.844000
21
-22.000000
31
0.0
0
LINE
8
0
6
CONTINUOUS
10
-12.297000
20
-22.000000
30
0.0
11
-11.224000
21
-22.000000
31
0.0
0
LINE
8
0
6
CONTINUOUS
10
-2.120000
20
-22.000000
30
0.0
11
0.000000
21
-22.000000
31
0.0
0
LINE
8
0
6
CONTINUOUS
10
-4.281000
20
-22.000000
30
0.0
11
-2.120000
21
-22.000000
31
0.0
0
LINE
8
0
6
CONTINUOUS
10
-6.326000
20
-22.000000
30
0.0
11
-4.281000
21
-22.000000
31
0.0
0
LINE
8
0
6
CONTINUOUS
10
-8.197000
20
-22.000000
30
0.0
11
-6.326000
21
-22.000000
31
0.0
0
LINE
8
0
6
CONTINUOUS
10
-9.844000
20
-22.000000
30
0.0
11
-8.197000
21
-22.000000
31
0.0
0
LINE
8
0
6
CONTINUOUS
10
-13.035000
20
-22.000000
30
0.0
11
-12.297000
21
-22.000000
31
0.0
0
LINE
8
0
6
CONTINUOUS
10
-13.417000
20
-22.000000
30
0.0
11
-13.035000
21
-22.000000
31
0.0
0
LINE
8
0
6
CONTINUOUS
10
13.035000
20
-22.000000
30
0.0
11
13.417000
21
-22.000000
31
0.0
0
LINE
8
0
6
CONTINUOUS
10
12.297000
20
-22.000000
30
0.0
11
13.035000
21
-22.000000
31
0.0
0
LINE
8
0
6
CONTINUOUS
10
8.197000
20
-22.000000
30
0.0
11
9.844000
21
-22.000000
31
0.0
0
LINE
8
0
6
CONTINUOUS
10
6.326000
20
-22.000000
30
0.0
11
8.197000
21
-22.000000
31
0.0
0
LINE
8
0
6
CONTINUOUS
10
4.281000
20
-22.000000
30
0.0
11
6.326000
21
-22.000000
31
0.0
0
LINE
8
0
6
CONTINUOUS
10
2.120000
20
-22.000000
30
0.0
11
4.281000
21
-22.000000
31
0.0
0
LINE
8
0
6
CONTINUOUS
10
0.000000
20
-22.000000
30
0.0
11
2.120000
21
-22.000000
31
0.0
0
LINE
8
0
6
CONTINUOUS
10
11.224000
20
-22.000000
30
0.0
11
12.297000
21
-22.000000
31
0.0
0
LINE
8
0
6
CONTINUOUS
10
9.844000
20
-22.000000
30
0.0
11
11.224000
21
-22.000000
31
0.0
0
LINE
8
0
6
CONTINUOUS
10
39.378000
20
93.500000
30
0.0
11
39.264000
21
93.500000
31
0.0
0
LINE
8
0
6
CONTINUOUS
10
39.565000
20
93.500000
30
0.0
11
39.378000
21
93.500000
31
0.0
0
LINE
8
0
6
CONTINUOUS
10
39.106000
20
93.500000
30
0.0
11
38.834000
21
93.500000
31
0.0
0
LINE
8
0
6
CONTINUOUS
10
38.834000
20
93.500000
30
0.0
11
38.654000
21
93.500000
31
0.0
0
LINE
8
0
6
CONTINUOUS
10
39.264000
20
93.500000
30
0.0
11
39.106000
21
93.500000
31
0.0
0
LINE
8
0
6
CONTINUOUS
10
39.030000
20
78.785000
30
0.0
11
38.728000
21
78.333000
31
0.0
0
LINE
8
0
6
CONTINUOUS
10
38.787000
20
78.323000
30
0.0
11
39.030000
21
78.785000
31
0.0
0
LINE
8
0
6
CONTINUOUS
10
38.728000
20
78.333000
30
0.0
11
38.787000
21
78.323000
31
0.0
0
LINE
8
0
6
CONTINUOUS
10
-39.263000
20
79.550000
30
0.0
11
-39.297000
21
80.064000
31
0.0
0
LINE
8
0
6
CONTINUOUS
10
-40.000000
20
93.500000
30
0.0
11
-39.263000
21
79.550000
31
0.0
0
LINE
8
0
6
CONTINUOUS
10
-39.297000
20
80.064000
30
0.0
11
-40.000000
21
93.500000
31
0.0
0
LINE
8
0
6
CONTINUOUS
10
-40.000000
20
93.500000
30
0.0
11
-39.297000
21
80.064000
31
0.0
0
LINE
8
0
6
CONTINUOUS
10
39.298000
20
80.064000
30
0.0
11
40.000000
21
93.500000
31
0.0
0
LINE
8
0
6
CONTINUOUS
10
39.298000
20
80.064000
30
0.0
11
39.263000
21
79.550000
31
0.0
0
LINE
8
0
6
CONTINUOUS
10
40.000000
20
93.500000
30
0.0
11
39.298000
21
80.064000
31
0.0
0
LINE
8
0
6
CONTINUOUS
10
39.263000
20
79.550000
30
0.0
11
40.000000
21
93.500000
31
0.0
0
LINE
8
0
6
CONTINUOUS
10
25.352000
20
77.318000
30
0.0
11
13.671000
21
77.018000
31
0.0
0
LINE
8
0
6
CONTINUOUS
10
39.269000
20
79.649000
30
0.0
11
39.263000
21
79.550000
31
0.0
0
LINE
8
0
6
CONTINUOUS
10
39.298000
20
80.064000
30
0.0
11
39.269000
21
79.649000
31
0.0
0
LINE
8
0
6
CONTINUOUS
10
39.263000
20
79.550000
30
0.0
11
39.298000
21
80.064000
31
0.0
0
LINE
8
0
6
CONTINUOUS
10
39.269000
20
79.649000
30
0.0
11
39.263000
21
79.550000
31
0.0
0
LINE
8
0
6
CONTINUOUS
10
39.298000
20
80.064000
30
0.0
11
39.269000
21
79.649000
31
0.0
0
LINE
8
0
6
CONTINUOUS
10
39.263000
20
79.550000
30
0.0
11
39.298000
21
80.064000
31
0.0
0
LINE
8
0
6
CONTINUOUS
10
39.269000
20
79.649000
30
0.0
11
39.263000
21
79.550000
31
0.0
0
LINE
8
0
6
CONTINUOUS
10
39.298000
20
80.064000
30
0.0
11
39.269000
21
79.649000
31
0.0
0
LINE
8
0
6
CONTINUOUS
10
39.263000
20
79.550000
30
0.0
11
39.298000
21
80.064000
31
0.0
0
LINE
8
0
6
CONTINUOUS
10
39.269000
20
79.649000
30
0.0
11
39.263000
21
79.550000
31
0.0
0
LINE
8
0
6
CONTINUOUS
10
39.298000
20
80.064000
30
0.0
11
39.269000
21
79.649000
31
0.0
0
LINE
8
0
6
CONTINUOUS
10
39.263000
20
79.550000
30
0.0
11
39.298000
21
80.064000
31
0.0
0
LINE
8
0
6
CONTINUOUS
10
39.298000
20
80.064000
30
0.0
11
40.000000
21
93.500000
31
0.0
0
LINE
8
0
6
CONTINUOUS
10
39.298000
20
80.064000
30
0.0
11
39.263000
21
79.550000
31
0.0
0
LINE
8
0
6
CONTINUOUS
10
40.000000
20
93.500000
30
0.0
11
39.298000
21
80.064000
31
0.0
0
LINE
8
0
6
CONTINUOUS
10
39.263000
20
79.550000
30
0.0
11
40.000000
21
93.500000
31
0.0
0
LINE
8
0
6
CONTINUOUS
10
40.000000
20
93.500000
30
0.0
11
39.263000
21
79.550000
31
0.0
0
LINE
8
0
6
CONTINUOUS
10
39.191000
20
79.101000
30
0.0
11
39.035000
21
78.669000
31
0.0
0
LINE
8
0
6
CONTINUOUS
10
39.035000
20
78.669000
30
0.0
11
38.997000
21
78.617000
31
0.0
0
LINE
8
0
6
CONTINUOUS
10
38.997000
20
78.617000
30
0.0
11
38.787000
21
78.323000
31
0.0
0
LINE
8
0
6
CONTINUOUS
10
38.787000
20
78.323000
30
0.0
11
38.497000
21
78.107000
31
0.0
0
LINE
8
0
6
CONTINUOUS
10
38.497000
20
78.107000
30
0.0
11
38.445000
21
78.069000
31
0.0
0
LINE
8
0
6
CONTINUOUS
10
38.445000
20
78.069000
30
0.0
11
38.019000
21
77.909000
31
0.0
0
LINE
8
0
6
CONTINUOUS
10
37.560000
20
77.833000
30
0.0
11
37.484000
21
77.828000
31
0.0
0
LINE
8
0
6
CONTINUOUS
10
37.484000
20
77.828000
30
0.0
11
37.032000
21
77.799000
31
0.0
0
LINE
8
0
6
CONTINUOUS
10
39.263000
20
79.550000
30
0.0
11
39.191000
21
79.101000
31
0.0
0
LINE
8
0
6
CONTINUOUS
10
38.019000
20
77.909000
30
0.0
11
37.560000
21
77.833000
31
0.0
0
LINE
8
0
6
CONTINUOUS
10
37.032000
20
77.799000
30
0.0
11
25.352000
21
77.318000
31
0.0
0
LINE
8
0
6
CONTINUOUS
10
19.505000
20
77.807000
30
0.0
11
26.003000
21
77.805000
31
0.0
0
LINE
8
0
6
CONTINUOUS
10
13.426000
20
-22.000000
30
0.0
11
12.929000
21
-22.500000
31
0.0
0
LINE
8
0
6
CONTINUOUS
10
13.426000
20
77.016706
30
0.0
11
13.426000
21
-22.000000
31
0.0
0
LINE
8
0
6
CONTINUOUS
10
39.263000
20
79.550000
30
0.0
11
39.298000
21
80.064000
31
0.0
0
LINE
8
0
6
CONTINUOUS
10
40.000000
20
93.500000
30
0.0
11
39.263000
21
79.550000
31
0.0
0
LINE
8
0
6
CONTINUOUS
10
39.298000
20
80.064000
30
0.0
11
40.000000
21
93.500000
31
0.0
0
LINE
8
0
6
CONTINUOUS
10
40.000000
20
93.500000
30
0.0
11
39.298000
21
80.064000
31
0.0
0
LINE
8
0
6
CONTINUOUS
10
-13.426000
20
-22.000000
30
0.0
11
-13.426000
21
77.016706
31
0.0
0
LINE
8
0
6
CONTINUOUS
10
-39.263000
20
79.550000
30
0.0
11
-39.269000
21
79.649000
31
0.0
0
LINE
8
0
6
CONTINUOUS
10
-39.297000
20
80.064000
30
0.0
11
-39.263000
21
79.550000
31
0.0
0
LINE
8
0
6
CONTINUOUS
10
-39.269000
20
79.649000
30
0.0
11
-39.297000
21
80.064000
31
0.0
0
LINE
8
0
6
CONTINUOUS
10
-39.263000
20
79.550000
30
0.0
11
-39.269000
21
79.649000
31
0.0
0
LINE
8
0
6
CONTINUOUS
10
-39.297000
20
80.064000
30
0.0
11
-39.263000
21
79.550000
31
0.0
0
LINE
8
0
6
CONTINUOUS
10
-39.269000
20
79.649000
30
0.0
11
-39.297000
21
80.064000
31
0.0
0
LINE
8
0
6
CONTINUOUS
10
-39.297000
20
80.064000
30
0.0
11
-40.000000
21
93.500000
31
0.0
0
LINE
8
0
6
CONTINUOUS
10
-39.297000
20
80.064000
30
0.0
11
-39.263000
21
79.550000
31
0.0
0
LINE
8
0
6
CONTINUOUS
10
-40.000000
20
93.500000
30
0.0
11
-39.297000
21
80.064000
31
0.0
0
LINE
8
0
6
CONTINUOUS
10
-39.263000
20
79.550000
30
0.0
11
-40.000000
21
93.500000
31
0.0
0
LINE
8
0
6
CONTINUOUS
10
-37.560000
20
77.833000
30
0.0
11
-38.019000
21
77.909000
31
0.0
0
LINE
8
0
6
CONTINUOUS
10
-39.191000
20
79.101000
30
0.0
11
-39.263000
21
79.550000
31
0.0
0
LINE
8
0
6
CONTINUOUS
10
-39.263000
20
79.550000
30
0.0
11
-39.269000
21
79.649000
31
0.0
0
LINE
8
0
6
CONTINUOUS
10
-39.297000
20
80.064000
30
0.0
11
-39.263000
21
79.550000
31
0.0
0
LINE
8
0
6
CONTINUOUS
10
-39.269000
20
79.649000
30
0.0
11
-39.297000
21
80.064000
31
0.0
0
LINE
8
0
6
CONTINUOUS
10
-39.263000
20
79.550000
30
0.0
11
-39.269000
21
79.649000
31
0.0
0
LINE
8
0
6
CONTINUOUS
10
-39.297000
20
80.064000
30
0.0
11
-39.263000
21
79.550000
31
0.0
0
LINE
8
0
6
CONTINUOUS
10
-39.269000
20
79.649000
30
0.0
11
-39.297000
21
80.064000
31
0.0
0
LINE
8
0
6
CONTINUOUS
10
-39.263000
20
79.550000
30
0.0
11
-39.297000
21
80.064000
31
0.0
0
LINE
8
0
6
CONTINUOUS
10
-40.000000
20
93.500000
30
0.0
11
-39.263000
21
79.550000
31
0.0
0
LINE
8
0
6
CONTINUOUS
10
-39.297000
20
80.064000
30
0.0
11
-40.000000
21
93.500000
31
0.0
0
LINE
8
0
6
CONTINUOUS
10
-39.263000
20
79.550000
30
0.0
11
-40.000000
21
93.500000
31
0.0
0
LINE
8
0
6
CONTINUOUS
10
-25.352000
20
77.318000
30
0.0
11
-37.032000
21
77.799000
31
0.0
0
LINE
8
0
6
CONTINUOUS
10
-12.929000
20
-22.500000
30
0.0
11
-13.426000
21
-22.000000
31
0.0
0
LINE
8
0
6
CONTINUOUS
10
-37.032000
20
77.799000
30
0.0
11
-37.484000
21
77.828000
31
0.0
0
LINE
8
0
6
CONTINUOUS
10
-37.484000
20
77.828000
30
0.0
11
-37.560000
21
77.833000
31
0.0
0
LINE
8
0
6
CONTINUOUS
10
-38.019000
20
77.909000
30
0.0
11
-38.445000
21
78.069000
31
0.0
0
LINE
8
0
6
CONTINUOUS
10
-38.445000
20
78.069000
30
0.0
11
-38.497000
21
78.107000
31
0.0
0
LINE
8
0
6
CONTINUOUS
10
-38.497000
20
78.107000
30
0.0
11
-38.787000
21
78.323000
31
0.0
0
LINE
8
0
6
CONTINUOUS
10
-38.787000
20
78.323000
30
0.0
11
-38.998000
21
78.617000
31
0.0
0
LINE
8
0
6
CONTINUOUS
10
-38.998000
20
78.617000
30
0.0
11
-39.035000
21
78.669000
31
0.0
0
LINE
8
0
6
CONTINUOUS
10
-39.035000
20
78.669000
30
0.0
11
-39.191000
21
79.101000
31
0.0
0
LINE
8
0
6
CONTINUOUS
10
-40.000000
20
93.500000
30
0.0
11
-39.297000
21
80.064000
31
0.0
0
LINE
8
0
6
CONTINUOUS
10
0.000000
20
-93.500000
30
0.0
11
3.672000
21
-93.500000
31
0.0
0
LINE
8
0
6
CONTINUOUS
10
3.672000
20
-93.500000
30
0.0
11
7.114000
21
-93.500000
31
0.0
0
LINE
8
0
6
CONTINUOUS
10
12.449000
20
-93.500000
30
0.0
11
13.826000
21
-93.500000
31
0.0
0
LINE
8
0
6
CONTINUOUS
10
14.343000
20
-93.500000
30
0.0
11
14.343000
21
-91.500000
31
0.0
0
LINE
8
0
6
CONTINUOUS
10
13.826000
20
-93.500000
30
0.0
11
14.343000
21
-93.500000
31
0.0
0
LINE
8
0
6
CONTINUOUS
10
3.672000
20
-93.500000
30
0.0
11
0.000000
21
-93.500000
31
0.0
0
LINE
8
0
6
CONTINUOUS
10
7.114000
20
-93.500000
30
0.0
11
3.672000
21
-93.500000
31
0.0
0
LINE
8
0
6
CONTINUOUS
10
13.826000
20
-93.500000
30
0.0
11
12.449000
21
-93.500000
31
0.0
0
LINE
8
0
6
CONTINUOUS
10
14.343000
20
-93.500000
30
0.0
11
13.826000
21
-93.500000
31
0.0
0
LINE
8
0
6
CONTINUOUS
10
-3.672000
20
-93.500000
30
0.0
11
0.000000
21
-93.500000
31
0.0
0
LINE
8
0
6
CONTINUOUS
10
-7.114000
20
-93.500000
30
0.0
11
-3.672000
21
-93.500000
31
0.0
0
LINE
8
0
6
CONTINUOUS
10
-13.826000
20
-93.500000
30
0.0
11
-12.449000
21
-93.500000
31
0.0
0
LINE
8
0
6
CONTINUOUS
10
-14.343000
20
-91.500000
30
0.0
11
-14.343000
21
-93.500000
31
0.0
0
LINE
8
0
6
CONTINUOUS
10
-14.343000
20
-93.500000
30
0.0
11
-13.826000
21
-93.500000
31
0.0
0
LINE
8
0
6
CONTINUOUS
10
0.000000
20
-93.500000
30
0.0
11
-3.672000
21
-93.500000
31
0.0
0
LINE
8
0
6
CONTINUOUS
10
-3.672000
20
-93.500000
30
0.0
11
-7.114000
21
-93.500000
31
0.0
0
LINE
8
0
6
CONTINUOUS
10
-12.449000
20
-93.500000
30
0.0
11
-13.826000
21
-93.500000
31
0.0
0
LINE
8
0
6
CONTINUOUS
10
-13.826000
20
-93.500000
30
0.0
11
-14.343000
21
-93.500000
31
0.0
0
LINE
8
0
6
CONTINUOUS
10
128.367000
20
-72.833300
30
0.0
11
138.406000
21
-73.500000
31
0.0
0
LINE
8
0
6
CONTINUOUS
10
138.406000
20
-73.500000
30
0.0
11
154.183000
21
-74.833300
31
0.0
0
LINE
8
0
6
CONTINUOUS
10
154.183000
20
-74.833300
30
0.0
11
165.657000
21
-76.166700
31
0.0
0
LINE
8
0
6
CONTINUOUS
10
165.657000
20
-76.166700
30
0.0
11
174.263000
21
-77.500000
31
0.0
0
LINE
8
0
6
CONTINUOUS
10
93.198000
20
-71.500000
30
0.0
11
92.797000
21
-71.500000
31
0.0
0
LINE
8
0
6
CONTINUOUS
10
92.797000
20
-71.500000
30
0.0
11
92.378000
21
-71.500000
31
0.0
0
LINE
8
0
6
CONTINUOUS
10
92.378000
20
-71.500000
30
0.0
11
91.936000
21
-71.500000
31
0.0
0
LINE
8
0
6
CONTINUOUS
10
91.936000
20
-71.500000
30
0.0
11
0.000000
21
-71.500000
31
0.0
0
LINE
8
0
6
CONTINUOUS
10
93.514000
20
-71.500000
30
0.0
11
93.198000
21
-71.500000
31
0.0
0
LINE
8
0
6
CONTINUOUS
10
93.743000
20
-71.500000
30
0.0
11
93.514000
21
-71.500000
31
0.0
0
LINE
8
0
6
CONTINUOUS
10
93.893000
20
-71.500000
30
0.0
11
93.743000
21
-71.500000
31
0.0
0
LINE
8
0
6
CONTINUOUS
10
93.944000
20
-71.500000
30
0.0
11
93.893000
21
-71.500000
31
0.0
0
LINE
8
0
6
CONTINUOUS
10
93.944000
20
-71.500000
30
0.0
11
115.458000
21
-72.166700
31
0.0
0
LINE
8
0
6
CONTINUOUS
10
115.458000
20
-72.166700
30
0.0
11
128.367000
21
-72.833300
31
0.0
0
LINE
8
0
6
CONTINUOUS
10
174.263000
20
-79.500000
30
0.0
11
176.271000
21
-79.500000
31
0.0
0
LINE
8
0
6
CONTINUOUS
10
172.169000
20
-79.500000
30
0.0
11
174.263000
21
-79.500000
31
0.0
0
LINE
8
0
6
CONTINUOUS
10
169.960000
20
-79.500000
30
0.0
11
172.169000
21
-79.500000
31
0.0
0
LINE
8
0
6
CONTINUOUS
10
0.000000
20
-79.500000
30
0.0
11
169.960000
21
-79.500000
31
0.0
0
LINE
8
0
6
CONTINUOUS
10
176.271000
20
-79.500000
30
0.0
11
177.849000
21
-79.500000
31
0.0
0
LINE
8
0
6
CONTINUOUS
10
177.849000
20
-79.500000
30
0.0
11
178.996000
21
-79.500000
31
0.0
0
LINE
8
0
6
CONTINUOUS
10
178.996000
20
-79.500000
30
0.0
11
179.742000
21
-79.500000
31
0.0
0
LINE
8
0
6
CONTINUOUS
10
179.742000
20
-79.500000
30
0.0
11
180.000000
21
-79.500000
31
0.0
0
LINE
8
0
6
CONTINUOUS
10
179.283000
20
-78.833300
30
0.0
11
180.000000
21
-79.500000
31
0.0
0
LINE
8
0
6
CONTINUOUS
10
176.271000
20
-79.500000
30
0.0
11
174.263000
21
-79.500000
31
0.0
0
LINE
8
0
6
CONTINUOUS
10
174.263000
20
-90.833330
30
0.0
11
176.271000
21
-90.833330
31
0.0
0
LINE
8
0
6
CONTINUOUS
10
174.263000
20
-79.500000
30
0.0
11
172.169000
21
-79.500000
31
0.0
0
LINE
8
0
6
CONTINUOUS
10
172.169000
20
-90.833330
30
0.0
11
174.263000
21
-90.833330
31
0.0
0
LINE
8
0
6
CONTINUOUS
10
172.169000
20
-79.500000
30
0.0
11
169.960000
21
-79.500000
31
0.0
0
LINE
8
0
6
CONTINUOUS
10
169.960000
20
-90.833330
30
0.0
11
172.169000
21
-90.833330
31
0.0
0
LINE
8
0
6
CONTINUOUS
10
169.960000
20
-79.500000
30
0.0
11
0.000000
21
-79.500000
31
0.0
0
LINE
8
0
6
CONTINUOUS
10
0.000000
20
-90.833330
30
0.0
11
169.960000
21
-90.833330
31
0.0
0
LINE
8
0
6
CONTINUOUS
10
176.271000
20
-90.833330
30
0.0
11
177.849000
21
-90.833330
31
0.0
0
LINE
8
0
6
CONTINUOUS
10
177.849000
20
-79.500000
30
0.0
11
176.271000
21
-79.500000
31
0.0
0
LINE
8
0
6
CONTINUOUS
10
177.849000
20
-90.833330
30
0.0
11
178.996000
21
-90.833330
31
0.0
0
LINE
8
0
6
CONTINUOUS
10
178.996000
20
-79.500000
30
0.0
11
177.849000
21
-79.500000
31
0.0
0
LINE
8
0
6
CONTINUOUS
10
178.996000
20
-90.833330
30
0.0
11
179.742000
21
-90.833330
31
0.0
0
LINE
8
0
6
CONTINUOUS
10
179.742000
20
-79.500000
30
0.0
11
178.996000
21
-79.500000
31
0.0
0
LINE
8
0
6
CONTINUOUS
10
179.742000
20
-90.833330
30
0.0
11
180.000000
21
-90.833330
31
0.0
0
LINE
8
0
6
CONTINUOUS
10
180.000000
20
-79.500000
30
0.0
11
179.742000
21
-79.500000
31
0.0
0
LINE
8
0
6
CONTINUOUS
10
180.000000
20
-79.500000
30
0.0
11
180.000000
21
-90.833330
31
0.0
0
LINE
8
0
6
CONTINUOUS
10
176.271000
20
-90.833330
30
0.0
11
174.263000
21
-90.833330
31
0.0
0
LINE
8
0
6
CONTINUOUS
10
174.263000
20
-90.833330
30
0.0
11
172.169000
21
-90.833330
31
0.0
0
LINE
8
0
6
CONTINUOUS
10
172.169000
20
-90.833330
30
0.0
11
169.960000
21
-90.833330
31
0.0
0
LINE
8
0
6
CONTINUOUS
10
169.960000
20
-90.833330
30
0.0
11
0.000000
21
-90.833330
31
0.0
0
LINE
8
0
6
CONTINUOUS
10
177.849000
20
-90.833330
30
0.0
11
176.271000
21
-90.833330
31
0.0
0
LINE
8
0
6
CONTINUOUS
10
178.996000
20
-90.833330
30
0.0
11
177.849000
21
-90.833330
31
0.0
0
LINE
8
0
6
CONTINUOUS
10
179.742000
20
-90.833330
30
0.0
11
178.996000
21
-90.833330
31
0.0
0
LINE
8
0
6
CONTINUOUS
10
180.000000
20
-90.833330
30
0.0
11
179.742000
21
-90.833330
31
0.0
0
LINE
8
0
6
CONTINUOUS
10
180.000000
20
-90.833330
30
0.0
11
178.566000
21
-91.500000
31
0.0
0
LINE
8
0
6
CONTINUOUS
10
174.887000
20
-91.500000
30
0.0
11
172.905000
21
-91.500000
31
0.0
0
LINE
8
0
6
CONTINUOUS
10
172.905000
20
-91.500000
30
0.0
11
170.839000
21
-91.500000
31
0.0
0
LINE
8
0
6
CONTINUOUS
10
170.839000
20
-91.500000
30
0.0
11
168.659000
21
-91.500000
31
0.0
0
LINE
8
0
6
CONTINUOUS
10
168.659000
20
-91.500000
30
0.0
11
0.000000
21
-91.500000
31
0.0
0
LINE
8
0
6
CONTINUOUS
10
176.443000
20
-91.500000
30
0.0
11
174.887000
21
-91.500000
31
0.0
0
LINE
8
0
6
CONTINUOUS
10
177.575000
20
-91.500000
30
0.0
11
176.443000
21
-91.500000
31
0.0
0
LINE
8
0
6
CONTINUOUS
10
178.310000
20
-91.500000
30
0.0
11
177.575000
21
-91.500000
31
0.0
0
LINE
8
0
6
CONTINUOUS
10
178.566000
20
-91.500000
30
0.0
11
178.310000
21
-91.500000
31
0.0
0
LINE
8
0
6
CONTINUOUS
10
174.263000
20
-77.500000
30
0.0
11
179.283000
21
-78.833300
31
0.0
0
LINE
8
0
6
CONTINUOUS
10
-92.796800
20
-71.500000
30
0.0
11
-93.198400
21
-71.500000
31
0.0
0
LINE
8
0
6
CONTINUOUS
10
-92.378000
20
-71.500000
30
0.0
11
-92.796800
21
-71.500000
31
0.0
0
LINE
8
0
6
CONTINUOUS
10
-91.936300
20
-71.500000
30
0.0
11
-92.378000
21
-71.500000
31
0.0
0
LINE
8
0
6
CONTINUOUS
10
0.000000
20
-71.500000
30
0.0
11
-91.936300
21
-71.500000
31
0.0
0
LINE
8
0
6
CONTINUOUS
10
-93.198400
20
-71.500000
30
0.0
11
-93.513900
21
-71.500000
31
0.0
0
LINE
8
0
6
CONTINUOUS
10
-93.513900
20
-71.500000
30
0.0
11
-93.743400
21
-71.500000
31
0.0
0
LINE
8
0
6
CONTINUOUS
10
-93.743400
20
-71.500000
30
0.0
11
-93.892600
21
-71.500000
31
0.0
0
LINE
8
0
6
CONTINUOUS
10
-93.892600
20
-71.500000
30
0.0
11
-93.944200
21
-71.500000
31
0.0
0
LINE
8
0
6
CONTINUOUS
10
-115.458200
20
-72.166700
30
0.0
11
-93.944200
21
-71.500000
31
0.0
0
LINE
8
0
6
CONTINUOUS
10
-128.366500
20
-72.833300
30
0.0
11
-115.458200
21
-72.166700
31
0.0
0
LINE
8
0
6
CONTINUOUS
10
-138.406400
20
-73.500000
30
0.0
11
-128.366500
21
-72.833300
31
0.0
0
LINE
8
0
6
CONTINUOUS
10
-154.183300
20
-74.833300
30
0.0
11
-138.406400
21
-73.500000
31
0.0
0
LINE
8
0
6
CONTINUOUS
10
-165.657400
20
-76.166700
30
0.0
11
-154.183300
21
-74.833300
31
0.0
0
LINE
8
0
6
CONTINUOUS
10
-174.262950
20
-77.500000
30
0.0
11
-165.657400
21
-76.166700
31
0.0
0
LINE
8
0
6
CONTINUOUS
10
-179.282869
20
-78.833300
30
0.0
11
-174.262950
21
-77.500000
31
0.0
0
LINE
8
0
6
CONTINUOUS
10
-176.270920
20
-90.833330
30
0.0
11
-174.262950
21
-90.833330
31
0.0
0
LINE
8
0
6
CONTINUOUS
10
-174.262950
20
-79.500000
30
0.0
11
-176.270920
21
-79.500000
31
0.0
0
LINE
8
0
6
CONTINUOUS
10
-174.262950
20
-90.833330
30
0.0
11
-172.168920
21
-90.833330
31
0.0
0
LINE
8
0
6
CONTINUOUS
10
-172.168920
20
-79.500000
30
0.0
11
-174.262950
21
-79.500000
31
0.0
0
LINE
8
0
6
CONTINUOUS
10
-172.168920
20
-90.833330
30
0.0
11
-169.960200
21
-90.833330
31
0.0
0
LINE
8
0
6
CONTINUOUS
10
-169.960200
20
-79.500000
30
0.0
11
-172.168920
21
-79.500000
31
0.0
0
LINE
8
0
6
CONTINUOUS
10
-169.960200
20
-90.833330
30
0.0
11
0.000000
21
-90.833330
31
0.0
0
LINE
8
0
6
CONTINUOUS
10
0.000000
20
-79.500000
30
0.0
11
-169.960200
21
-79.500000
31
0.0
0
LINE
8
0
6
CONTINUOUS
10
-176.270920
20
-79.500000
30
0.0
11
-177.848610
21
-79.500000
31
0.0
0
LINE
8
0
6
CONTINUOUS
10
-177.848610
20
-90.833330
30
0.0
11
-176.270920
21
-90.833330
31
0.0
0
LINE
8
0
6
CONTINUOUS
10
-177.848610
20
-79.500000
30
0.0
11
-178.996020
21
-79.500000
31
0.0
0
LINE
8
0
6
CONTINUOUS
10
-178.996020
20
-90.833330
30
0.0
11
-177.848610
21
-90.833330
31
0.0
0
LINE
8
0
6
CONTINUOUS
10
-178.996020
20
-79.500000
30
0.0
11
-179.741833
21
-79.500000
31
0.0
0
LINE
8
0
6
CONTINUOUS
10
-179.741833
20
-90.833330
30
0.0
11
-178.996020
21
-90.833330
31
0.0
0
LINE
8
0
6
CONTINUOUS
10
-179.741833
20
-79.500000
30
0.0
11
-180.000000
21
-79.500000
31
0.0
0
LINE
8
0
6
CONTINUOUS
10
-180.000000
20
-90.833330
30
0.0
11
-179.741833
21
-90.833330
31
0.0
0
LINE
8
0
6
CONTINUOUS
10
-180.000000
20
-90.833330
30
0.0
11
-180.000000
21
-79.500000
31
0.0
0
LINE
8
0
6
CONTINUOUS
10
-176.270920
20
-79.500000
30
0.0
11
-174.262950
21
-79.500000
31
0.0
0
LINE
8
0
6
CONTINUOUS
10
-174.262950
20
-79.500000
30
0.0
11
-172.168920
21
-79.500000
31
0.0
0
LINE
8
0
6
CONTINUOUS
10
-172.168920
20
-79.500000
30
0.0
11
-169.960200
21
-79.500000
31
0.0
0
LINE
8
0
6
CONTINUOUS
10
-169.960200
20
-79.500000
30
0.0
11
0.000000
21
-79.500000
31
0.0
0
LINE
8
0
6
CONTINUOUS
10
-177.848610
20
-79.500000
30
0.0
11
-176.270920
21
-79.500000
31
0.0
0
LINE
8
0
6
CONTINUOUS
10
-178.996020
20
-79.500000
30
0.0
11
-177.848610
21
-79.500000
31
0.0
0
LINE
8
0
6
CONTINUOUS
10
-179.741833
20
-79.500000
30
0.0
11
-178.996020
21
-79.500000
31
0.0
0
LINE
8
0
6
CONTINUOUS
10
-180.000000
20
-79.500000
30
0.0
11
-179.741833
21
-79.500000
31
0.0
0
LINE
8
0
6
CONTINUOUS
10
-180.000000
20
-79.500000
30
0.0
11
-179.282869
21
-78.833300
31
0.0
0
LINE
8
0
6
CONTINUOUS
10
-174.886380
20
-91.500000
30
0.0
11
-172.905180
21
-91.500000
31
0.0
0
LINE
8
0
6
CONTINUOUS
10
-174.262950
20
-90.833330
30
0.0
11
-176.270920
21
-90.833330
31
0.0
0
LINE
8
0
6
CONTINUOUS
10
-172.905180
20
-91.500000
30
0.0
11
-170.839080
21
-91.500000
31
0.0
0
LINE
8
0
6
CONTINUOUS
10
-172.168920
20
-90.833330
30
0.0
11
-174.262950
21
-90.833330
31
0.0
0
LINE
8
0
6
CONTINUOUS
10
-170.839080
20
-91.500000
30
0.0
11
-168.659800
21
-91.500000
31
0.0
0
LINE
8
0
6
CONTINUOUS
10
-169.960200
20
-90.833330
30
0.0
11
-172.168920
21
-90.833330
31
0.0
0
LINE
8
0
6
CONTINUOUS
10
-168.659800
20
-91.500000
30
0.0
11
0.000000
21
-91.500000
31
0.0
0
LINE
8
0
6
CONTINUOUS
10
0.000000
20
-90.833330
30
0.0
11
-169.960200
21
-90.833330
31
0.0
0
LINE
8
0
6
CONTINUOUS
10
-176.270920
20
-90.833330
30
0.0
11
-177.848610
21
-90.833330
31
0.0
0
LINE
8
0
6
CONTINUOUS
10
-176.443030
20
-91.500000
30
0.0
11
-174.886380
21
-91.500000
31
0.0
0
LINE
8
0
6
CONTINUOUS
10
-177.848610
20
-90.833330
30
0.0
11
-178.996020
21
-90.833330
31
0.0
0
LINE
8
0
6
CONTINUOUS
10
-177.575130
20
-91.500000
30
0.0
11
-176.443030
21
-91.500000
31
0.0
0
LINE
8
0
6
CONTINUOUS
10
-178.996020
20
-90.833330
30
0.0
11
-179.741833
21
-90.833330
31
0.0
0
LINE
8
0
6
CONTINUOUS
10
-178.311010
20
-91.500000
30
0.0
11
-177.575130
21
-91.500000
31
0.0
0
LINE
8
0
6
CONTINUOUS
10
-179.741833
20
-90.833330
30
0.0
11
-180.000000
21
-90.833330
31
0.0
0
LINE
8
0
6
CONTINUOUS
10
-178.565740
20
-91.500000
30
0.0
11
-178.311010
21
-91.500000
31
0.0
0
LINE
8
0
6
CONTINUOUS
10
-178.565740
20
-91.500000
30
0.0
11
-180.000000
21
-90.833330
31
0.0
0
LINE
8
0
6
CONTINUOUS
10
-8.600000
20
-34.500000
30
0.0
11
-10.550000
21
-34.500000
31
0.0
0
LINE
8
0
6
CONTINUOUS
10
-6.050000
20
-34.500000
30
0.0
11
-8.600000
21
-34.500000
31
0.0
0
LINE
8
0
6
CONTINUOUS
10
-3.150000
20
-34.500000
30
0.0
11
-6.050000
21
-34.500000
31
0.0
0
LINE
8
0
6
CONTINUOUS
10
0.000000
20
-34.500000
30
0.0
11
-3.150000
21
-34.500000
31
0.0
0
LINE
8
0
6
CONTINUOUS
10
-12.200000
20
-34.500000
30
0.0
11
-11.750000
21
-34.500000
31
0.0
0
LINE
8
0
6
CONTINUOUS
10
-11.750000
20
-34.500000
30
0.0
11
-10.550000
21
-34.500000
31
0.0
0
LINE
8
0
6
CONTINUOUS
10
-10.550000
20
-34.500000
30
0.0
11
-8.600000
21
-34.500000
31
0.0
0
LINE
8
0
6
CONTINUOUS
10
-8.600000
20
-34.500000
30
0.0
11
-6.050000
21
-34.500000
31
0.0
0
LINE
8
0
6
CONTINUOUS
10
-6.050000
20
-34.500000
30
0.0
11
-3.150000
21
-34.500000
31
0.0
0
LINE
8
0
6
CONTINUOUS
10
-3.150000
20
-34.500000
30
0.0
11
0.000000
21
-34.500000
31
0.0
0
LINE
8
0
6
CONTINUOUS
10
12.200000
20
-34.500000
30
0.0
11
11.750000
21
-34.500000
31
0.0
0
LINE
8
0
6
CONTINUOUS
10
11.750000
20
-34.500000
30
0.0
11
10.550000
21
-34.500000
31
0.0
0
LINE
8
0
6
CONTINUOUS
10
10.550000
20
-34.500000
30
0.0
11
8.600000
21
-34.500000
31
0.0
0
LINE
8
0
6
CONTINUOUS
10
8.600000
20
-34.500000
30
0.0
11
6.050000
21
-34.500000
31
0.0
0
LINE
8
0
6
CONTINUOUS
10
3.150000
20
-34.500000
30
0.0
11
0.000000
21
-34.500000
31
0.0
0
LINE
8
0
6
CONTINUOUS
10
11.750000
20
-34.500000
30
0.0
11
12.200000
21
-34.500000
31
0.0
0
LINE
8
0
6
CONTINUOUS
10
10.550000
20
-34.500000
30
0.0
11
11.750000
21
-34.500000
31
0.0
0
LINE
8
0
6
CONTINUOUS
10
8.600000
20
-34.500000
30
0.0
11
10.550000
21
-34.500000
31
0.0
0
LINE
8
0
6
CONTINUOUS
10
6.050000
20
-34.500000
30
0.0
11
8.600000
21
-34.500000
31
0.0
0
LINE
8
0
6
CONTINUOUS
10
3.150000
20
-34.500000
30
0.0
11
6.050000
21
-34.500000
31
0.0
0
LINE
8
0
6
CONTINUOUS
10
0.000000
20
-34.500000
30
0.0
11
3.150000
21
-34.500000
31
0.0
0
LINE
8
0
6
CONTINUOUS
10
-12.200000
20
-34.500000
30
0.0
11
-12.500000
21
-33.884600
31
0.0
0
LINE
8
0
6
CONTINUOUS
10
-12.500000
20
-33.884600
30
0.0
11
-12.500000
21
-22.500000
31
0.0
0
LINE
8
0
6
CONTINUOUS
10
12.500000
20
-33.884600
30
0.0
11
12.200000
21
-34.500000
31
0.0
0
LINE
8
0
6
CONTINUOUS
10
12.500000
20
-22.500000
30
0.0
11
12.500000
21
-33.884600
31
0.0
0
LINE
8
0
6
CONTINUOUS
10
-8.834000
20
-34.500000
30
0.0
11
-10.133000
21
-35.421600
31
0.0
0
LINE
8
0
6
CONTINUOUS
10
-10.133000
20
-35.421600
30
0.0
11
-12.430000
21
-38.213700
31
0.0
0
LINE
8
0
6
CONTINUOUS
10
-13.000000
20
-39.500000
30
0.0
11
-12.829000
21
-39.500000
31
0.0
0
LINE
8
0
6
CONTINUOUS
10
-12.430000
20
-38.213700
30
0.0
11
-13.000000
21
-39.500000
31
0.0
0
LINE
8
0
6
CONTINUOUS
10
-12.829000
20
-39.500000
30
0.0
11
-11.744000
21
-39.500000
31
0.0
0
LINE
8
0
6
CONTINUOUS
10
-9.289000
20
-36.205900
30
0.0
11
-8.106000
21
-37.303900
31
0.0
0
LINE
8
0
6
CONTINUOUS
10
-8.106000
20
-37.303900
30
0.0
11
-6.927000
21
-34.500000
31
0.0
0
LINE
8
0
6
CONTINUOUS
10
-6.927000
20
-34.500000
30
0.0
11
-9.289000
21
-36.205900
31
0.0
0
LINE
8
0
6
CONTINUOUS
10
-11.416000
20
-38.747100
30
0.0
11
-9.990000
21
-39.500000
31
0.0
0
LINE
8
0
6
CONTINUOUS
10
-9.990000
20
-39.500000
30
0.0
11
-9.289000
21
-36.205900
31
0.0
0
LINE
8
0
6
CONTINUOUS
10
-9.289000
20
-36.205900
30
0.0
11
-11.416000
21
-38.747100
31
0.0
0
LINE
8
0
6
CONTINUOUS
10
-9.990000
20
-39.500000
30
0.0
11
-9.905000
21
-39.500000
31
0.0
0
LINE
8
0
6
CONTINUOUS
10
-11.744000
20
-39.500000
30
0.0
11
-9.990000
21
-39.500000
31
0.0
0
LINE
8
0
6
CONTINUOUS
10
-2.939000
20
-34.543100
30
0.0
11
-2.331000
21
-36.676500
31
0.0
0
LINE
8
0
6
CONTINUOUS
10
-2.331000
20
-36.676500
30
0.0
11
-2.602000
21
-34.500000
31
0.0
0
LINE
8
0
6
CONTINUOUS
10
-2.602000
20
-34.500000
30
0.0
11
-2.939000
21
-34.543100
31
0.0
0
LINE
8
0
6
CONTINUOUS
10
-9.905000
20
-39.500000
30
0.0
11
-6.986000
21
-39.500000
31
0.0
0
LINE
8
0
6
CONTINUOUS
10
-4.526000
20
-37.492200
30
0.0
11
-3.273000
21
-39.500000
31
0.0
0
LINE
8
0
6
CONTINUOUS
10
-3.273000
20
-39.500000
30
0.0
11
-2.331000
21
-36.676500
31
0.0
0
LINE
8
0
6
CONTINUOUS
10
-2.331000
20
-36.676500
30
0.0
11
-4.526000
21
-37.492200
31
0.0
0
LINE
8
0
6
CONTINUOUS
10
-3.273000
20
-39.500000
30
0.0
11
-2.753000
21
-39.500000
31
0.0
0
LINE
8
0
6
CONTINUOUS
10
-5.742000
20
-39.500000
30
0.0
11
-3.273000
21
-39.500000
31
0.0
0
LINE
8
0
6
CONTINUOUS
10
-6.986000
20
-39.500000
30
0.0
11
-5.742000
21
-39.500000
31
0.0
0
LINE
8
0
6
CONTINUOUS
10
-1.539000
20
-39.500000
30
0.0
11
0.000000
21
-39.500000
31
0.0
0
LINE
8
0
6
CONTINUOUS
10
-2.753000
20
-39.500000
30
0.0
11
-1.539000
21
-39.500000
31
0.0
0
LINE
8
0
6
CONTINUOUS
10
10.133000
20
-35.421600
30
0.0
11
8.834000
21
-34.500000
31
0.0
0
LINE
8
0
6
CONTINUOUS
10
12.430000
20
-38.213700
30
0.0
11
10.133000
21
-35.421600
31
0.0
0
LINE
8
0
6
CONTINUOUS
10
12.829000
20
-39.500000
30
0.0
11
13.000000
21
-39.500000
31
0.0
0
LINE
8
0
6
CONTINUOUS
10
13.000000
20
-39.500000
30
0.0
11
12.430000
21
-38.213700
31
0.0
0
LINE
8
0
6
CONTINUOUS
10
11.744000
20
-39.500000
30
0.0
11
12.829000
21
-39.500000
31
0.0
0
LINE
8
0
6
CONTINUOUS
10
8.106000
20
-37.303900
30
0.0
11
9.289000
21
-36.205900
31
0.0
0
LINE
8
0
6
CONTINUOUS
10
6.927000
20
-34.500000
30
0.0
11
8.106000
21
-37.303900
31
0.0
0
LINE
8
0
6
CONTINUOUS
10
9.289000
20
-36.205900
30
0.0
11
6.927000
21
-34.500000
31
0.0
0
LINE
8
0
6
CONTINUOUS
10
9.990000
20
-39.500000
30
0.0
11
11.417000
21
-38.747100
31
0.0
0
LINE
8
0
6
CONTINUOUS
10
9.289000
20
-36.205900
30
0.0
11
9.990000
21
-39.500000
31
0.0
0
LINE
8
0
6
CONTINUOUS
10
11.417000
20
-38.747100
30
0.0
11
9.289000
21
-36.205900
31
0.0
0
LINE
8
0
6
CONTINUOUS
10
9.905000
20
-39.500000
30
0.0
11
9.990000
21
-39.500000
31
0.0
0
LINE
8
0
6
CONTINUOUS
10
9.990000
20
-39.500000
30
0.0
11
11.744000
21
-39.500000
31
0.0
0
LINE
8
0
6
CONTINUOUS
10
2.331000
20
-36.676500
30
0.0
11
2.939000
21
-34.543100
31
0.0
0
LINE
8
0
6
CONTINUOUS
10
2.602000
20
-34.500000
30
0.0
11
2.331000
21
-36.676500
31
0.0
0
LINE
8
0
6
CONTINUOUS
10
2.939000
20
-34.543100
30
0.0
11
2.602000
21
-34.500000
31
0.0
0
LINE
8
0
6
CONTINUOUS
10
6.986000
20
-39.500000
30
0.0
11
9.905000
21
-39.500000
31
0.0
0
LINE
8
0
6
CONTINUOUS
10
3.273000
20
-39.500000
30
0.0
11
4.526000
21
-37.492200
31
0.0
0
LINE
8
0
6
CONTINUOUS
10
2.331000
20
-36.676500
30
0.0
11
3.273000
21
-39.500000
31
0.0
0
LINE
8
0
6
CONTINUOUS
10
4.526000
20
-37.492200
30
0.0
11
2.331000
21
-36.676500
31
0.0
0
LINE
8
0
6
CONTINUOUS
10
2.753000
20
-39.500000
30
0.0
11
3.273000
21
-39.500000
31
0.0
0
LINE
8
0
6
CONTINUOUS
10
3.273000
20
-39.500000
30
0.0
11
5.742000
21
-39.500000
31
0.0
0
LINE
8
0
6
CONTINUOUS
10
5.742000
20
-39.500000
30
0.0
11
6.986000
21
-39.500000
31
0.0
0
LINE
8
0
6
CONTINUOUS
10
0.000000
20
-39.500000
30
0.0
11
1.539000
21
-39.500000
31
0.0
0
LINE
8
0
6
CONTINUOUS
10
1.539000
20
-39.500000
30
0.0
11
2.753000
21
-39.500000
31
0.0
0
LINE
8
0
6
CONTINUOUS
10
-14.152000
20
-39.500000
30
0.0
11
-13.630000
21
-39.500000
31
0.0
0
LINE
8
0
6
CONTINUOUS
10
-13.630000
20
-39.500000
30
0.0
11
-12.238000
21
-39.500000
31
0.0
0
LINE
8
0
6
CONTINUOUS
10
-12.238000
20
-39.500000
30
0.0
11
-9.976000
21
-39.500000
31
0.0
0
LINE
8
0
6
CONTINUOUS
10
-9.976000
20
-39.500000
30
0.0
11
-7.018000
21
-39.500000
31
0.0
0
LINE
8
0
6
CONTINUOUS
10
-7.018000
20
-39.500000
30
0.0
11
-3.654000
21
-39.500000
31
0.0
0
LINE
8
0
6
CONTINUOUS
10
-3.654000
20
-39.500000
30
0.0
11
0.000000
21
-39.500000
31
0.0
0
LINE
8
0
6
CONTINUOUS
10
-14.500000
20
-39.927300
30
0.0
11
-13.978000
21
-39.927300
31
0.0
0
LINE
8
0
6
CONTINUOUS
10
-13.630000
20
-39.500000
30
0.0
11
-14.152000
21
-39.500000
31
0.0
0
LINE
8
0
6
CONTINUOUS
10
-13.978000
20
-39.927300
30
0.0
11
-12.586000
21
-39.927300
31
0.0
0
LINE
8
0
6
CONTINUOUS
10
-12.238000
20
-39.500000
30
0.0
11
-13.630000
21
-39.500000
31
0.0
0
LINE
8
0
6
CONTINUOUS
10
-12.586000
20
-39.927300
30
0.0
11
-10.266000
21
-39.927300
31
0.0
0
LINE
8
0
6
CONTINUOUS
10
-9.976000
20
-39.500000
30
0.0
11
-12.238000
21
-39.500000
31
0.0
0
LINE
8
0
6
CONTINUOUS
10
-10.266000
20
-39.927300
30
0.0
11
-7.192000
21
-39.927300
31
0.0
0
LINE
8
0
6
CONTINUOUS
10
-7.018000
20
-39.500000
30
0.0
11
-9.976000
21
-39.500000
31
0.0
0
LINE
8
0
6
CONTINUOUS
10
-7.192000
20
-39.927300
30
0.0
11
-3.712000
21
-39.927300
31
0.0
0
LINE
8
0
6
CONTINUOUS
10
-3.654000
20
-39.500000
30
0.0
11
-7.018000
21
-39.500000
31
0.0
0
LINE
8
0
6
CONTINUOUS
10
-3.712000
20
-39.927300
30
0.0
11
0.000000
21
-39.927300
31
0.0
0
LINE
8
0
6
CONTINUOUS
10
0.000000
20
-39.500000
30
0.0
11
-3.654000
21
-39.500000
31
0.0
0
LINE
8
0
6
CONTINUOUS
10
13.630000
20
-39.500000
30
0.0
11
14.152000
21
-39.500000
31
0.0
0
LINE
8
0
6
CONTINUOUS
10
12.238000
20
-39.500000
30
0.0
11
13.630000
21
-39.500000
31
0.0
0
LINE
8
0
6
CONTINUOUS
10
9.976000
20
-39.500000
30
0.0
11
12.238000
21
-39.500000
31
0.0
0
LINE
8
0
6
CONTINUOUS
10
7.018000
20
-39.500000
30
0.0
11
9.976000
21
-39.500000
31
0.0
0
LINE
8
0
6
CONTINUOUS
10
3.654000
20
-39.500000
30
0.0
11
7.018000
21
-39.500000
31
0.0
0
LINE
8
0
6
CONTINUOUS
10
0.000000
20
-39.500000
30
0.0
11
3.654000
21
-39.500000
31
0.0
0
LINE
8
0
6
CONTINUOUS
10
14.152000
20
-39.500000
30
0.0
11
13.630000
21
-39.500000
31
0.0
0
LINE
8
0
6
CONTINUOUS
10
13.978000
20
-39.927300
30
0.0
11
14.500000
21
-39.927300
31
0.0
0
LINE
8
0
6
CONTINUOUS
10
13.630000
20
-39.500000
30
0.0
11
12.238000
21
-39.500000
31
0.0
0
LINE
8
0
6
CONTINUOUS
10
12.586000
20
-39.927300
30
0.0
11
13.978000
21
-39.927300
31
0.0
0
LINE
8
0
6
CONTINUOUS
10
12.238000
20
-39.500000
30
0.0
11
9.976000
21
-39.500000
31
0.0
0
LINE
8
0
6
CONTINUOUS
10
10.266000
20
-39.927300
30
0.0
11
12.586000
21
-39.927300
31
0.0
0
LINE
8
0
6
CONTINUOUS
10
9.976000
20
-39.500000
30
0.0
11
7.018000
21
-39.500000
31
0.0
0
LINE
8
0
6
CONTINUOUS
10
7.192000
20
-39.927300
30
0.0
11
10.266000
21
-39.927300
31
0.0
0
LINE
8
0
6
CONTINUOUS
10
7.018000
20
-39.500000
30
0.0
11
3.654000
21
-39.500000
31
0.0
0
LINE
8
0
6
CONTINUOUS
10
3.712000
20
-39.927300
30
0.0
11
7.192000
21
-39.927300
31
0.0
0
LINE
8
0
6
CONTINUOUS
10
3.654000
20
-39.500000
30
0.0
11
0.000000
21
-39.500000
31
0.0
0
LINE
8
0
6
CONTINUOUS
10
0.000000
20
-39.927300
30
0.0
11
3.712000
21
-39.927300
31
0.0
0
LINE
8
0
6
CONTINUOUS
10
-14.500000
20
-61.500000
30
0.0
11
-13.978000
21
-61.500000
31
0.0
0
LINE
8
0
6
CONTINUOUS
10
-13.978000
20
-39.927300
30
0.0
11
-14.500000
21
-39.927300
31
0.0
0
LINE
8
0
6
CONTINUOUS
10
-13.978000
20
-61.500000
30
0.0
11
-12.586000
21
-61.500000
31
0.0
0
LINE
8
0
6
CONTINUOUS
10
-12.586000
20
-39.927300
30
0.0
11
-13.978000
21
-39.927300
31
0.0
0
LINE
8
0
6
CONTINUOUS
10
-12.586000
20
-61.500000
30
0.0
11
-10.266000
21
-61.500000
31
0.0
0
LINE
8
0
6
CONTINUOUS
10
-10.266000
20
-39.927300
30
0.0
11
-12.586000
21
-39.927300
31
0.0
0
LINE
8
0
6
CONTINUOUS
10
-10.266000
20
-61.500000
30
0.0
11
-7.192000
21
-61.500000
31
0.0
0
LINE
8
0
6
CONTINUOUS
10
-7.192000
20
-39.927300
30
0.0
11
-10.266000
21
-39.927300
31
0.0
0
LINE
8
0
6
CONTINUOUS
10
-7.192000
20
-61.500000
30
0.0
11
-3.712000
21
-61.500000
31
0.0
0
LINE
8
0
6
CONTINUOUS
10
-3.712000
20
-61.500000
30
0.0
11
0.000000
21
-61.500000
31
0.0
0
LINE
8
0
6
CONTINUOUS
10
0.000000
20
-39.927300
30
0.0
11
-3.712000
21
-39.927300
31
0.0
0
LINE
8
0
6
CONTINUOUS
10
13.978000
20
-61.500000
30
0.0
11
14.500000
21
-61.500000
31
0.0
0
LINE
8
0
6
CONTINUOUS
10
12.586000
20
-61.500000
30
0.0
11
13.978000
21
-61.500000
31
0.0
0
LINE
8
0
6
CONTINUOUS
10
10.266000
20
-61.500000
30
0.0
11
12.586000
21
-61.500000
31
0.0
0
LINE
8
0
6
CONTINUOUS
10
12.586000
20
-39.927300
30
0.0
11
10.266000
21
-39.927300
31
0.0
0
LINE
8
0
6
CONTINUOUS
10
7.192000
20
-61.500000
30
0.0
11
10.266000
21
-61.500000
31
0.0
0
LINE
8
0
6
CONTINUOUS
10
10.266000
20
-39.927300
30
0.0
11
7.192000
21
-39.927300
31
0.0
0
LINE
8
0
6
CONTINUOUS
10
3.712000
20
-61.500000
30
0.0
11
7.192000
21
-61.500000
31
0.0
0
LINE
8
0
6
CONTINUOUS
10
7.192000
20
-39.927300
30
0.0
11
3.712000
21
-39.927300
31
0.0
0
LINE
8
0
6
CONTINUOUS
10
0.000000
20
-61.500000
30
0.0
11
3.712000
21
-61.500000
31
0.0
0
LINE
8
0
6
CONTINUOUS
10
3.712000
20
-39.927300
30
0.0
11
0.000000
21
-39.927300
31
0.0
0
LINE
8
0
6
CONTINUOUS
10
-14.500000
20
-61.500000
30
0.0
11
-14.500000
21
-39.927300
31
0.0
0
LINE
8
0
6
CONTINUOUS
10
14.500000
20
-39.927300
30
0.0
11
14.500000
21
-61.500000
31
0.0
0
LINE
8
0
6
CONTINUOUS
10
-13.630000
20
-39.500000
30
0.0
11
-14.152000
21
-39.500000
31
0.0
0
LINE
8
0
6
CONTINUOUS
10
-14.152000
20
-39.500000
30
0.0
11
-13.630000
21
-39.500000
31
0.0
0
LINE
8
0
6
CONTINUOUS
10
-14.500000
20
-39.927300
30
0.0
11
-14.152000
21
-39.500000
31
0.0
0
LINE
8
0
6
CONTINUOUS
10
14.152000
20
-39.500000
30
0.0
11
13.630000
21
-39.500000
31
0.0
0
LINE
8
0
6
CONTINUOUS
10
14.152000
20
-39.500000
30
0.0
11
14.500000
21
-39.927300
31
0.0
0
LINE
8
0
6
CONTINUOUS
10
13.630000
20
-39.500000
30
0.0
11
14.152000
21
-39.500000
31
0.0
0
LINE
8
0
6
CONTINUOUS
10
-14.640000
20
-61.500000
30
0.0
11
-14.100000
21
-61.500000
31
0.0
0
LINE
8
0
6
CONTINUOUS
10
-14.100000
20
-61.500000
30
0.0
11
-12.660000
21
-61.500000
31
0.0
0
LINE
8
0
6
CONTINUOUS
10
-12.660000
20
-61.500000
30
0.0
11
-10.320000
21
-61.500000
31
0.0
0
LINE
8
0
6
CONTINUOUS
10
-10.320000
20
-61.500000
30
0.0
11
-7.260000
21
-61.500000
31
0.0
0
LINE
8
0
6
CONTINUOUS
10
-7.260000
20
-61.500000
30
0.0
11
-3.780000
21
-61.500000
31
0.0
0
LINE
8
0
6
CONTINUOUS
10
-3.780000
20
-61.500000
30
0.0
11
0.000000
21
-61.500000
31
0.0
0
LINE
8
0
6
CONTINUOUS
10
-15.000000
20
-61.927300
30
0.0
11
-14.460000
21
-61.927300
31
0.0
0
LINE
8
0
6
CONTINUOUS
10
-14.100000
20
-61.500000
30
0.0
11
-14.640000
21
-61.500000
31
0.0
0
LINE
8
0
6
CONTINUOUS
10
-14.460000
20
-61.927300
30
0.0
11
-13.020000
21
-61.927300
31
0.0
0
LINE
8
0
6
CONTINUOUS
10
-12.660000
20
-61.500000
30
0.0
11
-14.100000
21
-61.500000
31
0.0
0
LINE
8
0
6
CONTINUOUS
10
-13.020000
20
-61.927300
30
0.0
11
-10.620000
21
-61.927300
31
0.0
0
LINE
8
0
6
CONTINUOUS
10
-10.320000
20
-61.500000
30
0.0
11
-12.660000
21
-61.500000
31
0.0
0
LINE
8
0
6
CONTINUOUS
10
-10.620000
20
-61.927300
30
0.0
11
-7.440000
21
-61.927300
31
0.0
0
LINE
8
0
6
CONTINUOUS
10
-7.260000
20
-61.500000
30
0.0
11
-10.320000
21
-61.500000
31
0.0
0
LINE
8
0
6
CONTINUOUS
10
-7.440000
20
-61.927300
30
0.0
11
-3.840000
21
-61.927300
31
0.0
0
LINE
8
0
6
CONTINUOUS
10
-3.780000
20
-61.500000
30
0.0
11
-7.260000
21
-61.500000
31
0.0
0
LINE
8
0
6
CONTINUOUS
10
-3.840000
20
-61.927300
30
0.0
11
0.000000
21
-61.927300
31
0.0
0
LINE
8
0
6
CONTINUOUS
10
0.000000
20
-61.500000
30
0.0
11
-3.780000
21
-61.500000
31
0.0
0
LINE
8
0
6
CONTINUOUS
10
14.100000
20
-61.500000
30
0.0
11
14.640000
21
-61.500000
31
0.0
0
LINE
8
0
6
CONTINUOUS
10
12.660000
20
-61.500000
30
0.0
11
14.100000
21
-61.500000
31
0.0
0
LINE
8
0
6
CONTINUOUS
10
10.320000
20
-61.500000
30
0.0
11
12.660000
21
-61.500000
31
0.0
0
LINE
8
0
6
CONTINUOUS
10
7.260000
20
-61.500000
30
0.0
11
10.320000
21
-61.500000
31
0.0
0
LINE
8
0
6
CONTINUOUS
10
3.780000
20
-61.500000
30
0.0
11
7.260000
21
-61.500000
31
0.0
0
LINE
8
0
6
CONTINUOUS
10
0.000000
20
-61.500000
30
0.0
11
3.780000
21
-61.500000
31
0.0
0
LINE
8
0
6
CONTINUOUS
10
14.640000
20
-61.500000
30
0.0
11
14.100000
21
-61.500000
31
0.0
0
LINE
8
0
6
CONTINUOUS
10
14.460000
20
-61.927300
30
0.0
11
15.000000
21
-61.927300
31
0.0
0
LINE
8
0
6
CONTINUOUS
10
14.100000
20
-61.500000
30
0.0
11
12.660000
21
-61.500000
31
0.0
0
LINE
8
0
6
CONTINUOUS
10
13.020000
20
-61.927300
30
0.0
11
14.460000
21
-61.927300
31
0.0
0
LINE
8
0
6
CONTINUOUS
10
12.660000
20
-61.500000
30
0.0
11
10.320000
21
-61.500000
31
0.0
0
LINE
8
0
6
CONTINUOUS
10
10.620000
20
-61.927300
30
0.0
11
13.020000
21
-61.927300
31
0.0
0
LINE
8
0
6
CONTINUOUS
10
10.320000
20
-61.500000
30
0.0
11
7.260000
21
-61.500000
31
0.0
0
LINE
8
0
6
CONTINUOUS
10
7.440000
20
-61.927300
30
0.0
11
10.620000
21
-61.927300
31
0.0
0
LINE
8
0
6
CONTINUOUS
10
7.260000
20
-61.500000
30
0.0
11
3.780000
21
-61.500000
31
0.0
0
LINE
8
0
6
CONTINUOUS
10
3.840000
20
-61.927300
30
0.0
11
7.440000
21
-61.927300
31
0.0
0
LINE
8
0
6
CONTINUOUS
10
3.780000
20
-61.500000
30
0.0
11
0.000000
21
-61.500000
31
0.0
0
LINE
8
0
6
CONTINUOUS
10
0.000000
20
-61.927300
30
0.0
11
3.840000
21
-61.927300
31
0.0
0
LINE
8
0
6
CONTINUOUS
10
-15.000000
20
-71.500000
30
0.0
11
-14.460000
21
-71.500000
31
0.0
0
LINE
8
0
6
CONTINUOUS
10
-14.460000
20
-61.927300
30
0.0
11
-15.000000
21
-61.927300
31
0.0
0
LINE
8
0
6
CONTINUOUS
10
-14.460000
20
-71.500000
30
0.0
11
-13.020000
21
-71.500000
31
0.0
0
LINE
8
0
6
CONTINUOUS
10
-13.020000
20
-61.927300
30
0.0
11
-14.460000
21
-61.927300
31
0.0
0
LINE
8
0
6
CONTINUOUS
10
-13.020000
20
-71.500000
30
0.0
11
-10.620000
21
-71.500000
31
0.0
0
LINE
8
0
6
CONTINUOUS
10
-10.620000
20
-61.927300
30
0.0
11
-13.020000
21
-61.927300
31
0.0
0
LINE
8
0
6
CONTINUOUS
10
-10.620000
20
-71.500000
30
0.0
11
-7.440000
21
-71.500000
31
0.0
0
LINE
8
0
6
CONTINUOUS
10
-7.440000
20
-61.927300
30
0.0
11
-10.620000
21
-61.927300
31
0.0
0
LINE
8
0
6
CONTINUOUS
10
-7.440000
20
-71.500000
30
0.0
11
-3.840000
21
-71.500000
31
0.0
0
LINE
8
0
6
CONTINUOUS
10
-3.840000
20
-71.500000
30
0.0
11
0.000000
21
-71.500000
31
0.0
0
LINE
8
0
6
CONTINUOUS
10
0.000000
20
-61.927300
30
0.0
11
-3.840000
21
-61.927300
31
0.0
0
LINE
8
0
6
CONTINUOUS
10
14.460000
20
-71.500000
30
0.0
11
15.000000
21
-71.500000
31
0.0
0
LINE
8
0
6
CONTINUOUS
10
13.020000
20
-71.500000
30
0.0
11
14.460000
21
-71.500000
31
0.0
0
LINE
8
0
6
CONTINUOUS
10
10.620000
20
-71.500000
30
0.0
11
13.020000
21
-71.500000
31
0.0
0
LINE
8
0
6
CONTINUOUS
10
7.440000
20
-71.500000
30
0.0
11
10.620000
21
-71.500000
31
0.0
0
LINE
8
0
6
CONTINUOUS
10
10.620000
20
-61.927300
30
0.0
11
7.440000
21
-61.927300
31
0.0
0
LINE
8
0
6
CONTINUOUS
10
3.840000
20
-71.500000
30
0.0
11
7.440000
21
-71.500000
31
0.0
0
LINE
8
0
6
CONTINUOUS
10
7.440000
20
-61.927300
30
0.0
11
3.840000
21
-61.927300
31
0.0
0
LINE
8
0
6
CONTINUOUS
10
0.000000
20
-71.500000
30
0.0
11
3.840000
21
-71.500000
31
0.0
0
LINE
8
0
6
CONTINUOUS
10
3.840000
20
-61.927300
30
0.0
11
0.000000
21
-61.927300
31
0.0
0
LINE
8
0
6
CONTINUOUS
10
-15.000000
20
-71.500000
30
0.0
11
-15.000000
21
-61.927300
31
0.0
0
LINE
8
0
6
CONTINUOUS
10
15.000000
20
-61.927300
30
0.0
11
15.000000
21
-71.500000
31
0.0
0
LINE
8
0
6
CONTINUOUS
10
-14.500000
20
-61.500000
30
0.0
11
-14.640000
21
-61.500000
31
0.0
0
LINE
8
0
6
CONTINUOUS
10
-14.640000
20
-61.500000
30
0.0
11
-14.500000
21
-61.500000
31
0.0
0
LINE
8
0
6
CONTINUOUS
10
-15.000000
20
-61.927300
30
0.0
11
-14.640000
21
-61.500000
31
0.0
0
LINE
8
0
6
CONTINUOUS
10
14.640000
20
-61.500000
30
0.0
11
14.500000
21
-61.500000
31
0.0
0
LINE
8
0
6
CONTINUOUS
10
14.640000
20
-61.500000
30
0.0
11
15.000000
21
-61.927300
31
0.0
0
LINE
8
0
6
CONTINUOUS
10
14.500000
20
-61.500000
30
0.0
11
14.640000
21
-61.500000
31
0.0
0
ENDSEC
0
EOF
