999
Erzeugt mit innoplus bad 
0
SECTION
2
HEADER
9
$ACADVER
1
AC1009
9
$DWGCODEPAGE
3
ISO8859-1
0
ENDSEC
0
SECTION
2
TABLES
0
TABLE
2
LAYER
70
1
0
LAYER
2
0
70
0
62
7
6
CONTINUOUS
0
ENDTAB
0
ENDSEC
0
SECTION
2
ENTITIES
0
LINE
8
0
6
CONTINUOUS
10
-40.000000
20
0.000000
30
0.0
11
-38.560000
21
10.240000
31
0.0
0
LINE
8
0
6
CONTINUOUS
10
-38.560000
20
10.240000
30
0.0
11
-34.720000
21
19.840000
31
0.0
0
LINE
8
0
6
CONTINUOUS
10
-34.720000
20
19.840000
30
0.0
11
-28.320000
21
28.320000
31
0.0
0
LINE
8
0
6
CONTINUOUS
10
-28.320000
20
28.320000
30
0.0
11
-19.840000
21
34.720000
31
0.0
0
LINE
8
0
6
CONTINUOUS
10
-19.840000
20
34.720000
30
0.0
11
-10.240000
21
38.560000
31
0.0
0
LINE
8
0
6
CONTINUOUS
10
-10.240000
20
38.560000
30
0.0
11
-0.000000
21
40.000000
31
0.0
0
LINE
8
0
6
CONTINUOUS
10
-38.560000
20
10.240000
30
0.0
11
-40.000000
21
0.000000
31
0.0
0
LINE
8
0
6
CONTINUOUS
10
-34.720000
20
19.840000
30
0.0
11
-38.560000
21
10.240000
31
0.0
0
LINE
8
0
6
CONTINUOUS
10
-28.320000
20
28.320000
30
0.0
11
-34.720000
21
19.840000
31
0.0
0
LINE
8
0
6
CONTINUOUS
10
-19.840000
20
34.720000
30
0.0
11
-28.320000
21
28.320000
31
0.0
0
LINE
8
0
6
CONTINUOUS
10
-10.240000
20
38.560000
30
0.0
11
-19.840000
21
34.720000
31
0.0
0
LINE
8
0
6
CONTINUOUS
10
-0.000000
20
40.000000
30
0.0
11
-10.240000
21
38.560000
31
0.0
0
LINE
8
0
6
CONTINUOUS
10
-38.560000
20
-10.240000
30
0.0
11
-40.000000
21
0.000000
31
0.0
0
LINE
8
0
6
CONTINUOUS
10
-34.720000
20
-19.840000
30
0.0
11
-38.560000
21
-10.240000
31
0.0
0
LINE
8
0
6
CONTINUOUS
10
-28.320000
20
-28.320000
30
0.0
11
-34.720000
21
-19.840000
31
0.0
0
LINE
8
0
6
CONTINUOUS
10
-19.840000
20
-34.720000
30
0.0
11
-28.320000
21
-28.320000
31
0.0
0
LINE
8
0
6
CONTINUOUS
10
-10.240000
20
-38.560000
30
0.0
11
-19.840000
21
-34.720000
31
0.0
0
LINE
8
0
6
CONTINUOUS
10
-0.000000
20
-40.000000
30
0.0
11
-10.240000
21
-38.560000
31
0.0
0
LINE
8
0
6
CONTINUOUS
10
-40.000000
20
0.000000
30
0.0
11
-38.560000
21
-10.240000
31
0.0
0
LINE
8
0
6
CONTINUOUS
10
-38.560000
20
-10.240000
30
0.0
11
-34.720000
21
-19.840000
31
0.0
0
LINE
8
0
6
CONTINUOUS
10
-34.720000
20
-19.840000
30
0.0
11
-28.320000
21
-28.320000
31
0.0
0
LINE
8
0
6
CONTINUOUS
10
-28.320000
20
-28.320000
30
0.0
11
-19.840000
21
-34.720000
31
0.0
0
LINE
8
0
6
CONTINUOUS
10
-19.840000
20
-34.720000
30
0.0
11
-10.240000
21
-38.560000
31
0.0
0
LINE
8
0
6
CONTINUOUS
10
-10.240000
20
-38.560000
30
0.0
11
-0.000000
21
-40.000000
31
0.0
0
LINE
8
0
6
CONTINUOUS
10
40.000000
20
0.000000
30
0.0
11
38.560000
21
-10.240000
31
0.0
0
LINE
8
0
6
CONTINUOUS
10
38.560000
20
-10.240000
30
0.0
11
34.720000
21
-19.840000
31
0.0
0
LINE
8
0
6
CONTINUOUS
10
34.720000
20
-19.840000
30
0.0
11
28.320000
21
-28.320000
31
0.0
0
LINE
8
0
6
CONTINUOUS
10
28.320000
20
-28.320000
30
0.0
11
19.840000
21
-34.720000
31
0.0
0
LINE
8
0
6
CONTINUOUS
10
19.840000
20
-34.720000
30
0.0
11
10.240000
21
-38.560000
31
0.0
0
LINE
8
0
6
CONTINUOUS
10
10.240000
20
-38.560000
30
0.0
11
-0.000000
21
-40.000000
31
0.0
0
LINE
8
0
6
CONTINUOUS
10
38.560000
20
-10.240000
30
0.0
11
40.000000
21
0.000000
31
0.0
0
LINE
8
0
6
CONTINUOUS
10
34.720000
20
-19.840000
30
0.0
11
38.560000
21
-10.240000
31
0.0
0
LINE
8
0
6
CONTINUOUS
10
28.320000
20
-28.320000
30
0.0
11
34.720000
21
-19.840000
31
0.0
0
LINE
8
0
6
CONTINUOUS
10
19.840000
20
-34.720000
30
0.0
11
28.320000
21
-28.320000
31
0.0
0
LINE
8
0
6
CONTINUOUS
10
10.240000
20
-38.560000
30
0.0
11
19.840000
21
-34.720000
31
0.0
0
LINE
8
0
6
CONTINUOUS
10
-0.000000
20
-40.000000
30
0.0
11
10.240000
21
-38.560000
31
0.0
0
LINE
8
0
6
CONTINUOUS
10
38.560000
20
10.240000
30
0.0
11
40.000000
21
0.000000
31
0.0
0
LINE
8
0
6
CONTINUOUS
10
34.720000
20
19.840000
30
0.0
11
38.560000
21
10.240000
31
0.0
0
LINE
8
0
6
CONTINUOUS
10
28.320000
20
28.320000
30
0.0
11
34.720000
21
19.840000
31
0.0
0
LINE
8
0
6
CONTINUOUS
10
19.840000
20
34.720000
30
0.0
11
28.320000
21
28.320000
31
0.0
0
LINE
8
0
6
CONTINUOUS
10
10.240000
20
38.560000
30
0.0
11
19.840000
21
34.720000
31
0.0
0
LINE
8
0
6
CONTINUOUS
10
-0.000000
20
40.000000
30
0.0
11
10.240000
21
38.560000
31
0.0
0
LINE
8
0
6
CONTINUOUS
10
40.000000
20
0.000000
30
0.0
11
38.560000
21
10.240000
31
0.0
0
LINE
8
0
6
CONTINUOUS
10
38.560000
20
10.240000
30
0.0
11
34.720000
21
19.840000
31
0.0
0
LINE
8
0
6
CONTINUOUS
10
34.720000
20
19.840000
30
0.0
11
28.320000
21
28.320000
31
0.0
0
LINE
8
0
6
CONTINUOUS
10
28.320000
20
28.320000
30
0.0
11
19.840000
21
34.720000
31
0.0
0
LINE
8
0
6
CONTINUOUS
10
19.840000
20
34.720000
30
0.0
11
10.240000
21
38.560000
31
0.0
0
LINE
8
0
6
CONTINUOUS
10
10.240000
20
38.560000
30
0.0
11
-0.000000
21
40.000000
31
0.0
0
LINE
8
0
6
CONTINUOUS
10
183.954000
20
118.954000
30
0.0
11
186.776000
21
115.212000
31
0.0
0
LINE
8
0
6
CONTINUOUS
10
186.776000
20
115.212000
30
0.0
11
188.955000
21
111.148000
31
0.0
0
LINE
8
0
6
CONTINUOUS
10
188.955000
20
111.148000
30
0.0
11
190.262000
21
105.921000
31
0.0
0
LINE
8
0
6
CONTINUOUS
10
190.262000
20
105.921000
30
0.0
11
191.279000
21
99.679000
31
0.0
0
LINE
8
0
6
CONTINUOUS
10
191.279000
20
99.679000
30
0.0
11
192.441000
21
89.227000
31
0.0
0
LINE
8
0
6
CONTINUOUS
10
192.441000
20
89.227000
30
0.0
11
193.603000
21
73.259000
31
0.0
0
LINE
8
0
6
CONTINUOUS
10
193.603000
20
73.259000
30
0.0
11
194.996000
21
51.697000
31
0.0
0
LINE
8
0
6
CONTINUOUS
10
194.996000
20
51.697000
30
0.0
11
195.498000
21
27.605000
31
0.0
0
LINE
8
0
6
CONTINUOUS
10
195.498000
20
27.605000
30
0.0
11
196.000000
21
0.000000
31
0.0
0
LINE
8
0
6
CONTINUOUS
10
186.776000
20
115.212000
30
0.0
11
183.954000
21
118.954000
31
0.0
0
LINE
8
0
6
CONTINUOUS
10
188.955000
20
111.148000
30
0.0
11
186.776000
21
115.212000
31
0.0
0
LINE
8
0
6
CONTINUOUS
10
188.009000
20
110.299000
30
0.0
11
189.306000
21
105.113000
31
0.0
0
LINE
8
0
6
CONTINUOUS
10
190.262000
20
105.921000
30
0.0
11
188.955000
21
111.148000
31
0.0
0
LINE
8
0
6
CONTINUOUS
10
189.306000
20
105.113000
30
0.0
11
190.315000
21
98.918000
31
0.0
0
LINE
8
0
6
CONTINUOUS
10
191.279000
20
99.679000
30
0.0
11
190.262000
21
105.921000
31
0.0
0
LINE
8
0
6
CONTINUOUS
10
190.315000
20
98.918000
30
0.0
11
191.468000
21
88.546000
31
0.0
0
LINE
8
0
6
CONTINUOUS
10
192.441000
20
89.227000
30
0.0
11
191.279000
21
99.679000
31
0.0
0
LINE
8
0
6
CONTINUOUS
10
191.468000
20
88.546000
30
0.0
11
192.621000
21
72.700000
31
0.0
0
LINE
8
0
6
CONTINUOUS
10
193.603000
20
73.259000
30
0.0
11
192.441000
21
89.227000
31
0.0
0
LINE
8
0
6
CONTINUOUS
10
192.621000
20
72.700000
30
0.0
11
194.004000
21
51.303000
31
0.0
0
LINE
8
0
6
CONTINUOUS
10
194.996000
20
51.697000
30
0.0
11
193.603000
21
73.259000
31
0.0
0
LINE
8
0
6
CONTINUOUS
10
194.004000
20
51.303000
30
0.0
11
194.502000
21
27.395000
31
0.0
0
LINE
8
0
6
CONTINUOUS
10
195.498000
20
27.605000
30
0.0
11
194.996000
21
51.697000
31
0.0
0
LINE
8
0
6
CONTINUOUS
10
194.502000
20
27.395000
30
0.0
11
195.000000
21
0.000000
31
0.0
0
LINE
8
0
6
CONTINUOUS
10
196.000000
20
0.000000
30
0.0
11
195.498000
21
27.605000
31
0.0
0
LINE
8
0
6
CONTINUOUS
10
189.306000
20
105.113000
30
0.0
11
188.009000
21
110.299000
31
0.0
0
LINE
8
0
6
CONTINUOUS
10
190.315000
20
98.918000
30
0.0
11
189.306000
21
105.113000
31
0.0
0
LINE
8
0
6
CONTINUOUS
10
191.468000
20
88.546000
30
0.0
11
190.315000
21
98.918000
31
0.0
0
LINE
8
0
6
CONTINUOUS
10
192.621000
20
72.700000
30
0.0
11
191.468000
21
88.546000
31
0.0
0
LINE
8
0
6
CONTINUOUS
10
194.004000
20
51.303000
30
0.0
11
192.621000
21
72.700000
31
0.0
0
LINE
8
0
6
CONTINUOUS
10
194.502000
20
27.395000
30
0.0
11
194.004000
21
51.303000
31
0.0
0
LINE
8
0
6
CONTINUOUS
10
195.000000
20
0.000000
30
0.0
11
194.502000
21
27.395000
31
0.0
0
LINE
8
0
6
CONTINUOUS
10
180.212000
20
121.776000
30
0.0
11
183.954000
21
118.954000
31
0.0
0
LINE
8
0
6
CONTINUOUS
10
176.147000
20
123.955000
30
0.0
11
180.212000
21
121.776000
31
0.0
0
LINE
8
0
6
CONTINUOUS
10
170.922000
20
125.262000
30
0.0
11
176.147000
21
123.955000
31
0.0
0
LINE
8
0
6
CONTINUOUS
10
164.679000
20
126.279000
30
0.0
11
170.922000
21
125.262000
31
0.0
0
LINE
8
0
6
CONTINUOUS
10
154.227000
20
127.441000
30
0.0
11
164.679000
21
126.279000
31
0.0
0
LINE
8
0
6
CONTINUOUS
10
138.259000
20
128.603000
30
0.0
11
154.227000
21
127.441000
31
0.0
0
LINE
8
0
6
CONTINUOUS
10
116.697000
20
129.996000
30
0.0
11
138.259000
21
128.603000
31
0.0
0
LINE
8
0
6
CONTINUOUS
10
92.605000
20
130.498000
30
0.0
11
116.697000
21
129.996000
31
0.0
0
LINE
8
0
6
CONTINUOUS
10
65.000000
20
131.000000
30
0.0
11
92.605000
21
130.498000
31
0.0
0
LINE
8
0
6
CONTINUOUS
10
-0.000000
20
131.000000
30
0.0
11
65.000000
21
131.000000
31
0.0
0
LINE
8
0
6
CONTINUOUS
10
183.954000
20
118.954000
30
0.0
11
180.212000
21
121.776000
31
0.0
0
LINE
8
0
6
CONTINUOUS
10
180.212000
20
121.776000
30
0.0
11
176.147000
21
123.955000
31
0.0
0
LINE
8
0
6
CONTINUOUS
10
176.147000
20
123.955000
30
0.0
11
170.922000
21
125.262000
31
0.0
0
LINE
8
0
6
CONTINUOUS
10
170.113000
20
124.306000
30
0.0
11
175.299000
21
123.009000
31
0.0
0
LINE
8
0
6
CONTINUOUS
10
170.922000
20
125.262000
30
0.0
11
164.679000
21
126.279000
31
0.0
0
LINE
8
0
6
CONTINUOUS
10
163.918000
20
125.315000
30
0.0
11
170.113000
21
124.306000
31
0.0
0
LINE
8
0
6
CONTINUOUS
10
164.679000
20
126.279000
30
0.0
11
154.227000
21
127.441000
31
0.0
0
LINE
8
0
6
CONTINUOUS
10
153.546000
20
126.468000
30
0.0
11
163.918000
21
125.315000
31
0.0
0
LINE
8
0
6
CONTINUOUS
10
154.227000
20
127.441000
30
0.0
11
138.259000
21
128.603000
31
0.0
0
LINE
8
0
6
CONTINUOUS
10
137.700000
20
127.621000
30
0.0
11
153.546000
21
126.468000
31
0.0
0
LINE
8
0
6
CONTINUOUS
10
138.259000
20
128.603000
30
0.0
11
116.697000
21
129.996000
31
0.0
0
LINE
8
0
6
CONTINUOUS
10
116.303000
20
129.004000
30
0.0
11
137.700000
21
127.621000
31
0.0
0
LINE
8
0
6
CONTINUOUS
10
116.697000
20
129.996000
30
0.0
11
92.605000
21
130.498000
31
0.0
0
LINE
8
0
6
CONTINUOUS
10
92.395000
20
129.502000
30
0.0
11
116.303000
21
129.004000
31
0.0
0
LINE
8
0
6
CONTINUOUS
10
92.605000
20
130.498000
30
0.0
11
65.000000
21
131.000000
31
0.0
0
LINE
8
0
6
CONTINUOUS
10
65.000000
20
130.000000
30
0.0
11
92.395000
21
129.502000
31
0.0
0
LINE
8
0
6
CONTINUOUS
10
175.299000
20
123.009000
30
0.0
11
170.113000
21
124.306000
31
0.0
0
LINE
8
0
6
CONTINUOUS
10
170.113000
20
124.306000
30
0.0
11
163.918000
21
125.315000
31
0.0
0
LINE
8
0
6
CONTINUOUS
10
163.918000
20
125.315000
30
0.0
11
153.546000
21
126.468000
31
0.0
0
LINE
8
0
6
CONTINUOUS
10
153.546000
20
126.468000
30
0.0
11
137.700000
21
127.621000
31
0.0
0
LINE
8
0
6
CONTINUOUS
10
137.700000
20
127.621000
30
0.0
11
116.303000
21
129.004000
31
0.0
0
LINE
8
0
6
CONTINUOUS
10
116.303000
20
129.004000
30
0.0
11
92.395000
21
129.502000
31
0.0
0
LINE
8
0
6
CONTINUOUS
10
92.395000
20
129.502000
30
0.0
11
65.000000
21
130.000000
31
0.0
0
LINE
8
0
6
CONTINUOUS
10
65.000000
20
130.000000
30
0.0
11
-0.000000
21
130.000000
31
0.0
0
LINE
8
0
6
CONTINUOUS
10
-0.000000
20
130.000000
30
0.0
11
65.000000
21
130.000000
31
0.0
0
LINE
8
0
6
CONTINUOUS
10
65.000000
20
131.000000
30
0.0
11
-0.000000
21
131.000000
31
0.0
0
LINE
8
0
6
CONTINUOUS
10
65.000000
20
-131.000000
30
0.0
11
-0.000000
21
-131.000000
31
0.0
0
LINE
8
0
6
CONTINUOUS
10
183.954000
20
-118.954000
30
0.0
11
180.212000
21
-121.776130
31
0.0
0
LINE
8
0
6
CONTINUOUS
10
180.212000
20
-121.776130
30
0.0
11
176.147000
21
-123.954840
31
0.0
0
LINE
8
0
6
CONTINUOUS
10
176.147000
20
-123.954840
30
0.0
11
170.922000
21
-125.262070
31
0.0
0
LINE
8
0
6
CONTINUOUS
10
170.922000
20
-125.262070
30
0.0
11
164.679000
21
-126.278810
31
0.0
0
LINE
8
0
6
CONTINUOUS
10
164.679000
20
-126.278810
30
0.0
11
154.227000
21
-127.440790
31
0.0
0
LINE
8
0
6
CONTINUOUS
10
154.227000
20
-127.440790
30
0.0
11
138.259000
21
-128.602770
31
0.0
0
LINE
8
0
6
CONTINUOUS
10
138.259000
20
-128.602770
30
0.0
11
116.697000
21
-129.996170
31
0.0
0
LINE
8
0
6
CONTINUOUS
10
116.697000
20
-129.996170
30
0.0
11
92.605000
21
-130.498084
31
0.0
0
LINE
8
0
6
CONTINUOUS
10
92.605000
20
-130.498084
30
0.0
11
65.000000
21
-131.000000
31
0.0
0
LINE
8
0
6
CONTINUOUS
10
183.954000
20
-118.954000
30
0.0
11
186.776000
21
-115.212200
31
0.0
0
LINE
8
0
6
CONTINUOUS
10
186.776000
20
-115.212200
30
0.0
11
188.955000
21
-111.147500
31
0.0
0
LINE
8
0
6
CONTINUOUS
10
188.955000
20
-111.147500
30
0.0
11
190.262000
21
-105.921500
31
0.0
0
LINE
8
0
6
CONTINUOUS
10
189.306000
20
-105.113000
30
0.0
11
188.009000
21
-110.299100
31
0.0
0
LINE
8
0
6
CONTINUOUS
10
190.262000
20
-105.921500
30
0.0
11
191.279000
21
-99.679400
31
0.0
0
LINE
8
0
6
CONTINUOUS
10
190.315000
20
-98.918400
30
0.0
11
189.306000
21
-105.113000
31
0.0
0
LINE
8
0
6
CONTINUOUS
10
191.279000
20
-99.679400
30
0.0
11
192.441000
21
-89.227300
31
0.0
0
LINE
8
0
6
CONTINUOUS
10
191.468000
20
-88.546200
30
0.0
11
190.315000
21
-98.918400
31
0.0
0
LINE
8
0
6
CONTINUOUS
10
192.441000
20
-89.227300
30
0.0
11
193.603000
21
-73.259000
31
0.0
0
LINE
8
0
6
CONTINUOUS
10
192.621000
20
-72.699700
30
0.0
11
191.468000
21
-88.546200
31
0.0
0
LINE
8
0
6
CONTINUOUS
10
193.603000
20
-73.259000
30
0.0
11
194.996000
21
-51.697300
31
0.0
0
LINE
8
0
6
CONTINUOUS
10
194.004000
20
-51.302700
30
0.0
11
192.621000
21
-72.699700
31
0.0
0
LINE
8
0
6
CONTINUOUS
10
194.996000
20
-51.697300
30
0.0
11
195.498000
21
-27.605000
31
0.0
0
LINE
8
0
6
CONTINUOUS
10
194.502000
20
-27.395000
30
0.0
11
194.004000
21
-51.302700
31
0.0
0
LINE
8
0
6
CONTINUOUS
10
195.498000
20
-27.605000
30
0.0
11
196.000000
21
0.000000
31
0.0
0
LINE
8
0
6
CONTINUOUS
10
195.000000
20
0.000000
30
0.0
11
194.502000
21
-27.395000
31
0.0
0
LINE
8
0
6
CONTINUOUS
10
188.009000
20
-110.299100
30
0.0
11
189.306000
21
-105.113000
31
0.0
0
LINE
8
0
6
CONTINUOUS
10
189.306000
20
-105.113000
30
0.0
11
190.315000
21
-98.918400
31
0.0
0
LINE
8
0
6
CONTINUOUS
10
190.315000
20
-98.918400
30
0.0
11
191.468000
21
-88.546200
31
0.0
0
LINE
8
0
6
CONTINUOUS
10
191.468000
20
-88.546200
30
0.0
11
192.621000
21
-72.699700
31
0.0
0
LINE
8
0
6
CONTINUOUS
10
192.621000
20
-72.699700
30
0.0
11
194.004000
21
-51.302700
31
0.0
0
LINE
8
0
6
CONTINUOUS
10
194.004000
20
-51.302700
30
0.0
11
194.502000
21
-27.395000
31
0.0
0
LINE
8
0
6
CONTINUOUS
10
194.502000
20
-27.395000
30
0.0
11
195.000000
21
0.000000
31
0.0
0
LINE
8
0
6
CONTINUOUS
10
-0.000000
20
-130.000000
30
0.0
11
65.000000
21
-130.000000
31
0.0
0
LINE
8
0
6
CONTINUOUS
10
-0.000000
20
-131.000000
30
0.0
11
65.000000
21
-131.000000
31
0.0
0
LINE
8
0
6
CONTINUOUS
10
65.000000
20
-130.000000
30
0.0
11
-0.000000
21
-130.000000
31
0.0
0
LINE
8
0
6
CONTINUOUS
10
180.212000
20
-121.776130
30
0.0
11
183.954000
21
-118.954000
31
0.0
0
LINE
8
0
6
CONTINUOUS
10
176.147000
20
-123.954840
30
0.0
11
180.212000
21
-121.776130
31
0.0
0
LINE
8
0
6
CONTINUOUS
10
175.299000
20
-123.008620
30
0.0
11
170.113000
21
-124.305870
31
0.0
0
LINE
8
0
6
CONTINUOUS
10
170.922000
20
-125.262070
30
0.0
11
176.147000
21
-123.954840
31
0.0
0
LINE
8
0
6
CONTINUOUS
10
170.113000
20
-124.305870
30
0.0
11
163.918000
21
-125.314850
31
0.0
0
LINE
8
0
6
CONTINUOUS
10
164.679000
20
-126.278810
30
0.0
11
170.922000
21
-125.262070
31
0.0
0
LINE
8
0
6
CONTINUOUS
10
163.918000
20
-125.314850
30
0.0
11
153.546000
21
-126.467960
31
0.0
0
LINE
8
0
6
CONTINUOUS
10
154.227000
20
-127.440790
30
0.0
11
164.679000
21
-126.278810
31
0.0
0
LINE
8
0
6
CONTINUOUS
10
153.546000
20
-126.467960
30
0.0
11
137.700000
21
-127.621070
31
0.0
0
LINE
8
0
6
CONTINUOUS
10
138.259000
20
-128.602770
30
0.0
11
154.227000
21
-127.440790
31
0.0
0
LINE
8
0
6
CONTINUOUS
10
137.700000
20
-127.621070
30
0.0
11
116.303000
21
-129.003830
31
0.0
0
LINE
8
0
6
CONTINUOUS
10
116.697000
20
-129.996170
30
0.0
11
138.259000
21
-128.602770
31
0.0
0
LINE
8
0
6
CONTINUOUS
10
116.303000
20
-129.003830
30
0.0
11
92.395000
21
-129.501920
31
0.0
0
LINE
8
0
6
CONTINUOUS
10
92.605000
20
-130.498084
30
0.0
11
116.697000
21
-129.996170
31
0.0
0
LINE
8
0
6
CONTINUOUS
10
92.395000
20
-129.501920
30
0.0
11
65.000000
21
-130.000000
31
0.0
0
LINE
8
0
6
CONTINUOUS
10
65.000000
20
-131.000000
30
0.0
11
92.605000
21
-130.498084
31
0.0
0
LINE
8
0
6
CONTINUOUS
10
170.113000
20
-124.305870
30
0.0
11
175.299000
21
-123.008620
31
0.0
0
LINE
8
0
6
CONTINUOUS
10
163.918000
20
-125.314850
30
0.0
11
170.113000
21
-124.305870
31
0.0
0
LINE
8
0
6
CONTINUOUS
10
153.546000
20
-126.467960
30
0.0
11
163.918000
21
-125.314850
31
0.0
0
LINE
8
0
6
CONTINUOUS
10
137.700000
20
-127.621070
30
0.0
11
153.546000
21
-126.467960
31
0.0
0
LINE
8
0
6
CONTINUOUS
10
116.303000
20
-129.003830
30
0.0
11
137.700000
21
-127.621070
31
0.0
0
LINE
8
0
6
CONTINUOUS
10
92.395000
20
-129.501920
30
0.0
11
116.303000
21
-129.003830
31
0.0
0
LINE
8
0
6
CONTINUOUS
10
65.000000
20
-130.000000
30
0.0
11
92.395000
21
-129.501920
31
0.0
0
LINE
8
0
6
CONTINUOUS
10
186.776000
20
-115.212200
30
0.0
11
183.954000
21
-118.954000
31
0.0
0
LINE
8
0
6
CONTINUOUS
10
188.955000
20
-111.147500
30
0.0
11
186.776000
21
-115.212200
31
0.0
0
LINE
8
0
6
CONTINUOUS
10
190.262000
20
-105.921500
30
0.0
11
188.955000
21
-111.147500
31
0.0
0
LINE
8
0
6
CONTINUOUS
10
191.279000
20
-99.679400
30
0.0
11
190.262000
21
-105.921500
31
0.0
0
LINE
8
0
6
CONTINUOUS
10
192.441000
20
-89.227300
30
0.0
11
191.279000
21
-99.679400
31
0.0
0
LINE
8
0
6
CONTINUOUS
10
193.603000
20
-73.259000
30
0.0
11
192.441000
21
-89.227300
31
0.0
0
LINE
8
0
6
CONTINUOUS
10
194.996000
20
-51.697300
30
0.0
11
193.603000
21
-73.259000
31
0.0
0
LINE
8
0
6
CONTINUOUS
10
195.498000
20
-27.605000
30
0.0
11
194.996000
21
-51.697300
31
0.0
0
LINE
8
0
6
CONTINUOUS
10
196.000000
20
0.000000
30
0.0
11
195.498000
21
-27.605000
31
0.0
0
LINE
8
0
6
CONTINUOUS
10
-65.000000
20
131.000000
30
0.0
11
-0.000000
21
131.000000
31
0.0
0
LINE
8
0
6
CONTINUOUS
10
-183.954000
20
118.954000
30
0.0
11
-180.212000
21
121.776000
31
0.0
0
LINE
8
0
6
CONTINUOUS
10
-180.212000
20
121.776000
30
0.0
11
-176.147000
21
123.955000
31
0.0
0
LINE
8
0
6
CONTINUOUS
10
-176.147000
20
123.955000
30
0.0
11
-170.922000
21
125.262000
31
0.0
0
LINE
8
0
6
CONTINUOUS
10
-170.922000
20
125.262000
30
0.0
11
-164.679000
21
126.279000
31
0.0
0
LINE
8
0
6
CONTINUOUS
10
-164.679000
20
126.279000
30
0.0
11
-154.227000
21
127.441000
31
0.0
0
LINE
8
0
6
CONTINUOUS
10
-154.227000
20
127.441000
30
0.0
11
-138.259000
21
128.603000
31
0.0
0
LINE
8
0
6
CONTINUOUS
10
-138.259000
20
128.603000
30
0.0
11
-116.697000
21
129.996000
31
0.0
0
LINE
8
0
6
CONTINUOUS
10
-116.697000
20
129.996000
30
0.0
11
-92.605000
21
130.498000
31
0.0
0
LINE
8
0
6
CONTINUOUS
10
-92.605000
20
130.498000
30
0.0
11
-65.000000
21
131.000000
31
0.0
0
LINE
8
0
6
CONTINUOUS
10
-183.954000
20
118.954000
30
0.0
11
-186.776000
21
115.212000
31
0.0
0
LINE
8
0
6
CONTINUOUS
10
-186.776000
20
115.212000
30
0.0
11
-188.955000
21
111.148000
31
0.0
0
LINE
8
0
6
CONTINUOUS
10
-188.955000
20
111.148000
30
0.0
11
-190.262000
21
105.921000
31
0.0
0
LINE
8
0
6
CONTINUOUS
10
-189.306000
20
105.113000
30
0.0
11
-188.009000
21
110.299000
31
0.0
0
LINE
8
0
6
CONTINUOUS
10
-190.262000
20
105.921000
30
0.0
11
-191.279000
21
99.679000
31
0.0
0
LINE
8
0
6
CONTINUOUS
10
-190.315000
20
98.918000
30
0.0
11
-189.306000
21
105.113000
31
0.0
0
LINE
8
0
6
CONTINUOUS
10
-191.279000
20
99.679000
30
0.0
11
-192.441000
21
89.227000
31
0.0
0
LINE
8
0
6
CONTINUOUS
10
-191.468000
20
88.546000
30
0.0
11
-190.315000
21
98.918000
31
0.0
0
LINE
8
0
6
CONTINUOUS
10
-192.441000
20
89.227000
30
0.0
11
-193.603000
21
73.259000
31
0.0
0
LINE
8
0
6
CONTINUOUS
10
-192.621000
20
72.700000
30
0.0
11
-191.468000
21
88.546000
31
0.0
0
LINE
8
0
6
CONTINUOUS
10
-193.603000
20
73.259000
30
0.0
11
-194.996000
21
51.697000
31
0.0
0
LINE
8
0
6
CONTINUOUS
10
-194.004000
20
51.303000
30
0.0
11
-192.621000
21
72.700000
31
0.0
0
LINE
8
0
6
CONTINUOUS
10
-194.996000
20
51.697000
30
0.0
11
-195.498000
21
27.605000
31
0.0
0
LINE
8
0
6
CONTINUOUS
10
-194.502000
20
27.395000
30
0.0
11
-194.004000
21
51.303000
31
0.0
0
LINE
8
0
6
CONTINUOUS
10
-195.498000
20
27.605000
30
0.0
11
-196.000000
21
0.000000
31
0.0
0
LINE
8
0
6
CONTINUOUS
10
-195.000000
20
0.000000
30
0.0
11
-194.502000
21
27.395000
31
0.0
0
LINE
8
0
6
CONTINUOUS
10
-188.009000
20
110.299000
30
0.0
11
-189.306000
21
105.113000
31
0.0
0
LINE
8
0
6
CONTINUOUS
10
-189.306000
20
105.113000
30
0.0
11
-190.315000
21
98.918000
31
0.0
0
LINE
8
0
6
CONTINUOUS
10
-190.315000
20
98.918000
30
0.0
11
-191.468000
21
88.546000
31
0.0
0
LINE
8
0
6
CONTINUOUS
10
-191.468000
20
88.546000
30
0.0
11
-192.621000
21
72.700000
31
0.0
0
LINE
8
0
6
CONTINUOUS
10
-192.621000
20
72.700000
30
0.0
11
-194.004000
21
51.303000
31
0.0
0
LINE
8
0
6
CONTINUOUS
10
-194.004000
20
51.303000
30
0.0
11
-194.502000
21
27.395000
31
0.0
0
LINE
8
0
6
CONTINUOUS
10
-194.502000
20
27.395000
30
0.0
11
-195.000000
21
0.000000
31
0.0
0
LINE
8
0
6
CONTINUOUS
10
-0.000000
20
130.000000
30
0.0
11
-65.000000
21
130.000000
31
0.0
0
LINE
8
0
6
CONTINUOUS
10
-0.000000
20
131.000000
30
0.0
11
-65.000000
21
131.000000
31
0.0
0
LINE
8
0
6
CONTINUOUS
10
-65.000000
20
130.000000
30
0.0
11
-0.000000
21
130.000000
31
0.0
0
LINE
8
0
6
CONTINUOUS
10
-180.212000
20
121.776000
30
0.0
11
-183.954000
21
118.954000
31
0.0
0
LINE
8
0
6
CONTINUOUS
10
-176.147000
20
123.955000
30
0.0
11
-180.212000
21
121.776000
31
0.0
0
LINE
8
0
6
CONTINUOUS
10
-175.299000
20
123.009000
30
0.0
11
-170.113000
21
124.306000
31
0.0
0
LINE
8
0
6
CONTINUOUS
10
-170.922000
20
125.262000
30
0.0
11
-176.147000
21
123.955000
31
0.0
0
LINE
8
0
6
CONTINUOUS
10
-170.113000
20
124.306000
30
0.0
11
-163.918000
21
125.315000
31
0.0
0
LINE
8
0
6
CONTINUOUS
10
-164.679000
20
126.279000
30
0.0
11
-170.922000
21
125.262000
31
0.0
0
LINE
8
0
6
CONTINUOUS
10
-163.918000
20
125.315000
30
0.0
11
-153.546000
21
126.468000
31
0.0
0
LINE
8
0
6
CONTINUOUS
10
-154.227000
20
127.441000
30
0.0
11
-164.679000
21
126.279000
31
0.0
0
LINE
8
0
6
CONTINUOUS
10
-153.546000
20
126.468000
30
0.0
11
-137.700000
21
127.621000
31
0.0
0
LINE
8
0
6
CONTINUOUS
10
-138.259000
20
128.603000
30
0.0
11
-154.227000
21
127.441000
31
0.0
0
LINE
8
0
6
CONTINUOUS
10
-137.700000
20
127.621000
30
0.0
11
-116.303000
21
129.004000
31
0.0
0
LINE
8
0
6
CONTINUOUS
10
-116.697000
20
129.996000
30
0.0
11
-138.259000
21
128.603000
31
0.0
0
LINE
8
0
6
CONTINUOUS
10
-116.303000
20
129.004000
30
0.0
11
-92.395000
21
129.502000
31
0.0
0
LINE
8
0
6
CONTINUOUS
10
-92.605000
20
130.498000
30
0.0
11
-116.697000
21
129.996000
31
0.0
0
LINE
8
0
6
CONTINUOUS
10
-92.395000
20
129.502000
30
0.0
11
-65.000000
21
130.000000
31
0.0
0
LINE
8
0
6
CONTINUOUS
10
-65.000000
20
131.000000
30
0.0
11
-92.605000
21
130.498000
31
0.0
0
LINE
8
0
6
CONTINUOUS
10
-170.113000
20
124.306000
30
0.0
11
-175.299000
21
123.009000
31
0.0
0
LINE
8
0
6
CONTINUOUS
10
-163.918000
20
125.315000
30
0.0
11
-170.113000
21
124.306000
31
0.0
0
LINE
8
0
6
CONTINUOUS
10
-153.546000
20
126.468000
30
0.0
11
-163.918000
21
125.315000
31
0.0
0
LINE
8
0
6
CONTINUOUS
10
-137.700000
20
127.621000
30
0.0
11
-153.546000
21
126.468000
31
0.0
0
LINE
8
0
6
CONTINUOUS
10
-116.303000
20
129.004000
30
0.0
11
-137.700000
21
127.621000
31
0.0
0
LINE
8
0
6
CONTINUOUS
10
-92.395000
20
129.502000
30
0.0
11
-116.303000
21
129.004000
31
0.0
0
LINE
8
0
6
CONTINUOUS
10
-65.000000
20
130.000000
30
0.0
11
-92.395000
21
129.502000
31
0.0
0
LINE
8
0
6
CONTINUOUS
10
-186.776000
20
115.212000
30
0.0
11
-183.954000
21
118.954000
31
0.0
0
LINE
8
0
6
CONTINUOUS
10
-188.955000
20
111.148000
30
0.0
11
-186.776000
21
115.212000
31
0.0
0
LINE
8
0
6
CONTINUOUS
10
-190.262000
20
105.921000
30
0.0
11
-188.955000
21
111.148000
31
0.0
0
LINE
8
0
6
CONTINUOUS
10
-191.279000
20
99.679000
30
0.0
11
-190.262000
21
105.921000
31
0.0
0
LINE
8
0
6
CONTINUOUS
10
-192.441000
20
89.227000
30
0.0
11
-191.279000
21
99.679000
31
0.0
0
LINE
8
0
6
CONTINUOUS
10
-193.603000
20
73.259000
30
0.0
11
-192.441000
21
89.227000
31
0.0
0
LINE
8
0
6
CONTINUOUS
10
-194.996000
20
51.697000
30
0.0
11
-193.603000
21
73.259000
31
0.0
0
LINE
8
0
6
CONTINUOUS
10
-195.498000
20
27.605000
30
0.0
11
-194.996000
21
51.697000
31
0.0
0
LINE
8
0
6
CONTINUOUS
10
-196.000000
20
0.000000
30
0.0
11
-195.498000
21
27.605000
31
0.0
0
LINE
8
0
6
CONTINUOUS
10
-65.000000
20
-130.000000
30
0.0
11
-0.000000
21
-130.000000
31
0.0
0
LINE
8
0
6
CONTINUOUS
10
-0.000000
20
-130.000000
30
0.0
11
-65.000000
21
-130.000000
31
0.0
0
LINE
8
0
6
CONTINUOUS
10
-65.000000
20
-131.000000
30
0.0
11
-0.000000
21
-131.000000
31
0.0
0
LINE
8
0
6
CONTINUOUS
10
-0.000000
20
-131.000000
30
0.0
11
-65.000000
21
-131.000000
31
0.0
0
LINE
8
0
6
CONTINUOUS
10
-180.212000
20
-121.776130
30
0.0
11
-183.954000
21
-118.954000
31
0.0
0
LINE
8
0
6
CONTINUOUS
10
-176.147000
20
-123.954840
30
0.0
11
-180.212000
21
-121.776130
31
0.0
0
LINE
8
0
6
CONTINUOUS
10
-170.922000
20
-125.262070
30
0.0
11
-176.147000
21
-123.954840
31
0.0
0
LINE
8
0
6
CONTINUOUS
10
-164.679000
20
-126.278810
30
0.0
11
-170.922000
21
-125.262070
31
0.0
0
LINE
8
0
6
CONTINUOUS
10
-154.227000
20
-127.440790
30
0.0
11
-164.679000
21
-126.278810
31
0.0
0
LINE
8
0
6
CONTINUOUS
10
-138.259000
20
-128.602770
30
0.0
11
-154.227000
21
-127.440790
31
0.0
0
LINE
8
0
6
CONTINUOUS
10
-116.697000
20
-129.996170
30
0.0
11
-138.259000
21
-128.602770
31
0.0
0
LINE
8
0
6
CONTINUOUS
10
-92.605000
20
-130.498084
30
0.0
11
-116.697000
21
-129.996170
31
0.0
0
LINE
8
0
6
CONTINUOUS
10
-65.000000
20
-131.000000
30
0.0
11
-92.605000
21
-130.498084
31
0.0
0
LINE
8
0
6
CONTINUOUS
10
-183.954000
20
-118.954000
30
0.0
11
-180.212000
21
-121.776130
31
0.0
0
LINE
8
0
6
CONTINUOUS
10
-180.212000
20
-121.776130
30
0.0
11
-176.147000
21
-123.954840
31
0.0
0
LINE
8
0
6
CONTINUOUS
10
-176.147000
20
-123.954840
30
0.0
11
-170.922000
21
-125.262070
31
0.0
0
LINE
8
0
6
CONTINUOUS
10
-170.113000
20
-124.305870
30
0.0
11
-175.299000
21
-123.008620
31
0.0
0
LINE
8
0
6
CONTINUOUS
10
-170.922000
20
-125.262070
30
0.0
11
-164.679000
21
-126.278810
31
0.0
0
LINE
8
0
6
CONTINUOUS
10
-163.918000
20
-125.314850
30
0.0
11
-170.113000
21
-124.305870
31
0.0
0
LINE
8
0
6
CONTINUOUS
10
-164.679000
20
-126.278810
30
0.0
11
-154.227000
21
-127.440790
31
0.0
0
LINE
8
0
6
CONTINUOUS
10
-153.546000
20
-126.467960
30
0.0
11
-163.918000
21
-125.314850
31
0.0
0
LINE
8
0
6
CONTINUOUS
10
-154.227000
20
-127.440790
30
0.0
11
-138.259000
21
-128.602770
31
0.0
0
LINE
8
0
6
CONTINUOUS
10
-137.700000
20
-127.621070
30
0.0
11
-153.546000
21
-126.467960
31
0.0
0
LINE
8
0
6
CONTINUOUS
10
-138.259000
20
-128.602770
30
0.0
11
-116.697000
21
-129.996170
31
0.0
0
LINE
8
0
6
CONTINUOUS
10
-116.303000
20
-129.003830
30
0.0
11
-137.700000
21
-127.621070
31
0.0
0
LINE
8
0
6
CONTINUOUS
10
-116.697000
20
-129.996170
30
0.0
11
-92.605000
21
-130.498084
31
0.0
0
LINE
8
0
6
CONTINUOUS
10
-92.395000
20
-129.501920
30
0.0
11
-116.303000
21
-129.003830
31
0.0
0
LINE
8
0
6
CONTINUOUS
10
-92.605000
20
-130.498084
30
0.0
11
-65.000000
21
-131.000000
31
0.0
0
LINE
8
0
6
CONTINUOUS
10
-65.000000
20
-130.000000
30
0.0
11
-92.395000
21
-129.501920
31
0.0
0
LINE
8
0
6
CONTINUOUS
10
-175.299000
20
-123.008620
30
0.0
11
-170.113000
21
-124.305870
31
0.0
0
LINE
8
0
6
CONTINUOUS
10
-170.113000
20
-124.305870
30
0.0
11
-163.918000
21
-125.314850
31
0.0
0
LINE
8
0
6
CONTINUOUS
10
-163.918000
20
-125.314850
30
0.0
11
-153.546000
21
-126.467960
31
0.0
0
LINE
8
0
6
CONTINUOUS
10
-153.546000
20
-126.467960
30
0.0
11
-137.700000
21
-127.621070
31
0.0
0
LINE
8
0
6
CONTINUOUS
10
-137.700000
20
-127.621070
30
0.0
11
-116.303000
21
-129.003830
31
0.0
0
LINE
8
0
6
CONTINUOUS
10
-116.303000
20
-129.003830
30
0.0
11
-92.395000
21
-129.501920
31
0.0
0
LINE
8
0
6
CONTINUOUS
10
-92.395000
20
-129.501920
30
0.0
11
-65.000000
21
-130.000000
31
0.0
0
LINE
8
0
6
CONTINUOUS
10
-186.776000
20
-115.212200
30
0.0
11
-183.954000
21
-118.954000
31
0.0
0
LINE
8
0
6
CONTINUOUS
10
-188.955000
20
-111.147500
30
0.0
11
-186.776000
21
-115.212200
31
0.0
0
LINE
8
0
6
CONTINUOUS
10
-188.009000
20
-110.299100
30
0.0
11
-189.306000
21
-105.113000
31
0.0
0
LINE
8
0
6
CONTINUOUS
10
-190.262000
20
-105.921500
30
0.0
11
-188.955000
21
-111.147500
31
0.0
0
LINE
8
0
6
CONTINUOUS
10
-189.306000
20
-105.113000
30
0.0
11
-190.315000
21
-98.918400
31
0.0
0
LINE
8
0
6
CONTINUOUS
10
-191.279000
20
-99.679400
30
0.0
11
-190.262000
21
-105.921500
31
0.0
0
LINE
8
0
6
CONTINUOUS
10
-190.315000
20
-98.918400
30
0.0
11
-191.468000
21
-88.546200
31
0.0
0
LINE
8
0
6
CONTINUOUS
10
-192.441000
20
-89.227300
30
0.0
11
-191.279000
21
-99.679400
31
0.0
0
LINE
8
0
6
CONTINUOUS
10
-191.468000
20
-88.546200
30
0.0
11
-192.621000
21
-72.699700
31
0.0
0
LINE
8
0
6
CONTINUOUS
10
-193.603000
20
-73.259000
30
0.0
11
-192.441000
21
-89.227300
31
0.0
0
LINE
8
0
6
CONTINUOUS
10
-192.621000
20
-72.699700
30
0.0
11
-194.004000
21
-51.302700
31
0.0
0
LINE
8
0
6
CONTINUOUS
10
-194.996000
20
-51.697300
30
0.0
11
-193.603000
21
-73.259000
31
0.0
0
LINE
8
0
6
CONTINUOUS
10
-194.004000
20
-51.302700
30
0.0
11
-194.502000
21
-27.395000
31
0.0
0
LINE
8
0
6
CONTINUOUS
10
-195.498000
20
-27.605000
30
0.0
11
-194.996000
21
-51.697300
31
0.0
0
LINE
8
0
6
CONTINUOUS
10
-194.502000
20
-27.395000
30
0.0
11
-195.000000
21
0.000000
31
0.0
0
LINE
8
0
6
CONTINUOUS
10
-196.000000
20
0.000000
30
0.0
11
-195.498000
21
-27.605000
31
0.0
0
LINE
8
0
6
CONTINUOUS
10
-189.306000
20
-105.113000
30
0.0
11
-188.009000
21
-110.299100
31
0.0
0
LINE
8
0
6
CONTINUOUS
10
-190.315000
20
-98.918400
30
0.0
11
-189.306000
21
-105.113000
31
0.0
0
LINE
8
0
6
CONTINUOUS
10
-191.468000
20
-88.546200
30
0.0
11
-190.315000
21
-98.918400
31
0.0
0
LINE
8
0
6
CONTINUOUS
10
-192.621000
20
-72.699700
30
0.0
11
-191.468000
21
-88.546200
31
0.0
0
LINE
8
0
6
CONTINUOUS
10
-194.004000
20
-51.302700
30
0.0
11
-192.621000
21
-72.699700
31
0.0
0
LINE
8
0
6
CONTINUOUS
10
-194.502000
20
-27.395000
30
0.0
11
-194.004000
21
-51.302700
31
0.0
0
LINE
8
0
6
CONTINUOUS
10
-195.000000
20
0.000000
30
0.0
11
-194.502000
21
-27.395000
31
0.0
0
LINE
8
0
6
CONTINUOUS
10
-183.954000
20
-118.954000
30
0.0
11
-186.776000
21
-115.212200
31
0.0
0
LINE
8
0
6
CONTINUOUS
10
-186.776000
20
-115.212200
30
0.0
11
-188.955000
21
-111.147500
31
0.0
0
LINE
8
0
6
CONTINUOUS
10
-188.955000
20
-111.147500
30
0.0
11
-190.262000
21
-105.921500
31
0.0
0
LINE
8
0
6
CONTINUOUS
10
-190.262000
20
-105.921500
30
0.0
11
-191.279000
21
-99.679400
31
0.0
0
LINE
8
0
6
CONTINUOUS
10
-191.279000
20
-99.679400
30
0.0
11
-192.441000
21
-89.227300
31
0.0
0
LINE
8
0
6
CONTINUOUS
10
-192.441000
20
-89.227300
30
0.0
11
-193.603000
21
-73.259000
31
0.0
0
LINE
8
0
6
CONTINUOUS
10
-193.603000
20
-73.259000
30
0.0
11
-194.996000
21
-51.697300
31
0.0
0
LINE
8
0
6
CONTINUOUS
10
-194.996000
20
-51.697300
30
0.0
11
-195.498000
21
-27.605000
31
0.0
0
LINE
8
0
6
CONTINUOUS
10
-195.498000
20
-27.605000
30
0.0
11
-196.000000
21
0.000000
31
0.0
0
ENDSEC
0
EOF
