999
Erzeugt mit innoplus bad 
0
SECTION
2
HEADER
9
$ACADVER
1
AC1009
9
$DWGCODEPAGE
3
ISO8859-1
0
ENDSEC
0
SECTION
2
TABLES
0
TABLE
2
LAYER
70
1
0
LAYER
2
0
70
0
62
7
6
CONTINUOUS
0
ENDTAB
0
ENDSEC
0
SECTION
2
ENTITIES
0
LINE
8
0
6
CONTINUOUS
10
89.896000
20
-75.500000
30
0.0
11
98.069000
21
-73.500000
31
0.0
0
LINE
8
0
6
CONTINUOUS
10
76.208384
20
-77.384308
30
0.0
11
86.027000
21
-76.032627
31
0.0
0
LINE
8
0
6
CONTINUOUS
10
88.616789
20
-75.676103
30
0.0
11
89.896000
21
-75.500000
31
0.0
0
LINE
8
0
6
CONTINUOUS
10
109.874000
20
-66.500000
30
0.0
11
106.417000
21
-66.500000
31
0.0
0
LINE
8
0
6
CONTINUOUS
10
106.417000
20
-66.500000
30
0.0
11
102.663000
21
-66.500000
31
0.0
0
LINE
8
0
6
CONTINUOUS
10
102.663000
20
-66.500000
30
0.0
11
97.836000
21
-66.500000
31
0.0
0
LINE
8
0
6
CONTINUOUS
10
97.836000
20
-66.500000
30
0.0
11
92.070000
21
-66.500000
31
0.0
0
LINE
8
0
6
CONTINUOUS
10
92.070000
20
-66.500000
30
0.0
11
82.416000
21
-66.500000
31
0.0
0
LINE
8
0
6
CONTINUOUS
10
82.416000
20
-66.500000
30
0.0
11
67.667000
21
-66.500000
31
0.0
0
LINE
8
0
6
CONTINUOUS
10
67.667000
20
-66.500000
30
0.0
11
47.751000
21
-66.500000
31
0.0
0
LINE
8
0
6
CONTINUOUS
10
47.751000
20
-66.500000
30
0.0
11
25.498000
21
-66.500000
31
0.0
0
LINE
8
0
6
CONTINUOUS
10
25.498000
20
-66.500000
30
0.0
11
0.000000
21
-66.500000
31
0.0
0
LINE
8
0
6
CONTINUOUS
10
32.690000
20
-79.500000
30
0.0
11
31.661000
21
-79.500000
31
0.0
0
LINE
8
0
6
CONTINUOUS
10
29.108000
20
-79.500000
30
0.0
11
27.393000
21
-79.500000
31
0.0
0
LINE
8
0
6
CONTINUOUS
10
27.393000
20
-79.500000
30
0.0
11
24.520000
21
-79.500000
31
0.0
0
LINE
8
0
6
CONTINUOUS
10
24.520000
20
-79.500000
30
0.0
11
20.132000
21
-79.500000
31
0.0
0
LINE
8
0
6
CONTINUOUS
10
20.132000
20
-79.500000
30
0.0
11
18.792000
21
-79.500000
31
0.0
0
LINE
8
0
6
CONTINUOUS
10
15.792000
20
-79.500000
30
0.0
11
14.207000
21
-79.500000
31
0.0
0
LINE
8
0
6
CONTINUOUS
10
14.207000
20
-79.500000
30
0.0
11
7.586000
21
-79.500000
31
0.0
0
LINE
8
0
6
CONTINUOUS
10
7.586000
20
-79.500000
30
0.0
11
1.500000
21
-79.500000
31
0.0
0
LINE
8
0
6
CONTINUOUS
10
98.069000
20
-73.500000
30
0.0
11
89.897000
21
-75.500000
31
0.0
0
LINE
8
0
6
CONTINUOUS
10
99.000000
20
-75.500000
30
0.0
11
108.000000
21
-73.500000
31
0.0
0
LINE
8
0
6
CONTINUOUS
10
108.000000
20
-73.500000
30
0.0
11
115.000000
21
-70.500000
31
0.0
0
LINE
8
0
6
CONTINUOUS
10
68.083000
20
-78.328722
30
0.0
11
73.484000
21
-78.028667
31
0.0
0
LINE
8
0
6
CONTINUOUS
10
76.484000
20
-77.862000
30
0.0
11
78.409000
21
-77.755056
31
0.0
0
LINE
8
0
6
CONTINUOUS
10
82.616000
20
-77.521333
30
0.0
11
83.000000
21
-77.500000
31
0.0
0
LINE
8
0
6
CONTINUOUS
10
115.000000
20
-70.500000
30
0.0
11
119.000000
21
-68.500000
31
0.0
0
LINE
8
0
6
CONTINUOUS
10
89.897000
20
-75.500000
30
0.0
11
88.617064
21
-75.676191
31
0.0
0
LINE
8
0
6
CONTINUOUS
10
86.027000
20
-76.032728
30
0.0
11
76.208402
21
-77.384314
31
0.0
0
LINE
8
0
6
CONTINUOUS
10
83.000000
20
-77.500000
30
0.0
11
87.527000
21
-76.934125
31
0.0
0
LINE
8
0
6
CONTINUOUS
10
89.027000
20
-76.746625
30
0.0
11
91.011000
21
-76.498625
31
0.0
0
LINE
8
0
6
CONTINUOUS
10
97.500000
20
-75.687500
30
0.0
11
99.000000
21
-75.500000
31
0.0
0
LINE
8
0
6
CONTINUOUS
10
112.480000
20
-66.500000
30
0.0
11
109.874000
21
-66.500000
31
0.0
0
LINE
8
0
6
CONTINUOUS
10
114.493000
20
-66.500000
30
0.0
11
112.480000
21
-66.500000
31
0.0
0
LINE
8
0
6
CONTINUOUS
10
115.700000
20
-66.500000
30
0.0
11
114.493000
21
-66.500000
31
0.0
0
LINE
8
0
6
CONTINUOUS
10
116.639000
20
-66.500000
30
0.0
11
115.700000
21
-66.500000
31
0.0
0
LINE
8
0
6
CONTINUOUS
10
117.712000
20
-66.500000
30
0.0
11
116.639000
21
-66.500000
31
0.0
0
LINE
8
0
6
CONTINUOUS
10
118.786000
20
-66.500000
30
0.0
11
117.712000
21
-66.500000
31
0.0
0
LINE
8
0
6
CONTINUOUS
10
120.073000
20
-66.500000
30
0.0
11
118.786000
21
-66.500000
31
0.0
0
LINE
8
0
6
CONTINUOUS
10
120.536000
20
-66.500000
30
0.0
11
120.073000
21
-66.500000
31
0.0
0
LINE
8
0
6
CONTINUOUS
10
119.000000
20
-68.500000
30
0.0
11
121.000000
21
-66.500000
31
0.0
0
LINE
8
0
6
CONTINUOUS
10
121.000000
20
-66.500000
30
0.0
11
120.536000
21
-66.500000
31
0.0
0
LINE
8
0
6
CONTINUOUS
10
39.085000
20
-79.393621
30
0.0
11
42.657000
21
-79.270448
31
0.0
0
LINE
8
0
6
CONTINUOUS
10
45.657000
20
-79.167000
30
0.0
11
49.500000
21
-79.034483
31
0.0
0
LINE
8
0
6
CONTINUOUS
10
54.693000
20
-78.855414
30
0.0
11
62.771000
21
-78.576862
31
0.0
0
LINE
8
0
6
CONTINUOUS
10
33.465000
20
-79.500000
30
0.0
11
32.690000
21
-79.500000
31
0.0
0
LINE
8
0
6
CONTINUOUS
10
34.064000
20
-79.500000
30
0.0
11
33.465000
21
-79.500000
31
0.0
0
LINE
8
0
6
CONTINUOUS
10
34.423000
20
-79.500000
30
0.0
11
34.064000
21
-79.500000
31
0.0
0
LINE
8
0
6
CONTINUOUS
10
34.703000
20
-79.500000
30
0.0
11
34.423000
21
-79.500000
31
0.0
0
LINE
8
0
6
CONTINUOUS
10
35.022000
20
-79.500000
30
0.0
11
34.703000
21
-79.500000
31
0.0
0
LINE
8
0
6
CONTINUOUS
10
35.193423
20
-79.500000
30
0.0
11
35.022000
21
-79.500000
31
0.0
0
LINE
8
0
6
CONTINUOUS
10
-89.896600
20
-75.500000
30
0.0
11
-98.069000
21
-73.500000
31
0.0
0
LINE
8
0
6
CONTINUOUS
10
-76.208338
20
-77.384294
30
0.0
11
-86.027400
21
-76.032625
31
0.0
0
LINE
8
0
6
CONTINUOUS
10
-88.617228
20
-75.676115
30
0.0
11
-89.896600
21
-75.500000
31
0.0
0
LINE
8
0
6
CONTINUOUS
10
-109.873600
20
-66.500000
30
0.0
11
-112.480200
21
-66.500000
31
0.0
0
LINE
8
0
6
CONTINUOUS
10
-112.480200
20
-66.500000
30
0.0
11
-114.492600
21
-66.500000
31
0.0
0
LINE
8
0
6
CONTINUOUS
10
-114.492600
20
-66.500000
30
0.0
11
-115.700100
21
-66.500000
31
0.0
0
LINE
8
0
6
CONTINUOUS
10
-115.700100
20
-66.500000
30
0.0
11
-116.639200
21
-66.500000
31
0.0
0
LINE
8
0
6
CONTINUOUS
10
-116.639200
20
-66.500000
30
0.0
11
-117.712500
21
-66.500000
31
0.0
0
LINE
8
0
6
CONTINUOUS
10
-117.712500
20
-66.500000
30
0.0
11
-118.785800
21
-66.500000
31
0.0
0
LINE
8
0
6
CONTINUOUS
10
-118.785800
20
-66.500000
30
0.0
11
-120.072800
21
-66.500000
31
0.0
0
LINE
8
0
6
CONTINUOUS
10
-120.072800
20
-66.500000
30
0.0
11
-120.536400
21
-66.500000
31
0.0
0
LINE
8
0
6
CONTINUOUS
10
-120.536400
20
-66.500000
30
0.0
11
-121.000000
21
-66.500000
31
0.0
0
LINE
8
0
6
CONTINUOUS
10
-32.689700
20
-79.500000
30
0.0
11
-33.465200
21
-79.500000
31
0.0
0
LINE
8
0
6
CONTINUOUS
10
-33.465200
20
-79.500000
30
0.0
11
-34.063900
21
-79.500000
31
0.0
0
LINE
8
0
6
CONTINUOUS
10
-34.063900
20
-79.500000
30
0.0
11
-34.423200
21
-79.500000
31
0.0
0
LINE
8
0
6
CONTINUOUS
10
-34.423200
20
-79.500000
30
0.0
11
-34.702600
21
-79.500000
31
0.0
0
LINE
8
0
6
CONTINUOUS
10
-34.702600
20
-79.500000
30
0.0
11
-35.021900
21
-79.500000
31
0.0
0
LINE
8
0
6
CONTINUOUS
10
-35.021900
20
-79.500000
30
0.0
11
-35.341200
21
-79.500000
31
0.0
0
LINE
8
0
6
CONTINUOUS
10
-98.069000
20
-73.500000
30
0.0
11
-89.896500
21
-75.500000
31
0.0
0
LINE
8
0
6
CONTINUOUS
10
-89.896500
20
-75.500000
30
0.0
11
-88.617200
21
-75.676107
31
0.0
0
LINE
8
0
6
CONTINUOUS
10
-86.027400
20
-76.032615
30
0.0
11
-76.208336
21
-77.384293
31
0.0
0
LINE
8
0
6
CONTINUOUS
10
-106.417400
20
-66.500000
30
0.0
11
-109.873600
21
-66.500000
31
0.0
0
LINE
8
0
6
CONTINUOUS
10
-102.663000
20
-66.500000
30
0.0
11
-106.417400
21
-66.500000
31
0.0
0
LINE
8
0
6
CONTINUOUS
10
-97.835900
20
-66.500000
30
0.0
11
-102.663000
21
-66.500000
31
0.0
0
LINE
8
0
6
CONTINUOUS
10
-92.070200
20
-66.500000
30
0.0
11
-97.835900
21
-66.500000
31
0.0
0
LINE
8
0
6
CONTINUOUS
10
-82.416100
20
-66.500000
30
0.0
11
-92.070200
21
-66.500000
31
0.0
0
LINE
8
0
6
CONTINUOUS
10
-67.666700
20
-66.500000
30
0.0
11
-82.416100
21
-66.500000
31
0.0
0
LINE
8
0
6
CONTINUOUS
10
-47.751000
20
-66.500000
30
0.0
11
-67.666700
21
-66.500000
31
0.0
0
LINE
8
0
6
CONTINUOUS
10
-25.498000
20
-66.500000
30
0.0
11
-47.751000
21
-66.500000
31
0.0
0
LINE
8
0
6
CONTINUOUS
10
0.000000
20
-66.500000
30
0.0
11
-25.498000
21
-66.500000
31
0.0
0
LINE
8
0
6
CONTINUOUS
10
-31.661400
20
-79.500000
30
0.0
11
-32.689700
21
-79.500000
31
0.0
0
LINE
8
0
6
CONTINUOUS
10
-27.393000
20
-79.500000
30
0.0
11
-29.108000
21
-79.500000
31
0.0
0
LINE
8
0
6
CONTINUOUS
10
-24.520000
20
-79.500000
30
0.0
11
-27.393000
21
-79.500000
31
0.0
0
LINE
8
0
6
CONTINUOUS
10
-20.132000
20
-79.500000
30
0.0
11
-24.520000
21
-79.500000
31
0.0
0
LINE
8
0
6
CONTINUOUS
10
-14.207000
20
-79.500000
30
0.0
11
-15.792000
21
-79.500000
31
0.0
0
LINE
8
0
6
CONTINUOUS
10
-18.792000
20
-79.500000
30
0.0
11
-20.132000
21
-79.500000
31
0.0
0
LINE
8
0
6
CONTINUOUS
10
-7.586000
20
-79.500000
30
0.0
11
-14.207000
21
-79.500000
31
0.0
0
LINE
8
0
6
CONTINUOUS
10
-1.488396
20
-79.500000
30
0.0
11
-7.586000
21
-79.500000
31
0.0
0
LINE
8
0
6
CONTINUOUS
10
-119.000000
20
-68.500000
30
0.0
11
-121.000000
21
-66.500000
31
0.0
0
LINE
8
0
6
CONTINUOUS
10
-115.000000
20
-70.500000
30
0.0
11
-119.000000
21
-68.500000
31
0.0
0
LINE
8
0
6
CONTINUOUS
10
-108.000000
20
-73.500000
30
0.0
11
-115.000000
21
-70.500000
31
0.0
0
LINE
8
0
6
CONTINUOUS
10
-99.000000
20
-75.500000
30
0.0
11
-108.000000
21
-73.500000
31
0.0
0
LINE
8
0
6
CONTINUOUS
10
-83.000000
20
-77.500000
30
0.0
11
-87.527400
21
-76.934075
31
0.0
0
LINE
8
0
6
CONTINUOUS
10
-89.027400
20
-76.746575
30
0.0
11
-91.011400
21
-76.498575
31
0.0
0
LINE
8
0
6
CONTINUOUS
10
-97.500000
20
-75.687500
30
0.0
11
-99.000000
21
-75.500000
31
0.0
0
LINE
8
0
6
CONTINUOUS
10
-68.083300
20
-78.328706
30
0.0
11
-73.484000
21
-78.028667
31
0.0
0
LINE
8
0
6
CONTINUOUS
10
-76.484000
20
-77.862000
30
0.0
11
-78.409000
21
-77.755056
31
0.0
0
LINE
8
0
6
CONTINUOUS
10
-82.615700
20
-77.521350
30
0.0
11
-83.000000
21
-77.500000
31
0.0
0
LINE
8
0
6
CONTINUOUS
10
-39.085100
20
-79.393617
30
0.0
11
-42.657200
21
-79.270441
31
0.0
0
LINE
8
0
6
CONTINUOUS
10
-45.657200
20
-79.166993
30
0.0
11
-49.500000
21
-79.034483
31
0.0
0
LINE
8
0
6
CONTINUOUS
10
-54.692600
20
-78.855428
30
0.0
11
-62.770600
21
-78.576876
31
0.0
0
LINE
8
0
6
CONTINUOUS
10
-17.352000
20
-25.500000
30
0.0
11
-18.000000
21
-25.500000
31
0.0
0
LINE
8
0
6
CONTINUOUS
10
-18.000000
20
-12.500000
30
0.0
11
-17.352000
21
-12.500000
31
0.0
0
LINE
8
0
6
CONTINUOUS
10
-15.624000
20
-25.500000
30
0.0
11
-17.352000
21
-25.500000
31
0.0
0
LINE
8
0
6
CONTINUOUS
10
-17.352000
20
-12.500000
30
0.0
11
-15.624000
21
-12.500000
31
0.0
0
LINE
8
0
6
CONTINUOUS
10
-12.744000
20
-25.500000
30
0.0
11
-15.624000
21
-25.500000
31
0.0
0
LINE
8
0
6
CONTINUOUS
10
-15.624000
20
-12.500000
30
0.0
11
-12.744000
21
-12.500000
31
0.0
0
LINE
8
0
6
CONTINUOUS
10
-9.755000
20
-25.500000
30
0.0
11
-12.744000
21
-25.500000
31
0.0
0
LINE
8
0
6
CONTINUOUS
10
-9.755000
20
-12.500000
30
0.0
11
-9.755000
21
-25.500000
31
0.0
0
LINE
8
0
6
CONTINUOUS
10
-12.744000
20
-12.500000
30
0.0
11
-9.755000
21
-12.500000
31
0.0
0
LINE
8
0
6
CONTINUOUS
10
17.352000
20
-12.500000
30
0.0
11
18.000000
21
-12.500000
31
0.0
0
LINE
8
0
6
CONTINUOUS
10
18.000000
20
-25.500000
30
0.0
11
17.352000
21
-25.500000
31
0.0
0
LINE
8
0
6
CONTINUOUS
10
17.352000
20
-25.500000
30
0.0
11
15.624000
21
-25.500000
31
0.0
0
LINE
8
0
6
CONTINUOUS
10
15.624000
20
-12.500000
30
0.0
11
17.352000
21
-12.500000
31
0.0
0
LINE
8
0
6
CONTINUOUS
10
15.624000
20
-25.500000
30
0.0
11
12.744000
21
-25.500000
31
0.0
0
LINE
8
0
6
CONTINUOUS
10
12.744000
20
-12.500000
30
0.0
11
15.624000
21
-12.500000
31
0.0
0
LINE
8
0
6
CONTINUOUS
10
12.744000
20
-25.500000
30
0.0
11
9.755000
21
-25.500000
31
0.0
0
LINE
8
0
6
CONTINUOUS
10
9.755000
20
-12.500000
30
0.0
11
12.744000
21
-12.500000
31
0.0
0
LINE
8
0
6
CONTINUOUS
10
9.755000
20
-25.500000
30
0.0
11
9.755000
21
-12.500000
31
0.0
0
LINE
8
0
6
CONTINUOUS
10
-9.755000
20
-25.500000
30
0.0
11
-9.755000
21
-12.500000
31
0.0
0
LINE
8
0
6
CONTINUOUS
10
9.755000
20
-12.500000
30
0.0
11
9.755000
21
-25.500000
31
0.0
0
LINE
8
0
6
CONTINUOUS
10
-18.000000
20
-12.500000
30
0.0
11
-18.000000
21
-25.500000
31
0.0
0
LINE
8
0
6
CONTINUOUS
10
18.000000
20
-25.500000
30
0.0
11
18.000000
21
-12.500000
31
0.0
0
LINE
8
0
6
CONTINUOUS
10
-17.352000
20
64.500000
30
0.0
11
-18.000000
21
64.500000
31
0.0
0
LINE
8
0
6
CONTINUOUS
10
-15.624000
20
64.500000
30
0.0
11
-17.352000
21
64.500000
31
0.0
0
LINE
8
0
6
CONTINUOUS
10
-12.744000
20
64.500000
30
0.0
11
-15.624000
21
64.500000
31
0.0
0
LINE
8
0
6
CONTINUOUS
10
-8.928000
20
64.500000
30
0.0
11
-12.744000
21
64.500000
31
0.0
0
LINE
8
0
6
CONTINUOUS
10
-18.000000
20
64.500000
30
0.0
11
-17.352000
21
64.500000
31
0.0
0
LINE
8
0
6
CONTINUOUS
10
-17.352000
20
64.500000
30
0.0
11
-15.624000
21
64.500000
31
0.0
0
LINE
8
0
6
CONTINUOUS
10
-15.624000
20
64.500000
30
0.0
11
-12.744000
21
64.500000
31
0.0
0
LINE
8
0
6
CONTINUOUS
10
-12.744000
20
64.500000
30
0.0
11
-8.928000
21
64.500000
31
0.0
0
LINE
8
0
6
CONTINUOUS
10
-17.352000
20
-12.500000
30
0.0
11
-18.000000
21
-12.500000
31
0.0
0
LINE
8
0
6
CONTINUOUS
10
-15.624000
20
-12.500000
30
0.0
11
-17.352000
21
-12.500000
31
0.0
0
LINE
8
0
6
CONTINUOUS
10
-12.744000
20
-12.500000
30
0.0
11
-15.624000
21
-12.500000
31
0.0
0
LINE
8
0
6
CONTINUOUS
10
-8.928000
20
-12.500000
30
0.0
11
-12.744000
21
-12.500000
31
0.0
0
LINE
8
0
6
CONTINUOUS
10
-4.608000
20
-12.500000
30
0.0
11
-8.928000
21
-12.500000
31
0.0
0
LINE
8
0
6
CONTINUOUS
10
0.000000
20
-12.500000
30
0.0
11
-4.608000
21
-12.500000
31
0.0
0
LINE
8
0
6
CONTINUOUS
10
-18.000000
20
64.500000
30
0.0
11
-17.352000
21
64.500000
31
0.0
0
LINE
8
0
6
CONTINUOUS
10
-18.000000
20
-12.500000
30
0.0
11
-18.000000
21
64.500000
31
0.0
0
LINE
8
0
6
CONTINUOUS
10
-17.352000
20
-12.500000
30
0.0
11
-18.000000
21
-12.500000
31
0.0
0
LINE
8
0
6
CONTINUOUS
10
-17.352000
20
64.500000
30
0.0
11
-15.624000
21
64.500000
31
0.0
0
LINE
8
0
6
CONTINUOUS
10
-15.624000
20
-12.500000
30
0.0
11
-17.352000
21
-12.500000
31
0.0
0
LINE
8
0
6
CONTINUOUS
10
-15.624000
20
64.500000
30
0.0
11
-12.744000
21
64.500000
31
0.0
0
LINE
8
0
6
CONTINUOUS
10
-12.744000
20
-12.500000
30
0.0
11
-15.624000
21
-12.500000
31
0.0
0
LINE
8
0
6
CONTINUOUS
10
-12.744000
20
64.500000
30
0.0
11
-8.928000
21
64.500000
31
0.0
0
LINE
8
0
6
CONTINUOUS
10
-8.928000
20
-12.500000
30
0.0
11
-12.744000
21
-12.500000
31
0.0
0
LINE
8
0
6
CONTINUOUS
10
-4.608000
20
-12.500000
30
0.0
11
-8.928000
21
-12.500000
31
0.0
0
LINE
8
0
6
CONTINUOUS
10
0.000000
20
-12.500000
30
0.0
11
-4.608000
21
-12.500000
31
0.0
0
LINE
8
0
6
CONTINUOUS
10
-17.352000
20
64.500000
30
0.0
11
-18.000000
21
64.500000
31
0.0
0
LINE
8
0
6
CONTINUOUS
10
-15.624000
20
64.500000
30
0.0
11
-17.352000
21
64.500000
31
0.0
0
LINE
8
0
6
CONTINUOUS
10
-12.744000
20
64.500000
30
0.0
11
-15.624000
21
64.500000
31
0.0
0
LINE
8
0
6
CONTINUOUS
10
-8.928000
20
64.500000
30
0.0
11
-12.744000
21
64.500000
31
0.0
0
LINE
8
0
6
CONTINUOUS
10
18.000000
20
-12.500000
30
0.0
11
17.352000
21
-12.500000
31
0.0
0
LINE
8
0
6
CONTINUOUS
10
17.352000
20
-12.500000
30
0.0
11
15.624000
21
-12.500000
31
0.0
0
LINE
8
0
6
CONTINUOUS
10
15.624000
20
-12.500000
30
0.0
11
12.744000
21
-12.500000
31
0.0
0
LINE
8
0
6
CONTINUOUS
10
12.744000
20
-12.500000
30
0.0
11
8.928000
21
-12.500000
31
0.0
0
LINE
8
0
6
CONTINUOUS
10
8.928000
20
-12.500000
30
0.0
11
4.608000
21
-12.500000
31
0.0
0
LINE
8
0
6
CONTINUOUS
10
4.608000
20
-12.500000
30
0.0
11
0.000000
21
-12.500000
31
0.0
0
LINE
8
0
6
CONTINUOUS
10
18.000000
20
-12.500000
30
0.0
11
17.352000
21
-12.500000
31
0.0
0
LINE
8
0
6
CONTINUOUS
10
17.352000
20
-12.500000
30
0.0
11
15.624000
21
-12.500000
31
0.0
0
LINE
8
0
6
CONTINUOUS
10
15.624000
20
-12.500000
30
0.0
11
12.744000
21
-12.500000
31
0.0
0
LINE
8
0
6
CONTINUOUS
10
12.744000
20
-12.500000
30
0.0
11
8.928000
21
-12.500000
31
0.0
0
LINE
8
0
6
CONTINUOUS
10
8.928000
20
-12.500000
30
0.0
11
4.608000
21
-12.500000
31
0.0
0
LINE
8
0
6
CONTINUOUS
10
4.608000
20
-12.500000
30
0.0
11
0.000000
21
-12.500000
31
0.0
0
LINE
8
0
6
CONTINUOUS
10
18.000000
20
-12.500000
30
0.0
11
18.000000
21
64.500000
31
0.0
0
LINE
8
0
6
CONTINUOUS
10
-17.352000
20
-42.500000
30
0.0
11
-18.000000
21
-42.500000
31
0.0
0
LINE
8
0
6
CONTINUOUS
10
-15.624000
20
-42.500000
30
0.0
11
-17.352000
21
-42.500000
31
0.0
0
LINE
8
0
6
CONTINUOUS
10
-12.744000
20
-42.500000
30
0.0
11
-15.624000
21
-42.500000
31
0.0
0
LINE
8
0
6
CONTINUOUS
10
-8.928000
20
-42.500000
30
0.0
11
-12.744000
21
-42.500000
31
0.0
0
LINE
8
0
6
CONTINUOUS
10
-4.608000
20
-42.500000
30
0.0
11
-8.928000
21
-42.500000
31
0.0
0
LINE
8
0
6
CONTINUOUS
10
0.000000
20
-42.500000
30
0.0
11
-4.608000
21
-42.500000
31
0.0
0
LINE
8
0
6
CONTINUOUS
10
-18.000000
20
-42.500000
30
0.0
11
-17.352000
21
-42.500000
31
0.0
0
LINE
8
0
6
CONTINUOUS
10
-18.000000
20
-25.500000
30
0.0
11
-18.000000
21
-42.500000
31
0.0
0
LINE
8
0
6
CONTINUOUS
10
-17.352000
20
-25.500000
30
0.0
11
-18.000000
21
-25.500000
31
0.0
0
LINE
8
0
6
CONTINUOUS
10
-17.352000
20
-42.500000
30
0.0
11
-15.624000
21
-42.500000
31
0.0
0
LINE
8
0
6
CONTINUOUS
10
-15.624000
20
-25.500000
30
0.0
11
-17.352000
21
-25.500000
31
0.0
0
LINE
8
0
6
CONTINUOUS
10
-15.624000
20
-42.500000
30
0.0
11
-12.744000
21
-42.500000
31
0.0
0
LINE
8
0
6
CONTINUOUS
10
-12.744000
20
-25.500000
30
0.0
11
-15.624000
21
-25.500000
31
0.0
0
LINE
8
0
6
CONTINUOUS
10
-12.744000
20
-42.500000
30
0.0
11
-8.928000
21
-42.500000
31
0.0
0
LINE
8
0
6
CONTINUOUS
10
-8.928000
20
-25.500000
30
0.0
11
-12.744000
21
-25.500000
31
0.0
0
LINE
8
0
6
CONTINUOUS
10
-8.928000
20
-42.500000
30
0.0
11
-4.608000
21
-42.500000
31
0.0
0
LINE
8
0
6
CONTINUOUS
10
-4.608000
20
-25.500000
30
0.0
11
-8.928000
21
-25.500000
31
0.0
0
LINE
8
0
6
CONTINUOUS
10
-4.608000
20
-42.500000
30
0.0
11
0.000000
21
-42.500000
31
0.0
0
LINE
8
0
6
CONTINUOUS
10
0.000000
20
-25.500000
30
0.0
11
-4.608000
21
-25.500000
31
0.0
0
LINE
8
0
6
CONTINUOUS
10
-18.000000
20
-25.500000
30
0.0
11
-17.352000
21
-25.500000
31
0.0
0
LINE
8
0
6
CONTINUOUS
10
-17.352000
20
-25.500000
30
0.0
11
-15.624000
21
-25.500000
31
0.0
0
LINE
8
0
6
CONTINUOUS
10
-15.624000
20
-25.500000
30
0.0
11
-12.744000
21
-25.500000
31
0.0
0
LINE
8
0
6
CONTINUOUS
10
-12.744000
20
-25.500000
30
0.0
11
-8.928000
21
-25.500000
31
0.0
0
LINE
8
0
6
CONTINUOUS
10
-8.928000
20
-25.500000
30
0.0
11
-4.608000
21
-25.500000
31
0.0
0
LINE
8
0
6
CONTINUOUS
10
-4.608000
20
-25.500000
30
0.0
11
0.000000
21
-25.500000
31
0.0
0
LINE
8
0
6
CONTINUOUS
10
18.000000
20
-42.500000
30
0.0
11
17.352000
21
-42.500000
31
0.0
0
LINE
8
0
6
CONTINUOUS
10
17.352000
20
-42.500000
30
0.0
11
15.624000
21
-42.500000
31
0.0
0
LINE
8
0
6
CONTINUOUS
10
15.624000
20
-42.500000
30
0.0
11
12.744000
21
-42.500000
31
0.0
0
LINE
8
0
6
CONTINUOUS
10
12.744000
20
-42.500000
30
0.0
11
8.928000
21
-42.500000
31
0.0
0
LINE
8
0
6
CONTINUOUS
10
8.928000
20
-42.500000
30
0.0
11
4.608000
21
-42.500000
31
0.0
0
LINE
8
0
6
CONTINUOUS
10
4.608000
20
-42.500000
30
0.0
11
0.000000
21
-42.500000
31
0.0
0
LINE
8
0
6
CONTINUOUS
10
18.000000
20
-25.500000
30
0.0
11
17.352000
21
-25.500000
31
0.0
0
LINE
8
0
6
CONTINUOUS
10
17.352000
20
-42.500000
30
0.0
11
18.000000
21
-42.500000
31
0.0
0
LINE
8
0
6
CONTINUOUS
10
17.352000
20
-25.500000
30
0.0
11
15.624000
21
-25.500000
31
0.0
0
LINE
8
0
6
CONTINUOUS
10
15.624000
20
-42.500000
30
0.0
11
17.352000
21
-42.500000
31
0.0
0
LINE
8
0
6
CONTINUOUS
10
15.624000
20
-25.500000
30
0.0
11
12.744000
21
-25.500000
31
0.0
0
LINE
8
0
6
CONTINUOUS
10
12.744000
20
-42.500000
30
0.0
11
15.624000
21
-42.500000
31
0.0
0
LINE
8
0
6
CONTINUOUS
10
12.744000
20
-25.500000
30
0.0
11
8.928000
21
-25.500000
31
0.0
0
LINE
8
0
6
CONTINUOUS
10
8.928000
20
-42.500000
30
0.0
11
12.744000
21
-42.500000
31
0.0
0
LINE
8
0
6
CONTINUOUS
10
8.928000
20
-25.500000
30
0.0
11
4.608000
21
-25.500000
31
0.0
0
LINE
8
0
6
CONTINUOUS
10
4.608000
20
-42.500000
30
0.0
11
8.928000
21
-42.500000
31
0.0
0
LINE
8
0
6
CONTINUOUS
10
4.608000
20
-25.500000
30
0.0
11
0.000000
21
-25.500000
31
0.0
0
LINE
8
0
6
CONTINUOUS
10
0.000000
20
-42.500000
30
0.0
11
4.608000
21
-42.500000
31
0.0
0
LINE
8
0
6
CONTINUOUS
10
17.352000
20
-25.500000
30
0.0
11
18.000000
21
-25.500000
31
0.0
0
LINE
8
0
6
CONTINUOUS
10
15.624000
20
-25.500000
30
0.0
11
17.352000
21
-25.500000
31
0.0
0
LINE
8
0
6
CONTINUOUS
10
12.744000
20
-25.500000
30
0.0
11
15.624000
21
-25.500000
31
0.0
0
LINE
8
0
6
CONTINUOUS
10
8.928000
20
-25.500000
30
0.0
11
12.744000
21
-25.500000
31
0.0
0
LINE
8
0
6
CONTINUOUS
10
4.608000
20
-25.500000
30
0.0
11
8.928000
21
-25.500000
31
0.0
0
LINE
8
0
6
CONTINUOUS
10
0.000000
20
-25.500000
30
0.0
11
4.608000
21
-25.500000
31
0.0
0
LINE
8
0
6
CONTINUOUS
10
18.000000
20
-25.500000
30
0.0
11
18.000000
21
-42.500000
31
0.0
0
LINE
8
0
6
CONTINUOUS
10
-28.000000
20
-42.500000
30
0.0
11
-26.992000
21
-42.500000
31
0.0
0
LINE
8
0
6
CONTINUOUS
10
-26.992000
20
-42.500000
30
0.0
11
-24.304000
21
-42.500000
31
0.0
0
LINE
8
0
6
CONTINUOUS
10
-24.304000
20
-42.500000
30
0.0
11
-19.824000
21
-42.500000
31
0.0
0
LINE
8
0
6
CONTINUOUS
10
-19.824000
20
-42.500000
30
0.0
11
-18.000000
21
-42.500000
31
0.0
0
LINE
8
0
6
CONTINUOUS
10
-26.992000
20
-42.500000
30
0.0
11
-28.000000
21
-42.500000
31
0.0
0
LINE
8
0
6
CONTINUOUS
10
-24.304000
20
-42.500000
30
0.0
11
-26.992000
21
-42.500000
31
0.0
0
LINE
8
0
6
CONTINUOUS
10
-19.824000
20
-42.500000
30
0.0
11
-24.304000
21
-42.500000
31
0.0
0
LINE
8
0
6
CONTINUOUS
10
-18.000000
20
-42.500000
30
0.0
11
-19.824000
21
-42.500000
31
0.0
0
LINE
8
0
6
CONTINUOUS
10
-26.992000
20
-53.500000
30
0.0
11
-28.000000
21
-53.500000
31
0.0
0
LINE
8
0
6
CONTINUOUS
10
-24.304000
20
-53.500000
30
0.0
11
-26.992000
21
-53.500000
31
0.0
0
LINE
8
0
6
CONTINUOUS
10
-19.824000
20
-53.500000
30
0.0
11
-24.304000
21
-53.500000
31
0.0
0
LINE
8
0
6
CONTINUOUS
10
-13.888000
20
-53.500000
30
0.0
11
-19.824000
21
-53.500000
31
0.0
0
LINE
8
0
6
CONTINUOUS
10
-7.168000
20
-53.500000
30
0.0
11
-13.888000
21
-53.500000
31
0.0
0
LINE
8
0
6
CONTINUOUS
10
0.000000
20
-53.500000
30
0.0
11
-7.168000
21
-53.500000
31
0.0
0
LINE
8
0
6
CONTINUOUS
10
-28.000000
20
-53.500000
30
0.0
11
-26.992000
21
-53.500000
31
0.0
0
LINE
8
0
6
CONTINUOUS
10
-28.000000
20
-42.500000
30
0.0
11
-28.000000
21
-53.500000
31
0.0
0
LINE
8
0
6
CONTINUOUS
10
-26.992000
20
-42.500000
30
0.0
11
-28.000000
21
-42.500000
31
0.0
0
LINE
8
0
6
CONTINUOUS
10
-26.992000
20
-53.500000
30
0.0
11
-24.304000
21
-53.500000
31
0.0
0
LINE
8
0
6
CONTINUOUS
10
-24.304000
20
-42.500000
30
0.0
11
-26.992000
21
-42.500000
31
0.0
0
LINE
8
0
6
CONTINUOUS
10
-24.304000
20
-53.500000
30
0.0
11
-19.824000
21
-53.500000
31
0.0
0
LINE
8
0
6
CONTINUOUS
10
-19.824000
20
-42.500000
30
0.0
11
-24.304000
21
-42.500000
31
0.0
0
LINE
8
0
6
CONTINUOUS
10
-19.824000
20
-53.500000
30
0.0
11
-13.888000
21
-53.500000
31
0.0
0
LINE
8
0
6
CONTINUOUS
10
-13.888000
20
-42.500000
30
0.0
11
-19.824000
21
-42.500000
31
0.0
0
LINE
8
0
6
CONTINUOUS
10
-13.888000
20
-53.500000
30
0.0
11
-7.168000
21
-53.500000
31
0.0
0
LINE
8
0
6
CONTINUOUS
10
-7.168000
20
-42.500000
30
0.0
11
-13.888000
21
-42.500000
31
0.0
0
LINE
8
0
6
CONTINUOUS
10
-7.168000
20
-53.500000
30
0.0
11
0.000000
21
-53.500000
31
0.0
0
LINE
8
0
6
CONTINUOUS
10
0.000000
20
-42.500000
30
0.0
11
-7.168000
21
-42.500000
31
0.0
0
LINE
8
0
6
CONTINUOUS
10
-28.000000
20
-42.500000
30
0.0
11
-26.992000
21
-42.500000
31
0.0
0
LINE
8
0
6
CONTINUOUS
10
-26.992000
20
-42.500000
30
0.0
11
-24.304000
21
-42.500000
31
0.0
0
LINE
8
0
6
CONTINUOUS
10
-24.304000
20
-42.500000
30
0.0
11
-19.824000
21
-42.500000
31
0.0
0
LINE
8
0
6
CONTINUOUS
10
-19.824000
20
-42.500000
30
0.0
11
-13.888000
21
-42.500000
31
0.0
0
LINE
8
0
6
CONTINUOUS
10
-13.888000
20
-42.500000
30
0.0
11
-7.168000
21
-42.500000
31
0.0
0
LINE
8
0
6
CONTINUOUS
10
-7.168000
20
-42.500000
30
0.0
11
0.000000
21
-42.500000
31
0.0
0
LINE
8
0
6
CONTINUOUS
10
28.000000
20
-53.500000
30
0.0
11
26.992000
21
-53.500000
31
0.0
0
LINE
8
0
6
CONTINUOUS
10
26.992000
20
-53.500000
30
0.0
11
24.304000
21
-53.500000
31
0.0
0
LINE
8
0
6
CONTINUOUS
10
24.304000
20
-53.500000
30
0.0
11
19.824000
21
-53.500000
31
0.0
0
LINE
8
0
6
CONTINUOUS
10
19.824000
20
-53.500000
30
0.0
11
13.888000
21
-53.500000
31
0.0
0
LINE
8
0
6
CONTINUOUS
10
13.888000
20
-53.500000
30
0.0
11
7.168000
21
-53.500000
31
0.0
0
LINE
8
0
6
CONTINUOUS
10
7.168000
20
-53.500000
30
0.0
11
0.000000
21
-53.500000
31
0.0
0
LINE
8
0
6
CONTINUOUS
10
28.000000
20
-42.500000
30
0.0
11
26.992000
21
-42.500000
31
0.0
0
LINE
8
0
6
CONTINUOUS
10
26.992000
20
-53.500000
30
0.0
11
28.000000
21
-53.500000
31
0.0
0
LINE
8
0
6
CONTINUOUS
10
26.992000
20
-42.500000
30
0.0
11
24.304000
21
-42.500000
31
0.0
0
LINE
8
0
6
CONTINUOUS
10
24.304000
20
-53.500000
30
0.0
11
26.992000
21
-53.500000
31
0.0
0
LINE
8
0
6
CONTINUOUS
10
24.304000
20
-42.500000
30
0.0
11
19.824000
21
-42.500000
31
0.0
0
LINE
8
0
6
CONTINUOUS
10
19.824000
20
-53.500000
30
0.0
11
24.304000
21
-53.500000
31
0.0
0
LINE
8
0
6
CONTINUOUS
10
19.824000
20
-42.500000
30
0.0
11
13.888000
21
-42.500000
31
0.0
0
LINE
8
0
6
CONTINUOUS
10
13.888000
20
-53.500000
30
0.0
11
19.824000
21
-53.500000
31
0.0
0
LINE
8
0
6
CONTINUOUS
10
13.888000
20
-42.500000
30
0.0
11
7.168000
21
-42.500000
31
0.0
0
LINE
8
0
6
CONTINUOUS
10
7.168000
20
-53.500000
30
0.0
11
13.888000
21
-53.500000
31
0.0
0
LINE
8
0
6
CONTINUOUS
10
7.168000
20
-42.500000
30
0.0
11
0.000000
21
-42.500000
31
0.0
0
LINE
8
0
6
CONTINUOUS
10
0.000000
20
-53.500000
30
0.0
11
7.168000
21
-53.500000
31
0.0
0
LINE
8
0
6
CONTINUOUS
10
26.992000
20
-42.500000
30
0.0
11
28.000000
21
-42.500000
31
0.0
0
LINE
8
0
6
CONTINUOUS
10
24.304000
20
-42.500000
30
0.0
11
26.992000
21
-42.500000
31
0.0
0
LINE
8
0
6
CONTINUOUS
10
19.824000
20
-42.500000
30
0.0
11
24.304000
21
-42.500000
31
0.0
0
LINE
8
0
6
CONTINUOUS
10
13.888000
20
-42.500000
30
0.0
11
19.824000
21
-42.500000
31
0.0
0
LINE
8
0
6
CONTINUOUS
10
7.168000
20
-42.500000
30
0.0
11
13.888000
21
-42.500000
31
0.0
0
LINE
8
0
6
CONTINUOUS
10
0.000000
20
-42.500000
30
0.0
11
7.168000
21
-42.500000
31
0.0
0
LINE
8
0
6
CONTINUOUS
10
28.000000
20
-42.500000
30
0.0
11
28.000000
21
-53.500000
31
0.0
0
LINE
8
0
6
CONTINUOUS
10
26.992000
20
-42.500000
30
0.0
11
28.000000
21
-42.500000
31
0.0
0
LINE
8
0
6
CONTINUOUS
10
24.304000
20
-42.500000
30
0.0
11
26.992000
21
-42.500000
31
0.0
0
LINE
8
0
6
CONTINUOUS
10
19.824000
20
-42.500000
30
0.0
11
24.304000
21
-42.500000
31
0.0
0
LINE
8
0
6
CONTINUOUS
10
18.000000
20
-42.500000
30
0.0
11
19.824000
21
-42.500000
31
0.0
0
LINE
8
0
6
CONTINUOUS
10
28.000000
20
-42.500000
30
0.0
11
26.992000
21
-42.500000
31
0.0
0
LINE
8
0
6
CONTINUOUS
10
26.992000
20
-42.500000
30
0.0
11
24.304000
21
-42.500000
31
0.0
0
LINE
8
0
6
CONTINUOUS
10
24.304000
20
-42.500000
30
0.0
11
19.824000
21
-42.500000
31
0.0
0
LINE
8
0
6
CONTINUOUS
10
19.824000
20
-42.500000
30
0.0
11
18.000000
21
-42.500000
31
0.0
0
LINE
8
0
6
CONTINUOUS
10
27.520000
20
64.500000
30
0.0
11
33.760000
21
64.500000
31
0.0
0
LINE
8
0
6
CONTINUOUS
10
33.760000
20
64.500000
30
0.0
11
37.600000
21
64.500000
31
0.0
0
LINE
8
0
6
CONTINUOUS
10
37.600000
20
64.500000
30
0.0
11
39.040000
21
64.500000
31
0.0
0
LINE
8
0
6
CONTINUOUS
10
33.760000
20
64.500000
30
0.0
11
27.520000
21
64.500000
31
0.0
0
LINE
8
0
6
CONTINUOUS
10
37.600000
20
64.500000
30
0.0
11
33.760000
21
64.500000
31
0.0
0
LINE
8
0
6
CONTINUOUS
10
39.040000
20
64.500000
30
0.0
11
37.600000
21
64.500000
31
0.0
0
LINE
8
0
6
CONTINUOUS
10
0.000000
20
80.500000
30
0.0
11
10.240000
21
80.500000
31
0.0
0
LINE
8
0
6
CONTINUOUS
10
10.240000
20
80.500000
30
0.0
11
19.840000
21
80.500000
31
0.0
0
LINE
8
0
6
CONTINUOUS
10
19.840000
20
80.500000
30
0.0
11
28.320000
21
80.500000
31
0.0
0
LINE
8
0
6
CONTINUOUS
10
28.320000
20
80.500000
30
0.0
11
34.720000
21
80.500000
31
0.0
0
LINE
8
0
6
CONTINUOUS
10
34.720000
20
80.500000
30
0.0
11
38.560000
21
80.500000
31
0.0
0
LINE
8
0
6
CONTINUOUS
10
38.560000
20
80.500000
30
0.0
11
40.000000
21
80.500000
31
0.0
0
LINE
8
0
6
CONTINUOUS
10
10.240000
20
80.500000
30
0.0
11
0.000000
21
80.500000
31
0.0
0
LINE
8
0
6
CONTINUOUS
10
19.840000
20
80.500000
30
0.0
11
10.240000
21
80.500000
31
0.0
0
LINE
8
0
6
CONTINUOUS
10
28.320000
20
80.500000
30
0.0
11
19.840000
21
80.500000
31
0.0
0
LINE
8
0
6
CONTINUOUS
10
34.720000
20
80.500000
30
0.0
11
28.320000
21
80.500000
31
0.0
0
LINE
8
0
6
CONTINUOUS
10
38.560000
20
80.500000
30
0.0
11
34.720000
21
80.500000
31
0.0
0
LINE
8
0
6
CONTINUOUS
10
40.000000
20
80.500000
30
0.0
11
38.560000
21
80.500000
31
0.0
0
LINE
8
0
6
CONTINUOUS
10
-18.000000
20
64.500000
30
0.0
11
-10.080000
21
64.500000
31
0.0
0
LINE
8
0
6
CONTINUOUS
10
-27.520000
20
64.500000
30
0.0
11
-19.360000
21
64.500000
31
0.0
0
LINE
8
0
6
CONTINUOUS
10
-10.080000
20
64.500000
30
0.0
11
-18.000000
21
64.500000
31
0.0
0
LINE
8
0
6
CONTINUOUS
10
-19.360000
20
64.500000
30
0.0
11
-27.520000
21
64.500000
31
0.0
0
LINE
8
0
6
CONTINUOUS
10
-10.240000
20
80.500000
30
0.0
11
0.000000
21
80.500000
31
0.0
0
LINE
8
0
6
CONTINUOUS
10
-19.840000
20
80.500000
30
0.0
11
-10.240000
21
80.500000
31
0.0
0
LINE
8
0
6
CONTINUOUS
10
-28.320000
20
80.500000
30
0.0
11
-19.840000
21
80.500000
31
0.0
0
LINE
8
0
6
CONTINUOUS
10
-34.720000
20
80.500000
30
0.0
11
-28.320000
21
80.500000
31
0.0
0
LINE
8
0
6
CONTINUOUS
10
-38.560000
20
80.500000
30
0.0
11
-34.720000
21
80.500000
31
0.0
0
LINE
8
0
6
CONTINUOUS
10
-40.000000
20
80.500000
30
0.0
11
-38.560000
21
80.500000
31
0.0
0
LINE
8
0
6
CONTINUOUS
10
0.000000
20
80.500000
30
0.0
11
-10.240000
21
80.500000
31
0.0
0
LINE
8
0
6
CONTINUOUS
10
-10.240000
20
80.500000
30
0.0
11
-19.840000
21
80.500000
31
0.0
0
LINE
8
0
6
CONTINUOUS
10
-19.840000
20
80.500000
30
0.0
11
-28.320000
21
80.500000
31
0.0
0
LINE
8
0
6
CONTINUOUS
10
-28.320000
20
80.500000
30
0.0
11
-34.720000
21
80.500000
31
0.0
0
LINE
8
0
6
CONTINUOUS
10
-34.720000
20
80.500000
30
0.0
11
-38.560000
21
80.500000
31
0.0
0
LINE
8
0
6
CONTINUOUS
10
-38.560000
20
80.500000
30
0.0
11
-40.000000
21
80.500000
31
0.0
0
LINE
8
0
6
CONTINUOUS
10
0.000000
20
64.500000
30
0.0
11
-10.080000
21
64.500000
31
0.0
0
LINE
8
0
6
CONTINUOUS
10
-10.080000
20
64.500000
30
0.0
11
-19.360000
21
64.500000
31
0.0
0
LINE
8
0
6
CONTINUOUS
10
-19.360000
20
64.500000
30
0.0
11
-27.520000
21
64.500000
31
0.0
0
LINE
8
0
6
CONTINUOUS
10
0.000000
20
65.460000
30
0.0
11
-10.240000
21
65.460000
31
0.0
0
LINE
8
0
6
CONTINUOUS
10
-10.080000
20
64.500000
30
0.0
11
0.000000
21
64.500000
31
0.0
0
LINE
8
0
6
CONTINUOUS
10
-10.240000
20
65.460000
30
0.0
11
-19.840000
21
65.460000
31
0.0
0
LINE
8
0
6
CONTINUOUS
10
-19.360000
20
64.500000
30
0.0
11
-10.080000
21
64.500000
31
0.0
0
LINE
8
0
6
CONTINUOUS
10
-19.840000
20
65.460000
30
0.0
11
-28.320000
21
65.460000
31
0.0
0
LINE
8
0
6
CONTINUOUS
10
-27.520000
20
64.500000
30
0.0
11
-19.360000
21
64.500000
31
0.0
0
LINE
8
0
6
CONTINUOUS
10
-28.320000
20
65.460000
30
0.0
11
-34.720000
21
65.460000
31
0.0
0
LINE
8
0
6
CONTINUOUS
10
-33.760000
20
64.500000
30
0.0
11
-27.520000
21
64.500000
31
0.0
0
LINE
8
0
6
CONTINUOUS
10
-34.720000
20
65.460000
30
0.0
11
-38.560000
21
65.460000
31
0.0
0
LINE
8
0
6
CONTINUOUS
10
-37.600000
20
64.500000
30
0.0
11
-33.760000
21
64.500000
31
0.0
0
LINE
8
0
6
CONTINUOUS
10
-40.000000
20
65.460000
30
0.0
11
-39.040000
21
64.500000
31
0.0
0
LINE
8
0
6
CONTINUOUS
10
-38.560000
20
65.460000
30
0.0
11
-40.000000
21
65.460000
31
0.0
0
LINE
8
0
6
CONTINUOUS
10
-39.040000
20
64.500000
30
0.0
11
-37.600000
21
64.500000
31
0.0
0
LINE
8
0
6
CONTINUOUS
10
0.000000
20
80.500000
30
0.0
11
-10.240000
21
80.500000
31
0.0
0
LINE
8
0
6
CONTINUOUS
10
-10.240000
20
65.460000
30
0.0
11
0.000000
21
65.460000
31
0.0
0
LINE
8
0
6
CONTINUOUS
10
-10.240000
20
80.500000
30
0.0
11
-19.840000
21
80.500000
31
0.0
0
LINE
8
0
6
CONTINUOUS
10
-19.840000
20
65.460000
30
0.0
11
-10.240000
21
65.460000
31
0.0
0
LINE
8
0
6
CONTINUOUS
10
-19.840000
20
80.500000
30
0.0
11
-28.320000
21
80.500000
31
0.0
0
LINE
8
0
6
CONTINUOUS
10
-28.320000
20
65.460000
30
0.0
11
-19.840000
21
65.460000
31
0.0
0
LINE
8
0
6
CONTINUOUS
10
-28.320000
20
80.500000
30
0.0
11
-34.720000
21
80.500000
31
0.0
0
LINE
8
0
6
CONTINUOUS
10
-34.720000
20
65.460000
30
0.0
11
-28.320000
21
65.460000
31
0.0
0
LINE
8
0
6
CONTINUOUS
10
-34.720000
20
80.500000
30
0.0
11
-38.560000
21
80.500000
31
0.0
0
LINE
8
0
6
CONTINUOUS
10
-38.560000
20
65.460000
30
0.0
11
-34.720000
21
65.460000
31
0.0
0
LINE
8
0
6
CONTINUOUS
10
-40.000000
20
80.500000
30
0.0
11
-40.000000
21
65.460000
31
0.0
0
LINE
8
0
6
CONTINUOUS
10
-38.560000
20
80.500000
30
0.0
11
-40.000000
21
80.500000
31
0.0
0
LINE
8
0
6
CONTINUOUS
10
-40.000000
20
65.460000
30
0.0
11
-38.560000
21
65.460000
31
0.0
0
LINE
8
0
6
CONTINUOUS
10
-10.240000
20
80.500000
30
0.0
11
0.000000
21
80.500000
31
0.0
0
LINE
8
0
6
CONTINUOUS
10
-19.840000
20
80.500000
30
0.0
11
-10.240000
21
80.500000
31
0.0
0
LINE
8
0
6
CONTINUOUS
10
-28.320000
20
80.500000
30
0.0
11
-19.840000
21
80.500000
31
0.0
0
LINE
8
0
6
CONTINUOUS
10
-34.720000
20
80.500000
30
0.0
11
-28.320000
21
80.500000
31
0.0
0
LINE
8
0
6
CONTINUOUS
10
-38.560000
20
80.500000
30
0.0
11
-34.720000
21
80.500000
31
0.0
0
LINE
8
0
6
CONTINUOUS
10
-40.000000
20
80.500000
30
0.0
11
-38.560000
21
80.500000
31
0.0
0
LINE
8
0
6
CONTINUOUS
10
10.080000
20
64.500000
30
0.0
11
0.000000
21
64.500000
31
0.0
0
LINE
8
0
6
CONTINUOUS
10
33.760000
20
64.500000
30
0.0
11
27.520000
21
64.500000
31
0.0
0
LINE
8
0
6
CONTINUOUS
10
37.600000
20
64.500000
30
0.0
11
33.760000
21
64.500000
31
0.0
0
LINE
8
0
6
CONTINUOUS
10
39.040000
20
64.500000
30
0.0
11
37.600000
21
64.500000
31
0.0
0
LINE
8
0
6
CONTINUOUS
10
0.000000
20
64.500000
30
0.0
11
10.080000
21
64.500000
31
0.0
0
LINE
8
0
6
CONTINUOUS
10
10.240000
20
65.460000
30
0.0
11
0.000000
21
65.460000
31
0.0
0
LINE
8
0
6
CONTINUOUS
10
10.080000
20
64.500000
30
0.0
11
19.360000
21
64.500000
31
0.0
0
LINE
8
0
6
CONTINUOUS
10
19.840000
20
65.460000
30
0.0
11
10.240000
21
65.460000
31
0.0
0
LINE
8
0
6
CONTINUOUS
10
19.360000
20
64.500000
30
0.0
11
27.520000
21
64.500000
31
0.0
0
LINE
8
0
6
CONTINUOUS
10
28.320000
20
65.460000
30
0.0
11
19.840000
21
65.460000
31
0.0
0
LINE
8
0
6
CONTINUOUS
10
27.520000
20
64.500000
30
0.0
11
33.760000
21
64.500000
31
0.0
0
LINE
8
0
6
CONTINUOUS
10
34.720000
20
65.460000
30
0.0
11
28.320000
21
65.460000
31
0.0
0
LINE
8
0
6
CONTINUOUS
10
33.760000
20
64.500000
30
0.0
11
37.600000
21
64.500000
31
0.0
0
LINE
8
0
6
CONTINUOUS
10
38.560000
20
65.460000
30
0.0
11
34.720000
21
65.460000
31
0.0
0
LINE
8
0
6
CONTINUOUS
10
39.040000
20
64.500000
30
0.0
11
40.000000
21
65.460000
31
0.0
0
LINE
8
0
6
CONTINUOUS
10
37.600000
20
64.500000
30
0.0
11
39.040000
21
64.500000
31
0.0
0
LINE
8
0
6
CONTINUOUS
10
40.000000
20
65.460000
30
0.0
11
38.560000
21
65.460000
31
0.0
0
LINE
8
0
6
CONTINUOUS
10
0.000000
20
65.460000
30
0.0
11
10.240000
21
65.460000
31
0.0
0
LINE
8
0
6
CONTINUOUS
10
10.240000
20
80.500000
30
0.0
11
0.000000
21
80.500000
31
0.0
0
LINE
8
0
6
CONTINUOUS
10
10.240000
20
65.460000
30
0.0
11
19.840000
21
65.460000
31
0.0
0
LINE
8
0
6
CONTINUOUS
10
19.840000
20
80.500000
30
0.0
11
10.240000
21
80.500000
31
0.0
0
LINE
8
0
6
CONTINUOUS
10
19.840000
20
65.460000
30
0.0
11
28.320000
21
65.460000
31
0.0
0
LINE
8
0
6
CONTINUOUS
10
28.320000
20
80.500000
30
0.0
11
19.840000
21
80.500000
31
0.0
0
LINE
8
0
6
CONTINUOUS
10
28.320000
20
65.460000
30
0.0
11
34.720000
21
65.460000
31
0.0
0
LINE
8
0
6
CONTINUOUS
10
34.720000
20
80.500000
30
0.0
11
28.320000
21
80.500000
31
0.0
0
LINE
8
0
6
CONTINUOUS
10
34.720000
20
65.460000
30
0.0
11
38.560000
21
65.460000
31
0.0
0
LINE
8
0
6
CONTINUOUS
10
38.560000
20
80.500000
30
0.0
11
34.720000
21
80.500000
31
0.0
0
LINE
8
0
6
CONTINUOUS
10
40.000000
20
65.460000
30
0.0
11
40.000000
21
80.500000
31
0.0
0
LINE
8
0
6
CONTINUOUS
10
38.560000
20
65.460000
30
0.0
11
40.000000
21
65.460000
31
0.0
0
LINE
8
0
6
CONTINUOUS
10
40.000000
20
80.500000
30
0.0
11
38.560000
21
80.500000
31
0.0
0
LINE
8
0
6
CONTINUOUS
10
0.000000
20
80.500000
30
0.0
11
10.240000
21
80.500000
31
0.0
0
LINE
8
0
6
CONTINUOUS
10
10.240000
20
80.500000
30
0.0
11
19.840000
21
80.500000
31
0.0
0
LINE
8
0
6
CONTINUOUS
10
19.840000
20
80.500000
30
0.0
11
28.320000
21
80.500000
31
0.0
0
LINE
8
0
6
CONTINUOUS
10
28.320000
20
80.500000
30
0.0
11
34.720000
21
80.500000
31
0.0
0
LINE
8
0
6
CONTINUOUS
10
34.720000
20
80.500000
30
0.0
11
38.560000
21
80.500000
31
0.0
0
LINE
8
0
6
CONTINUOUS
10
38.560000
20
80.500000
30
0.0
11
40.000000
21
80.500000
31
0.0
0
LINE
8
0
6
CONTINUOUS
10
118.954000
20
-56.500000
30
0.0
11
115.212000
21
-56.500000
31
0.0
0
LINE
8
0
6
CONTINUOUS
10
115.212000
20
-56.500000
30
0.0
11
111.148000
21
-56.500000
31
0.0
0
LINE
8
0
6
CONTINUOUS
10
111.148000
20
-56.500000
30
0.0
11
105.921000
21
-56.500000
31
0.0
0
LINE
8
0
6
CONTINUOUS
10
105.921000
20
-56.500000
30
0.0
11
99.679000
21
-56.500000
31
0.0
0
LINE
8
0
6
CONTINUOUS
10
99.679000
20
-56.500000
30
0.0
11
89.227000
21
-56.500000
31
0.0
0
LINE
8
0
6
CONTINUOUS
10
89.227000
20
-56.500000
30
0.0
11
73.259000
21
-56.500000
31
0.0
0
LINE
8
0
6
CONTINUOUS
10
73.259000
20
-56.500000
30
0.0
11
51.697000
21
-56.500000
31
0.0
0
LINE
8
0
6
CONTINUOUS
10
51.697000
20
-56.500000
30
0.0
11
27.605000
21
-56.500000
31
0.0
0
LINE
8
0
6
CONTINUOUS
10
27.605000
20
-56.500000
30
0.0
11
0.000000
21
-56.500000
31
0.0
0
LINE
8
0
6
CONTINUOUS
10
106.417000
20
-66.500000
30
0.0
11
109.874000
21
-66.500000
31
0.0
0
LINE
8
0
6
CONTINUOUS
10
102.663000
20
-66.500000
30
0.0
11
106.417000
21
-66.500000
31
0.0
0
LINE
8
0
6
CONTINUOUS
10
97.836000
20
-66.500000
30
0.0
11
102.663000
21
-66.500000
31
0.0
0
LINE
8
0
6
CONTINUOUS
10
92.070000
20
-66.500000
30
0.0
11
97.836000
21
-66.500000
31
0.0
0
LINE
8
0
6
CONTINUOUS
10
82.416000
20
-66.500000
30
0.0
11
92.070000
21
-66.500000
31
0.0
0
LINE
8
0
6
CONTINUOUS
10
67.667000
20
-66.500000
30
0.0
11
82.416000
21
-66.500000
31
0.0
0
LINE
8
0
6
CONTINUOUS
10
47.751000
20
-66.500000
30
0.0
11
67.667000
21
-66.500000
31
0.0
0
LINE
8
0
6
CONTINUOUS
10
25.498000
20
-66.500000
30
0.0
11
47.751000
21
-66.500000
31
0.0
0
LINE
8
0
6
CONTINUOUS
10
0.000000
20
-66.500000
30
0.0
11
25.498000
21
-66.500000
31
0.0
0
LINE
8
0
6
CONTINUOUS
10
115.212000
20
-56.500000
30
0.0
11
118.954000
21
-56.500000
31
0.0
0
LINE
8
0
6
CONTINUOUS
10
111.148000
20
-56.500000
30
0.0
11
115.212000
21
-56.500000
31
0.0
0
LINE
8
0
6
CONTINUOUS
10
110.299000
20
-55.500000
30
0.0
11
105.113000
21
-55.500000
31
0.0
0
LINE
8
0
6
CONTINUOUS
10
105.921000
20
-56.500000
30
0.0
11
111.148000
21
-56.500000
31
0.0
0
LINE
8
0
6
CONTINUOUS
10
105.113000
20
-55.500000
30
0.0
11
98.918000
21
-55.500000
31
0.0
0
LINE
8
0
6
CONTINUOUS
10
99.679000
20
-56.500000
30
0.0
11
105.921000
21
-56.500000
31
0.0
0
LINE
8
0
6
CONTINUOUS
10
98.918000
20
-55.500000
30
0.0
11
88.546000
21
-55.500000
31
0.0
0
LINE
8
0
6
CONTINUOUS
10
89.227000
20
-56.500000
30
0.0
11
99.679000
21
-56.500000
31
0.0
0
LINE
8
0
6
CONTINUOUS
10
88.546000
20
-55.500000
30
0.0
11
72.700000
21
-55.500000
31
0.0
0
LINE
8
0
6
CONTINUOUS
10
73.259000
20
-56.500000
30
0.0
11
89.227000
21
-56.500000
31
0.0
0
LINE
8
0
6
CONTINUOUS
10
72.700000
20
-55.500000
30
0.0
11
51.303000
21
-55.500000
31
0.0
0
LINE
8
0
6
CONTINUOUS
10
51.697000
20
-56.500000
30
0.0
11
73.259000
21
-56.500000
31
0.0
0
LINE
8
0
6
CONTINUOUS
10
51.303000
20
-55.500000
30
0.0
11
27.395000
21
-55.500000
31
0.0
0
LINE
8
0
6
CONTINUOUS
10
27.605000
20
-56.500000
30
0.0
11
51.697000
21
-56.500000
31
0.0
0
LINE
8
0
6
CONTINUOUS
10
27.395000
20
-55.500000
30
0.0
11
0.000000
21
-55.500000
31
0.0
0
LINE
8
0
6
CONTINUOUS
10
0.000000
20
-56.500000
30
0.0
11
27.605000
21
-56.500000
31
0.0
0
LINE
8
0
6
CONTINUOUS
10
105.113000
20
-55.500000
30
0.0
11
110.299000
21
-55.500000
31
0.0
0
LINE
8
0
6
CONTINUOUS
10
98.918000
20
-55.500000
30
0.0
11
105.113000
21
-55.500000
31
0.0
0
LINE
8
0
6
CONTINUOUS
10
88.546000
20
-55.500000
30
0.0
11
98.918000
21
-55.500000
31
0.0
0
LINE
8
0
6
CONTINUOUS
10
72.700000
20
-55.500000
30
0.0
11
88.546000
21
-55.500000
31
0.0
0
LINE
8
0
6
CONTINUOUS
10
51.303000
20
-55.500000
30
0.0
11
72.700000
21
-55.500000
31
0.0
0
LINE
8
0
6
CONTINUOUS
10
27.395000
20
-55.500000
30
0.0
11
51.303000
21
-55.500000
31
0.0
0
LINE
8
0
6
CONTINUOUS
10
0.000000
20
-55.500000
30
0.0
11
27.395000
21
-55.500000
31
0.0
0
LINE
8
0
6
CONTINUOUS
10
91.713000
20
-53.500000
30
0.0
11
88.828000
21
-53.500000
31
0.0
0
LINE
8
0
6
CONTINUOUS
10
88.828000
20
-53.500000
30
0.0
11
85.694000
21
-53.500000
31
0.0
0
LINE
8
0
6
CONTINUOUS
10
85.694000
20
-53.500000
30
0.0
11
81.665000
21
-53.500000
31
0.0
0
LINE
8
0
6
CONTINUOUS
10
81.665000
20
-53.500000
30
0.0
11
76.852000
21
-53.500000
31
0.0
0
LINE
8
0
6
CONTINUOUS
10
76.852000
20
-53.500000
30
0.0
11
68.794000
21
-53.500000
31
0.0
0
LINE
8
0
6
CONTINUOUS
10
68.794000
20
-53.500000
30
0.0
11
56.482000
21
-53.500000
31
0.0
0
LINE
8
0
6
CONTINUOUS
10
56.482000
20
-53.500000
30
0.0
11
39.858000
21
-53.500000
31
0.0
0
LINE
8
0
6
CONTINUOUS
10
39.858000
20
-53.500000
30
0.0
11
21.284000
21
-53.500000
31
0.0
0
LINE
8
0
6
CONTINUOUS
10
21.284000
20
-53.500000
30
0.0
11
0.000000
21
-53.500000
31
0.0
0
LINE
8
0
6
CONTINUOUS
10
121.776000
20
-56.500000
30
0.0
11
118.954000
21
-56.500000
31
0.0
0
LINE
8
0
6
CONTINUOUS
10
123.955000
20
-56.500000
30
0.0
11
121.776000
21
-56.500000
31
0.0
0
LINE
8
0
6
CONTINUOUS
10
125.262000
20
-56.500000
30
0.0
11
123.955000
21
-56.500000
31
0.0
0
LINE
8
0
6
CONTINUOUS
10
126.279000
20
-56.500000
30
0.0
11
125.262000
21
-56.500000
31
0.0
0
LINE
8
0
6
CONTINUOUS
10
127.441000
20
-56.500000
30
0.0
11
126.279000
21
-56.500000
31
0.0
0
LINE
8
0
6
CONTINUOUS
10
128.603000
20
-56.500000
30
0.0
11
127.441000
21
-56.500000
31
0.0
0
LINE
8
0
6
CONTINUOUS
10
129.996000
20
-56.500000
30
0.0
11
128.603000
21
-56.500000
31
0.0
0
LINE
8
0
6
CONTINUOUS
10
130.498000
20
-56.500000
30
0.0
11
129.996000
21
-56.500000
31
0.0
0
LINE
8
0
6
CONTINUOUS
10
131.000000
20
-56.500000
30
0.0
11
130.498000
21
-56.500000
31
0.0
0
LINE
8
0
6
CONTINUOUS
10
109.874000
20
-66.500000
30
0.0
11
112.480000
21
-66.500000
31
0.0
0
LINE
8
0
6
CONTINUOUS
10
112.480000
20
-66.500000
30
0.0
11
114.493000
21
-66.500000
31
0.0
0
LINE
8
0
6
CONTINUOUS
10
114.493000
20
-66.500000
30
0.0
11
115.700000
21
-66.500000
31
0.0
0
LINE
8
0
6
CONTINUOUS
10
115.700000
20
-66.500000
30
0.0
11
116.639000
21
-66.500000
31
0.0
0
LINE
8
0
6
CONTINUOUS
10
116.639000
20
-66.500000
30
0.0
11
117.712000
21
-66.500000
31
0.0
0
LINE
8
0
6
CONTINUOUS
10
117.712000
20
-66.500000
30
0.0
11
118.786000
21
-66.500000
31
0.0
0
LINE
8
0
6
CONTINUOUS
10
118.786000
20
-66.500000
30
0.0
11
120.073000
21
-66.500000
31
0.0
0
LINE
8
0
6
CONTINUOUS
10
120.073000
20
-66.500000
30
0.0
11
120.536000
21
-66.500000
31
0.0
0
LINE
8
0
6
CONTINUOUS
10
120.536000
20
-66.500000
30
0.0
11
121.000000
21
-66.500000
31
0.0
0
LINE
8
0
6
CONTINUOUS
10
131.000000
20
-56.500000
30
0.0
11
131.000000
21
-57.500000
31
0.0
0
LINE
8
0
6
CONTINUOUS
10
131.000000
20
-57.500000
30
0.0
11
130.000000
21
-60.500000
31
0.0
0
LINE
8
0
6
CONTINUOUS
10
130.000000
20
-60.500000
30
0.0
11
127.000000
21
-63.500000
31
0.0
0
LINE
8
0
6
CONTINUOUS
10
127.000000
20
-63.500000
30
0.0
11
124.000000
21
-65.500000
31
0.0
0
LINE
8
0
6
CONTINUOUS
10
124.000000
20
-65.500000
30
0.0
11
121.000000
21
-66.500000
31
0.0
0
LINE
8
0
6
CONTINUOUS
10
118.954000
20
-56.500000
30
0.0
11
121.776000
21
-56.500000
31
0.0
0
LINE
8
0
6
CONTINUOUS
10
121.776000
20
-56.500000
30
0.0
11
123.955000
21
-56.500000
31
0.0
0
LINE
8
0
6
CONTINUOUS
10
123.955000
20
-56.500000
30
0.0
11
125.262000
21
-56.500000
31
0.0
0
LINE
8
0
6
CONTINUOUS
10
124.306000
20
-55.500000
30
0.0
11
123.009000
21
-55.500000
31
0.0
0
LINE
8
0
6
CONTINUOUS
10
125.262000
20
-56.500000
30
0.0
11
126.279000
21
-56.500000
31
0.0
0
LINE
8
0
6
CONTINUOUS
10
125.315000
20
-55.500000
30
0.0
11
124.306000
21
-55.500000
31
0.0
0
LINE
8
0
6
CONTINUOUS
10
126.279000
20
-56.500000
30
0.0
11
127.441000
21
-56.500000
31
0.0
0
LINE
8
0
6
CONTINUOUS
10
126.468000
20
-55.500000
30
0.0
11
125.315000
21
-55.500000
31
0.0
0
LINE
8
0
6
CONTINUOUS
10
127.441000
20
-56.500000
30
0.0
11
128.603000
21
-56.500000
31
0.0
0
LINE
8
0
6
CONTINUOUS
10
127.621000
20
-55.500000
30
0.0
11
126.468000
21
-55.500000
31
0.0
0
LINE
8
0
6
CONTINUOUS
10
128.603000
20
-56.500000
30
0.0
11
129.996000
21
-56.500000
31
0.0
0
LINE
8
0
6
CONTINUOUS
10
129.004000
20
-55.500000
30
0.0
11
127.621000
21
-55.500000
31
0.0
0
LINE
8
0
6
CONTINUOUS
10
129.996000
20
-56.500000
30
0.0
11
130.498000
21
-56.500000
31
0.0
0
LINE
8
0
6
CONTINUOUS
10
129.502000
20
-55.500000
30
0.0
11
129.004000
21
-55.500000
31
0.0
0
LINE
8
0
6
CONTINUOUS
10
130.498000
20
-56.500000
30
0.0
11
131.000000
21
-56.500000
31
0.0
0
LINE
8
0
6
CONTINUOUS
10
130.000000
20
-55.500000
30
0.0
11
129.502000
21
-55.500000
31
0.0
0
LINE
8
0
6
CONTINUOUS
10
123.009000
20
-55.500000
30
0.0
11
124.306000
21
-55.500000
31
0.0
0
LINE
8
0
6
CONTINUOUS
10
124.306000
20
-55.500000
30
0.0
11
125.315000
21
-55.500000
31
0.0
0
LINE
8
0
6
CONTINUOUS
10
125.315000
20
-55.500000
30
0.0
11
126.468000
21
-55.500000
31
0.0
0
LINE
8
0
6
CONTINUOUS
10
126.468000
20
-55.500000
30
0.0
11
127.621000
21
-55.500000
31
0.0
0
LINE
8
0
6
CONTINUOUS
10
127.621000
20
-55.500000
30
0.0
11
129.004000
21
-55.500000
31
0.0
0
LINE
8
0
6
CONTINUOUS
10
129.004000
20
-55.500000
30
0.0
11
129.502000
21
-55.500000
31
0.0
0
LINE
8
0
6
CONTINUOUS
10
129.502000
20
-55.500000
30
0.0
11
130.000000
21
-55.500000
31
0.0
0
LINE
8
0
6
CONTINUOUS
10
93.889000
20
-53.500000
30
0.0
11
91.713000
21
-53.500000
31
0.0
0
LINE
8
0
6
CONTINUOUS
10
95.568000
20
-53.500000
30
0.0
11
93.889000
21
-53.500000
31
0.0
0
LINE
8
0
6
CONTINUOUS
10
96.576000
20
-53.500000
30
0.0
11
95.568000
21
-53.500000
31
0.0
0
LINE
8
0
6
CONTINUOUS
10
97.360000
20
-53.500000
30
0.0
11
96.576000
21
-53.500000
31
0.0
0
LINE
8
0
6
CONTINUOUS
10
98.256000
20
-53.500000
30
0.0
11
97.360000
21
-53.500000
31
0.0
0
LINE
8
0
6
CONTINUOUS
10
99.152000
20
-53.500000
30
0.0
11
98.256000
21
-53.500000
31
0.0
0
LINE
8
0
6
CONTINUOUS
10
100.226000
20
-53.500000
30
0.0
11
99.152000
21
-53.500000
31
0.0
0
LINE
8
0
6
CONTINUOUS
10
100.613000
20
-53.500000
30
0.0
11
100.226000
21
-53.500000
31
0.0
0
LINE
8
0
6
CONTINUOUS
10
101.000000
20
-53.500000
30
0.0
11
100.613000
21
-53.500000
31
0.0
0
LINE
8
0
6
CONTINUOUS
10
101.000000
20
-53.500000
30
0.0
11
121.000000
21
-54.500000
31
0.0
0
LINE
8
0
6
CONTINUOUS
10
121.000000
20
-54.500000
30
0.0
11
130.000000
21
-55.500000
31
0.0
0
LINE
8
0
6
CONTINUOUS
10
130.000000
20
-55.500000
30
0.0
11
131.000000
21
-56.500000
31
0.0
0
LINE
8
0
6
CONTINUOUS
10
-131.000000
20
-57.500000
30
0.0
11
-130.000000
21
-60.500000
31
0.0
0
LINE
8
0
6
CONTINUOUS
10
-118.954000
20
-56.500000
30
0.0
11
-121.776130
21
-56.500000
31
0.0
0
LINE
8
0
6
CONTINUOUS
10
-121.776130
20
-56.500000
30
0.0
11
-123.954840
21
-56.500000
31
0.0
0
LINE
8
0
6
CONTINUOUS
10
-123.954840
20
-56.500000
30
0.0
11
-125.262070
21
-56.500000
31
0.0
0
LINE
8
0
6
CONTINUOUS
10
-125.262070
20
-56.500000
30
0.0
11
-126.278810
21
-56.500000
31
0.0
0
LINE
8
0
6
CONTINUOUS
10
-126.278810
20
-56.500000
30
0.0
11
-127.440790
21
-56.500000
31
0.0
0
LINE
8
0
6
CONTINUOUS
10
-127.440790
20
-56.500000
30
0.0
11
-128.602770
21
-56.500000
31
0.0
0
LINE
8
0
6
CONTINUOUS
10
-128.602770
20
-56.500000
30
0.0
11
-129.996170
21
-56.500000
31
0.0
0
LINE
8
0
6
CONTINUOUS
10
-129.996170
20
-56.500000
30
0.0
11
-130.498084
21
-56.500000
31
0.0
0
LINE
8
0
6
CONTINUOUS
10
-131.000000
20
-56.500000
30
0.0
11
-131.000000
21
-57.500000
31
0.0
0
LINE
8
0
6
CONTINUOUS
10
-130.498084
20
-56.500000
30
0.0
11
-131.000000
21
-56.500000
31
0.0
0
LINE
8
0
6
CONTINUOUS
10
-112.480200
20
-66.500000
30
0.0
11
-109.873600
21
-66.500000
31
0.0
0
LINE
8
0
6
CONTINUOUS
10
-114.492600
20
-66.500000
30
0.0
11
-112.480200
21
-66.500000
31
0.0
0
LINE
8
0
6
CONTINUOUS
10
-115.700100
20
-66.500000
30
0.0
11
-114.492600
21
-66.500000
31
0.0
0
LINE
8
0
6
CONTINUOUS
10
-116.639200
20
-66.500000
30
0.0
11
-115.700100
21
-66.500000
31
0.0
0
LINE
8
0
6
CONTINUOUS
10
-117.712500
20
-66.500000
30
0.0
11
-116.639200
21
-66.500000
31
0.0
0
LINE
8
0
6
CONTINUOUS
10
-118.785800
20
-66.500000
30
0.0
11
-117.712500
21
-66.500000
31
0.0
0
LINE
8
0
6
CONTINUOUS
10
-120.072800
20
-66.500000
30
0.0
11
-118.785800
21
-66.500000
31
0.0
0
LINE
8
0
6
CONTINUOUS
10
-120.536400
20
-66.500000
30
0.0
11
-120.072800
21
-66.500000
31
0.0
0
LINE
8
0
6
CONTINUOUS
10
-124.000000
20
-65.500000
30
0.0
11
-121.000000
21
-66.500000
31
0.0
0
LINE
8
0
6
CONTINUOUS
10
-121.000000
20
-66.500000
30
0.0
11
-120.536400
21
-66.500000
31
0.0
0
LINE
8
0
6
CONTINUOUS
10
-130.000000
20
-60.500000
30
0.0
11
-127.000000
21
-63.500000
31
0.0
0
LINE
8
0
6
CONTINUOUS
10
-127.000000
20
-63.500000
30
0.0
11
-124.000000
21
-65.500000
31
0.0
0
LINE
8
0
6
CONTINUOUS
10
-118.954000
20
-56.500000
30
0.0
11
-115.212200
21
-56.500000
31
0.0
0
LINE
8
0
6
CONTINUOUS
10
-115.212200
20
-56.500000
30
0.0
11
-111.147500
21
-56.500000
31
0.0
0
LINE
8
0
6
CONTINUOUS
10
-111.147500
20
-56.500000
30
0.0
11
-105.921500
21
-56.500000
31
0.0
0
LINE
8
0
6
CONTINUOUS
10
-105.113000
20
-55.500000
30
0.0
11
-110.299100
21
-55.500000
31
0.0
0
LINE
8
0
6
CONTINUOUS
10
-105.921500
20
-56.500000
30
0.0
11
-99.679400
21
-56.500000
31
0.0
0
LINE
8
0
6
CONTINUOUS
10
-98.918400
20
-55.500000
30
0.0
11
-105.113000
21
-55.500000
31
0.0
0
LINE
8
0
6
CONTINUOUS
10
-99.679400
20
-56.500000
30
0.0
11
-89.227300
21
-56.500000
31
0.0
0
LINE
8
0
6
CONTINUOUS
10
-88.546200
20
-55.500000
30
0.0
11
-98.918400
21
-55.500000
31
0.0
0
LINE
8
0
6
CONTINUOUS
10
-89.227300
20
-56.500000
30
0.0
11
-73.259000
21
-56.500000
31
0.0
0
LINE
8
0
6
CONTINUOUS
10
-72.699700
20
-55.500000
30
0.0
11
-88.546200
21
-55.500000
31
0.0
0
LINE
8
0
6
CONTINUOUS
10
-73.259000
20
-56.500000
30
0.0
11
-51.697300
21
-56.500000
31
0.0
0
LINE
8
0
6
CONTINUOUS
10
-51.302700
20
-55.500000
30
0.0
11
-72.699700
21
-55.500000
31
0.0
0
LINE
8
0
6
CONTINUOUS
10
-51.697300
20
-56.500000
30
0.0
11
-27.605000
21
-56.500000
31
0.0
0
LINE
8
0
6
CONTINUOUS
10
-27.395000
20
-55.500000
30
0.0
11
-51.302700
21
-55.500000
31
0.0
0
LINE
8
0
6
CONTINUOUS
10
-27.605000
20
-56.500000
30
0.0
11
0.000000
21
-56.500000
31
0.0
0
LINE
8
0
6
CONTINUOUS
10
0.000000
20
-55.500000
30
0.0
11
-27.395000
21
-55.500000
31
0.0
0
LINE
8
0
6
CONTINUOUS
10
-110.299100
20
-55.500000
30
0.0
11
-105.113000
21
-55.500000
31
0.0
0
LINE
8
0
6
CONTINUOUS
10
-105.113000
20
-55.500000
30
0.0
11
-98.918400
21
-55.500000
31
0.0
0
LINE
8
0
6
CONTINUOUS
10
-98.918400
20
-55.500000
30
0.0
11
-88.546200
21
-55.500000
31
0.0
0
LINE
8
0
6
CONTINUOUS
10
-88.546200
20
-55.500000
30
0.0
11
-72.699700
21
-55.500000
31
0.0
0
LINE
8
0
6
CONTINUOUS
10
-72.699700
20
-55.500000
30
0.0
11
-51.302700
21
-55.500000
31
0.0
0
LINE
8
0
6
CONTINUOUS
10
-51.302700
20
-55.500000
30
0.0
11
-27.395000
21
-55.500000
31
0.0
0
LINE
8
0
6
CONTINUOUS
10
-27.395000
20
-55.500000
30
0.0
11
0.000000
21
-55.500000
31
0.0
0
LINE
8
0
6
CONTINUOUS
10
-88.827700
20
-53.500000
30
0.0
11
-91.712600
21
-53.500000
31
0.0
0
LINE
8
0
6
CONTINUOUS
10
-85.693900
20
-53.500000
30
0.0
11
-88.827700
21
-53.500000
31
0.0
0
LINE
8
0
6
CONTINUOUS
10
-81.664700
20
-53.500000
30
0.0
11
-85.693900
21
-53.500000
31
0.0
0
LINE
8
0
6
CONTINUOUS
10
-76.852000
20
-53.500000
30
0.0
11
-81.664700
21
-53.500000
31
0.0
0
LINE
8
0
6
CONTINUOUS
10
-68.793600
20
-53.500000
30
0.0
11
-76.852000
21
-53.500000
31
0.0
0
LINE
8
0
6
CONTINUOUS
10
-56.482100
20
-53.500000
30
0.0
11
-68.793600
21
-53.500000
31
0.0
0
LINE
8
0
6
CONTINUOUS
10
-39.858200
20
-53.500000
30
0.0
11
-56.482100
21
-53.500000
31
0.0
0
LINE
8
0
6
CONTINUOUS
10
-21.284000
20
-53.500000
30
0.0
11
-39.858200
21
-53.500000
31
0.0
0
LINE
8
0
6
CONTINUOUS
10
0.000000
20
-53.500000
30
0.0
11
-21.284000
21
-53.500000
31
0.0
0
LINE
8
0
6
CONTINUOUS
10
-121.776130
20
-56.500000
30
0.0
11
-118.954000
21
-56.500000
31
0.0
0
LINE
8
0
6
CONTINUOUS
10
-123.954840
20
-56.500000
30
0.0
11
-121.776130
21
-56.500000
31
0.0
0
LINE
8
0
6
CONTINUOUS
10
-123.008620
20
-55.500000
30
0.0
11
-124.305870
21
-55.500000
31
0.0
0
LINE
8
0
6
CONTINUOUS
10
-125.262070
20
-56.500000
30
0.0
11
-123.954840
21
-56.500000
31
0.0
0
LINE
8
0
6
CONTINUOUS
10
-124.305870
20
-55.500000
30
0.0
11
-125.314850
21
-55.500000
31
0.0
0
LINE
8
0
6
CONTINUOUS
10
-126.278810
20
-56.500000
30
0.0
11
-125.262070
21
-56.500000
31
0.0
0
LINE
8
0
6
CONTINUOUS
10
-125.314850
20
-55.500000
30
0.0
11
-126.467960
21
-55.500000
31
0.0
0
LINE
8
0
6
CONTINUOUS
10
-127.440790
20
-56.500000
30
0.0
11
-126.278810
21
-56.500000
31
0.0
0
LINE
8
0
6
CONTINUOUS
10
-126.467960
20
-55.500000
30
0.0
11
-127.621070
21
-55.500000
31
0.0
0
LINE
8
0
6
CONTINUOUS
10
-128.602770
20
-56.500000
30
0.0
11
-127.440790
21
-56.500000
31
0.0
0
LINE
8
0
6
CONTINUOUS
10
-127.621070
20
-55.500000
30
0.0
11
-129.003830
21
-55.500000
31
0.0
0
LINE
8
0
6
CONTINUOUS
10
-129.996170
20
-56.500000
30
0.0
11
-128.602770
21
-56.500000
31
0.0
0
LINE
8
0
6
CONTINUOUS
10
-129.003830
20
-55.500000
30
0.0
11
-129.501920
21
-55.500000
31
0.0
0
LINE
8
0
6
CONTINUOUS
10
-130.498084
20
-56.500000
30
0.0
11
-129.996170
21
-56.500000
31
0.0
0
LINE
8
0
6
CONTINUOUS
10
-130.000000
20
-55.500000
30
0.0
11
-131.000000
21
-56.500000
31
0.0
0
LINE
8
0
6
CONTINUOUS
10
-129.501920
20
-55.500000
30
0.0
11
-130.000000
21
-55.500000
31
0.0
0
LINE
8
0
6
CONTINUOUS
10
-131.000000
20
-56.500000
30
0.0
11
-130.498084
21
-56.500000
31
0.0
0
LINE
8
0
6
CONTINUOUS
10
-124.305870
20
-55.500000
30
0.0
11
-123.008620
21
-55.500000
31
0.0
0
LINE
8
0
6
CONTINUOUS
10
-125.314850
20
-55.500000
30
0.0
11
-124.305870
21
-55.500000
31
0.0
0
LINE
8
0
6
CONTINUOUS
10
-126.467960
20
-55.500000
30
0.0
11
-125.314850
21
-55.500000
31
0.0
0
LINE
8
0
6
CONTINUOUS
10
-127.621070
20
-55.500000
30
0.0
11
-126.467960
21
-55.500000
31
0.0
0
LINE
8
0
6
CONTINUOUS
10
-129.003830
20
-55.500000
30
0.0
11
-127.621070
21
-55.500000
31
0.0
0
LINE
8
0
6
CONTINUOUS
10
-129.501920
20
-55.500000
30
0.0
11
-129.003830
21
-55.500000
31
0.0
0
LINE
8
0
6
CONTINUOUS
10
-121.000000
20
-54.500000
30
0.0
11
-130.000000
21
-55.500000
31
0.0
0
LINE
8
0
6
CONTINUOUS
10
-130.000000
20
-55.500000
30
0.0
11
-129.501920
21
-55.500000
31
0.0
0
LINE
8
0
6
CONTINUOUS
10
-91.712600
20
-53.500000
30
0.0
11
-93.888500
21
-53.500000
31
0.0
0
LINE
8
0
6
CONTINUOUS
10
-93.888500
20
-53.500000
30
0.0
11
-95.568200
21
-53.500000
31
0.0
0
LINE
8
0
6
CONTINUOUS
10
-95.568200
20
-53.500000
30
0.0
11
-96.576100
21
-53.500000
31
0.0
0
LINE
8
0
6
CONTINUOUS
10
-96.576100
20
-53.500000
30
0.0
11
-97.360000
21
-53.500000
31
0.0
0
LINE
8
0
6
CONTINUOUS
10
-97.360000
20
-53.500000
30
0.0
11
-98.255900
21
-53.500000
31
0.0
0
LINE
8
0
6
CONTINUOUS
10
-98.255900
20
-53.500000
30
0.0
11
-99.151800
21
-53.500000
31
0.0
0
LINE
8
0
6
CONTINUOUS
10
-99.151800
20
-53.500000
30
0.0
11
-100.226100
21
-53.500000
31
0.0
0
LINE
8
0
6
CONTINUOUS
10
-100.226100
20
-53.500000
30
0.0
11
-100.613000
21
-53.500000
31
0.0
0
LINE
8
0
6
CONTINUOUS
10
-101.000000
20
-53.500000
30
0.0
11
-121.000000
21
-54.500000
31
0.0
0
LINE
8
0
6
CONTINUOUS
10
-100.613000
20
-53.500000
30
0.0
11
-101.000000
21
-53.500000
31
0.0
0
LINE
8
0
6
CONTINUOUS
10
-115.212200
20
-56.500000
30
0.0
11
-118.954000
21
-56.500000
31
0.0
0
LINE
8
0
6
CONTINUOUS
10
-111.147500
20
-56.500000
30
0.0
11
-115.212200
21
-56.500000
31
0.0
0
LINE
8
0
6
CONTINUOUS
10
-105.921500
20
-56.500000
30
0.0
11
-111.147500
21
-56.500000
31
0.0
0
LINE
8
0
6
CONTINUOUS
10
-99.679400
20
-56.500000
30
0.0
11
-105.921500
21
-56.500000
31
0.0
0
LINE
8
0
6
CONTINUOUS
10
-89.227300
20
-56.500000
30
0.0
11
-99.679400
21
-56.500000
31
0.0
0
LINE
8
0
6
CONTINUOUS
10
-73.259000
20
-56.500000
30
0.0
11
-89.227300
21
-56.500000
31
0.0
0
LINE
8
0
6
CONTINUOUS
10
-51.697300
20
-56.500000
30
0.0
11
-73.259000
21
-56.500000
31
0.0
0
LINE
8
0
6
CONTINUOUS
10
-27.605000
20
-56.500000
30
0.0
11
-51.697300
21
-56.500000
31
0.0
0
LINE
8
0
6
CONTINUOUS
10
0.000000
20
-56.500000
30
0.0
11
-27.605000
21
-56.500000
31
0.0
0
LINE
8
0
6
CONTINUOUS
10
-109.873600
20
-66.500000
30
0.0
11
-106.417400
21
-66.500000
31
0.0
0
LINE
8
0
6
CONTINUOUS
10
-106.417400
20
-66.500000
30
0.0
11
-102.663000
21
-66.500000
31
0.0
0
LINE
8
0
6
CONTINUOUS
10
-102.663000
20
-66.500000
30
0.0
11
-97.835900
21
-66.500000
31
0.0
0
LINE
8
0
6
CONTINUOUS
10
-97.835900
20
-66.500000
30
0.0
11
-92.070200
21
-66.500000
31
0.0
0
LINE
8
0
6
CONTINUOUS
10
-92.070200
20
-66.500000
30
0.0
11
-82.416100
21
-66.500000
31
0.0
0
LINE
8
0
6
CONTINUOUS
10
-82.416100
20
-66.500000
30
0.0
11
-67.666700
21
-66.500000
31
0.0
0
LINE
8
0
6
CONTINUOUS
10
-67.666700
20
-66.500000
30
0.0
11
-47.751000
21
-66.500000
31
0.0
0
LINE
8
0
6
CONTINUOUS
10
-47.751000
20
-66.500000
30
0.0
11
-25.498000
21
-66.500000
31
0.0
0
LINE
8
0
6
CONTINUOUS
10
-25.498000
20
-66.500000
30
0.0
11
0.000000
21
-66.500000
31
0.0
0
LINE
8
0
6
CONTINUOUS
10
13.950000
20
-76.753040
30
0.0
11
15.000000
21
-76.692740
31
0.0
0
LINE
8
0
6
CONTINUOUS
10
13.500000
20
-76.893740
30
0.0
11
13.950000
21
-76.753040
31
0.0
0
LINE
8
0
6
CONTINUOUS
10
13.950000
20
-77.034440
30
0.0
11
13.500000
21
-76.893740
31
0.0
0
LINE
8
0
6
CONTINUOUS
10
15.000000
20
-77.094740
30
0.0
11
13.950000
21
-77.034440
31
0.0
0
LINE
8
0
6
CONTINUOUS
10
16.050000
20
-77.034440
30
0.0
11
15.000000
21
-77.094740
31
0.0
0
LINE
8
0
6
CONTINUOUS
10
16.500000
20
-76.893740
30
0.0
11
16.050000
21
-77.034440
31
0.0
0
LINE
8
0
6
CONTINUOUS
10
16.050000
20
-76.753040
30
0.0
11
16.500000
21
-76.893740
31
0.0
0
LINE
8
0
6
CONTINUOUS
10
15.000000
20
-76.692740
30
0.0
11
16.050000
21
-76.753040
31
0.0
0
LINE
8
0
6
CONTINUOUS
10
13.950000
20
-76.753040
30
0.0
11
13.950000
21
-75.714012
31
0.0
0
LINE
8
0
6
CONTINUOUS
10
15.000000
20
-76.692740
30
0.0
11
13.950000
21
-76.753040
31
0.0
0
LINE
8
0
6
CONTINUOUS
10
15.000000
20
-75.655842
30
0.0
11
15.000000
21
-76.692740
31
0.0
0
LINE
8
0
6
CONTINUOUS
10
13.500000
20
-76.893740
30
0.0
11
13.500000
21
-75.845194
31
0.0
0
LINE
8
0
6
CONTINUOUS
10
13.950000
20
-76.753040
30
0.0
11
13.500000
21
-76.893740
31
0.0
0
LINE
8
0
6
CONTINUOUS
10
13.950000
20
-75.714012
30
0.0
11
13.950000
21
-76.753040
31
0.0
0
LINE
8
0
6
CONTINUOUS
10
13.500000
20
-76.893740
30
0.0
11
13.950000
21
-77.034440
31
0.0
0
LINE
8
0
6
CONTINUOUS
10
13.500000
20
-75.845194
30
0.0
11
13.500000
21
-76.893740
31
0.0
0
LINE
8
0
6
CONTINUOUS
10
13.950000
20
-77.034440
30
0.0
11
15.000000
21
-77.094740
31
0.0
0
LINE
8
0
6
CONTINUOUS
10
15.000000
20
-77.094740
30
0.0
11
16.050000
21
-77.034440
31
0.0
0
LINE
8
0
6
CONTINUOUS
10
16.500000
20
-76.893740
30
0.0
11
16.500000
21
-75.838493
31
0.0
0
LINE
8
0
6
CONTINUOUS
10
16.050000
20
-77.034440
30
0.0
11
16.500000
21
-76.893740
31
0.0
0
LINE
8
0
6
CONTINUOUS
10
16.050000
20
-76.753040
30
0.0
11
16.050000
21
-75.709321
31
0.0
0
LINE
8
0
6
CONTINUOUS
10
16.500000
20
-76.893740
30
0.0
11
16.050000
21
-76.753040
31
0.0
0
LINE
8
0
6
CONTINUOUS
10
16.500000
20
-75.838493
30
0.0
11
16.500000
21
-76.893740
31
0.0
0
LINE
8
0
6
CONTINUOUS
10
15.000000
20
-76.692740
30
0.0
11
15.000000
21
-75.655842
31
0.0
0
LINE
8
0
6
CONTINUOUS
10
16.050000
20
-76.753040
30
0.0
11
15.000000
21
-76.692740
31
0.0
0
LINE
8
0
6
CONTINUOUS
10
16.050000
20
-75.709321
30
0.0
11
16.050000
21
-76.753040
31
0.0
0
LINE
8
0
6
CONTINUOUS
10
0.000000
20
-76.692740
30
0.0
11
-1.050000
21
-76.753040
31
0.0
0
LINE
8
0
6
CONTINUOUS
10
-1.050000
20
-76.753040
30
0.0
11
-1.500000
21
-76.893740
31
0.0
0
LINE
8
0
6
CONTINUOUS
10
-1.500000
20
-76.893740
30
0.0
11
-1.050000
21
-77.034440
31
0.0
0
LINE
8
0
6
CONTINUOUS
10
-1.050000
20
-77.034440
30
0.0
11
0.000000
21
-77.094740
31
0.0
0
LINE
8
0
6
CONTINUOUS
10
0.000000
20
-77.094740
30
0.0
11
1.050000
21
-77.034440
31
0.0
0
LINE
8
0
6
CONTINUOUS
10
1.050000
20
-77.034440
30
0.0
11
1.500000
21
-76.893740
31
0.0
0
LINE
8
0
6
CONTINUOUS
10
1.500000
20
-76.893740
30
0.0
11
1.050000
21
-76.753040
31
0.0
0
LINE
8
0
6
CONTINUOUS
10
1.050000
20
-76.753040
30
0.0
11
0.000000
21
-76.692740
31
0.0
0
LINE
8
0
6
CONTINUOUS
10
-1.050000
20
-75.742813
30
0.0
11
-1.050000
21
-76.753040
31
0.0
0
LINE
8
0
6
CONTINUOUS
10
0.000000
20
-76.692740
30
0.0
11
0.000000
21
-75.689351
31
0.0
0
LINE
8
0
6
CONTINUOUS
10
-1.050000
20
-76.753040
30
0.0
11
0.000000
21
-76.692740
31
0.0
0
LINE
8
0
6
CONTINUOUS
10
-1.500000
20
-75.871984
30
0.0
11
-1.500000
21
-76.893740
31
0.0
0
LINE
8
0
6
CONTINUOUS
10
-1.050000
20
-76.753040
30
0.0
11
-1.050000
21
-75.742813
31
0.0
0
LINE
8
0
6
CONTINUOUS
10
-1.500000
20
-76.893740
30
0.0
11
-1.050000
21
-76.753040
31
0.0
0
LINE
8
0
6
CONTINUOUS
10
-1.500000
20
-76.893740
30
0.0
11
-1.500000
21
-75.871984
31
0.0
0
LINE
8
0
6
CONTINUOUS
10
-1.050000
20
-77.034440
30
0.0
11
-1.500000
21
-76.893740
31
0.0
0
LINE
8
0
6
CONTINUOUS
10
0.000000
20
-77.094740
30
0.0
11
-1.050000
21
-77.034440
31
0.0
0
LINE
8
0
6
CONTINUOUS
10
1.050000
20
-77.034440
30
0.0
11
0.000000
21
-77.094740
31
0.0
0
LINE
8
0
6
CONTINUOUS
10
1.500000
20
-75.872002
30
0.0
11
1.500000
21
-76.893740
31
0.0
0
LINE
8
0
6
CONTINUOUS
10
1.500000
20
-76.893740
30
0.0
11
1.050000
21
-77.034440
31
0.0
0
LINE
8
0
6
CONTINUOUS
10
1.050000
20
-75.742830
30
0.0
11
1.050000
21
-76.753040
31
0.0
0
LINE
8
0
6
CONTINUOUS
10
1.500000
20
-76.893740
30
0.0
11
1.500000
21
-75.872002
31
0.0
0
LINE
8
0
6
CONTINUOUS
10
1.050000
20
-76.753040
30
0.0
11
1.500000
21
-76.893740
31
0.0
0
LINE
8
0
6
CONTINUOUS
10
0.000000
20
-75.689333
30
0.0
11
0.000000
21
-76.692740
31
0.0
0
LINE
8
0
6
CONTINUOUS
10
1.050000
20
-76.753040
30
0.0
11
1.050000
21
-75.742830
31
0.0
0
LINE
8
0
6
CONTINUOUS
10
0.000000
20
-76.692740
30
0.0
11
1.050000
21
-76.753040
31
0.0
0
LINE
8
0
6
CONTINUOUS
10
11.629000
20
-79.067169
30
0.0
11
12.679000
21
-79.041989
31
0.0
0
LINE
8
0
6
CONTINUOUS
10
11.179000
20
-79.125923
30
0.0
11
11.629000
21
-79.067169
31
0.0
0
LINE
8
0
6
CONTINUOUS
10
11.629000
20
-79.184676
30
0.0
11
11.179000
21
-79.125923
31
0.0
0
LINE
8
0
6
CONTINUOUS
10
12.679000
20
-79.209856
30
0.0
11
11.629000
21
-79.184676
31
0.0
0
LINE
8
0
6
CONTINUOUS
10
13.729000
20
-79.184676
30
0.0
11
12.679000
21
-79.209856
31
0.0
0
LINE
8
0
6
CONTINUOUS
10
14.179000
20
-79.125923
30
0.0
11
13.729000
21
-79.184676
31
0.0
0
LINE
8
0
6
CONTINUOUS
10
13.729000
20
-79.067169
30
0.0
11
14.179000
21
-79.125923
31
0.0
0
LINE
8
0
6
CONTINUOUS
10
12.679000
20
-79.041989
30
0.0
11
13.729000
21
-79.067169
31
0.0
0
LINE
8
0
6
CONTINUOUS
10
11.629000
20
-79.067169
30
0.0
11
11.629000
21
-78.344340
31
0.0
0
LINE
8
0
6
CONTINUOUS
10
12.679000
20
-79.041989
30
0.0
11
11.629000
21
-79.067169
31
0.0
0
LINE
8
0
6
CONTINUOUS
10
12.679000
20
-78.318337
30
0.0
11
12.679000
21
-79.041989
31
0.0
0
LINE
8
0
6
CONTINUOUS
10
11.179000
20
-79.125923
30
0.0
11
11.179000
21
-78.403017
31
0.0
0
LINE
8
0
6
CONTINUOUS
10
11.629000
20
-79.067169
30
0.0
11
11.179000
21
-79.125923
31
0.0
0
LINE
8
0
6
CONTINUOUS
10
11.629000
20
-78.344340
30
0.0
11
11.629000
21
-79.067169
31
0.0
0
LINE
8
0
6
CONTINUOUS
10
11.179000
20
-79.125923
30
0.0
11
11.629000
21
-79.184676
31
0.0
0
LINE
8
0
6
CONTINUOUS
10
11.179000
20
-78.403017
30
0.0
11
11.179000
21
-79.125923
31
0.0
0
LINE
8
0
6
CONTINUOUS
10
11.629000
20
-79.184676
30
0.0
11
12.679000
21
-79.209856
31
0.0
0
LINE
8
0
6
CONTINUOUS
10
12.679000
20
-79.209856
30
0.0
11
13.729000
21
-79.184676
31
0.0
0
LINE
8
0
6
CONTINUOUS
10
14.179000
20
-79.125923
30
0.0
11
14.179000
21
-78.399982
31
0.0
0
LINE
8
0
6
CONTINUOUS
10
13.729000
20
-79.184676
30
0.0
11
14.179000
21
-79.125923
31
0.0
0
LINE
8
0
6
CONTINUOUS
10
13.729000
20
-79.067169
30
0.0
11
13.729000
21
-78.342225
31
0.0
0
LINE
8
0
6
CONTINUOUS
10
14.179000
20
-79.125923
30
0.0
11
13.729000
21
-79.067169
31
0.0
0
LINE
8
0
6
CONTINUOUS
10
14.179000
20
-78.399982
30
0.0
11
14.179000
21
-79.125923
31
0.0
0
LINE
8
0
6
CONTINUOUS
10
12.679000
20
-79.041989
30
0.0
11
12.679000
21
-78.318337
31
0.0
0
LINE
8
0
6
CONTINUOUS
10
13.729000
20
-79.067169
30
0.0
11
12.679000
21
-79.041989
31
0.0
0
LINE
8
0
6
CONTINUOUS
10
13.729000
20
-78.342225
30
0.0
11
13.729000
21
-79.067169
31
0.0
0
LINE
8
0
6
CONTINUOUS
10
0.000000
20
-79.074625
30
0.0
11
-1.050000
21
-79.099806
31
0.0
0
LINE
8
0
6
CONTINUOUS
10
-1.050000
20
-79.099806
30
0.0
11
-1.500000
21
-79.158559
31
0.0
0
LINE
8
0
6
CONTINUOUS
10
-1.500000
20
-79.158559
30
0.0
11
-1.050000
21
-79.217313
31
0.0
0
LINE
8
0
6
CONTINUOUS
10
-1.050000
20
-79.217313
30
0.0
11
0.000000
21
-79.242493
31
0.0
0
LINE
8
0
6
CONTINUOUS
10
0.000000
20
-79.242493
30
0.0
11
1.050000
21
-79.217313
31
0.0
0
LINE
8
0
6
CONTINUOUS
10
1.050000
20
-79.217313
30
0.0
11
1.500000
21
-79.158559
31
0.0
0
LINE
8
0
6
CONTINUOUS
10
1.500000
20
-79.158559
30
0.0
11
1.050000
21
-79.099806
31
0.0
0
LINE
8
0
6
CONTINUOUS
10
1.050000
20
-79.099806
30
0.0
11
0.000000
21
-79.074625
31
0.0
0
LINE
8
0
6
CONTINUOUS
10
-1.050000
20
-78.387327
30
0.0
11
-1.050000
21
-79.099806
31
0.0
0
LINE
8
0
6
CONTINUOUS
10
0.000000
20
-79.074625
30
0.0
11
0.000000
21
-78.363439
31
0.0
0
LINE
8
0
6
CONTINUOUS
10
-1.050000
20
-79.099806
30
0.0
11
0.000000
21
-79.074625
31
0.0
0
LINE
8
0
6
CONTINUOUS
10
-1.500000
20
-78.445153
30
0.0
11
-1.500000
21
-79.158559
31
0.0
0
LINE
8
0
6
CONTINUOUS
10
-1.050000
20
-79.099806
30
0.0
11
-1.050000
21
-78.387327
31
0.0
0
LINE
8
0
6
CONTINUOUS
10
-1.500000
20
-79.158559
30
0.0
11
-1.050000
21
-79.099806
31
0.0
0
LINE
8
0
6
CONTINUOUS
10
-1.500000
20
-79.158559
30
0.0
11
-1.500000
21
-78.445153
31
0.0
0
LINE
8
0
6
CONTINUOUS
10
-1.050000
20
-79.217313
30
0.0
11
-1.500000
21
-79.158559
31
0.0
0
LINE
8
0
6
CONTINUOUS
10
0.000000
20
-79.242493
30
0.0
11
-1.050000
21
-79.217313
31
0.0
0
LINE
8
0
6
CONTINUOUS
10
1.050000
20
-79.217313
30
0.0
11
0.000000
21
-79.242493
31
0.0
0
LINE
8
0
6
CONTINUOUS
10
1.500000
20
-78.445152
30
0.0
11
1.500000
21
-79.158559
31
0.0
0
LINE
8
0
6
CONTINUOUS
10
1.500000
20
-79.158559
30
0.0
11
1.050000
21
-79.217313
31
0.0
0
LINE
8
0
6
CONTINUOUS
10
1.050000
20
-78.387326
30
0.0
11
1.050000
21
-79.099806
31
0.0
0
LINE
8
0
6
CONTINUOUS
10
1.500000
20
-79.158559
30
0.0
11
1.500000
21
-78.445152
31
0.0
0
LINE
8
0
6
CONTINUOUS
10
1.050000
20
-79.099806
30
0.0
11
1.500000
21
-79.158559
31
0.0
0
LINE
8
0
6
CONTINUOUS
10
0.000000
20
-78.363438
30
0.0
11
0.000000
21
-79.074625
31
0.0
0
LINE
8
0
6
CONTINUOUS
10
1.050000
20
-79.099806
30
0.0
11
1.050000
21
-78.387326
31
0.0
0
LINE
8
0
6
CONTINUOUS
10
0.000000
20
-79.074625
30
0.0
11
1.050000
21
-79.099806
31
0.0
0
LINE
8
0
6
CONTINUOUS
10
0.000000
20
-79.613403
30
0.0
11
-1.050000
21
-79.625297
31
0.0
0
LINE
8
0
6
CONTINUOUS
10
-1.050000
20
-79.625297
30
0.0
11
-1.500000
21
-79.653050
31
0.0
0
LINE
8
0
6
CONTINUOUS
10
-1.500000
20
-79.653050
30
0.0
11
-1.050000
21
-79.680803
31
0.0
0
LINE
8
0
6
CONTINUOUS
10
-1.050000
20
-79.680803
30
0.0
11
0.000000
21
-79.692697
31
0.0
0
LINE
8
0
6
CONTINUOUS
10
0.000000
20
-79.692697
30
0.0
11
1.050000
21
-79.680803
31
0.0
0
LINE
8
0
6
CONTINUOUS
10
1.050000
20
-79.680803
30
0.0
11
1.500000
21
-79.653050
31
0.0
0
LINE
8
0
6
CONTINUOUS
10
1.500000
20
-79.653050
30
0.0
11
1.050000
21
-79.625297
31
0.0
0
LINE
8
0
6
CONTINUOUS
10
1.050000
20
-79.625297
30
0.0
11
0.000000
21
-79.613403
31
0.0
0
LINE
8
0
6
CONTINUOUS
10
-1.050000
20
-78.948098
30
0.0
11
-1.050000
21
-79.625297
31
0.0
0
LINE
8
0
6
CONTINUOUS
10
0.000000
20
-79.613403
30
0.0
11
0.000000
21
-78.933244
31
0.0
0
LINE
8
0
6
CONTINUOUS
10
-1.050000
20
-79.625297
30
0.0
11
0.000000
21
-79.613403
31
0.0
0
LINE
8
0
6
CONTINUOUS
10
-1.500000
20
-78.984003
30
0.0
11
-1.500000
21
-79.653050
31
0.0
0
LINE
8
0
6
CONTINUOUS
10
-1.050000
20
-79.625297
30
0.0
11
-1.050000
21
-78.948098
31
0.0
0
LINE
8
0
6
CONTINUOUS
10
-1.500000
20
-79.653050
30
0.0
11
-1.050000
21
-79.625297
31
0.0
0
LINE
8
0
6
CONTINUOUS
10
-1.500000
20
-79.653050
30
0.0
11
-1.500000
21
-78.984003
31
0.0
0
LINE
8
0
6
CONTINUOUS
10
-1.050000
20
-79.680803
30
0.0
11
-1.500000
21
-79.653050
31
0.0
0
LINE
8
0
6
CONTINUOUS
10
0.000000
20
-79.692697
30
0.0
11
-1.050000
21
-79.680803
31
0.0
0
LINE
8
0
6
CONTINUOUS
10
1.050000
20
-79.680803
30
0.0
11
0.000000
21
-79.692697
31
0.0
0
LINE
8
0
6
CONTINUOUS
10
1.500000
20
-78.984005
30
0.0
11
1.500000
21
-79.653050
31
0.0
0
LINE
8
0
6
CONTINUOUS
10
1.500000
20
-79.653050
30
0.0
11
1.050000
21
-79.680803
31
0.0
0
LINE
8
0
6
CONTINUOUS
10
1.050000
20
-78.948100
30
0.0
11
1.050000
21
-79.625297
31
0.0
0
LINE
8
0
6
CONTINUOUS
10
1.500000
20
-79.653050
30
0.0
11
1.500000
21
-78.984005
31
0.0
0
LINE
8
0
6
CONTINUOUS
10
1.050000
20
-79.625297
30
0.0
11
1.500000
21
-79.653050
31
0.0
0
LINE
8
0
6
CONTINUOUS
10
0.000000
20
-78.933242
30
0.0
11
0.000000
21
-79.613403
31
0.0
0
LINE
8
0
6
CONTINUOUS
10
1.050000
20
-79.625297
30
0.0
11
1.050000
21
-78.948100
31
0.0
0
LINE
8
0
6
CONTINUOUS
10
0.000000
20
-79.613403
30
0.0
11
1.050000
21
-79.625297
31
0.0
0
LINE
8
0
6
CONTINUOUS
10
0.000000
20
-80.198414
30
0.0
11
-1.050000
21
-80.198414
31
0.0
0
LINE
8
0
6
CONTINUOUS
10
-1.050000
20
-80.198414
30
0.0
11
-1.500000
21
-80.198414
31
0.0
0
LINE
8
0
6
CONTINUOUS
10
1.500000
20
-80.198414
30
0.0
11
1.050000
21
-80.198414
31
0.0
0
LINE
8
0
6
CONTINUOUS
10
1.050000
20
-80.198414
30
0.0
11
0.000000
21
-80.198414
31
0.0
0
LINE
8
0
6
CONTINUOUS
10
-1.050000
20
-79.463133
30
0.0
11
-1.050000
21
-80.198414
31
0.0
0
LINE
8
0
6
CONTINUOUS
10
0.000000
20
-80.198414
30
0.0
11
0.000000
21
-79.448276
31
0.0
0
LINE
8
0
6
CONTINUOUS
10
-1.050000
20
-80.198414
30
0.0
11
0.000000
21
-80.198414
31
0.0
0
LINE
8
0
6
CONTINUOUS
10
-1.500000
20
-79.499057
30
0.0
11
-1.500000
21
-80.198414
31
0.0
0
LINE
8
0
6
CONTINUOUS
10
-1.050000
20
-80.198414
30
0.0
11
-1.050000
21
-79.463133
31
0.0
0
LINE
8
0
6
CONTINUOUS
10
-1.500000
20
-80.198414
30
0.0
11
-1.050000
21
-80.198414
31
0.0
0
LINE
8
0
6
CONTINUOUS
10
-1.500000
20
-80.198414
30
0.0
11
-1.500000
21
-79.499057
31
0.0
0
LINE
8
0
6
CONTINUOUS
10
1.500000
20
-79.499059
30
0.0
11
1.500000
21
-80.198414
31
0.0
0
LINE
8
0
6
CONTINUOUS
10
1.050000
20
-79.463135
30
0.0
11
1.050000
21
-80.198414
31
0.0
0
LINE
8
0
6
CONTINUOUS
10
1.500000
20
-80.198414
30
0.0
11
1.500000
21
-79.499059
31
0.0
0
LINE
8
0
6
CONTINUOUS
10
1.050000
20
-80.198414
30
0.0
11
1.500000
21
-80.198414
31
0.0
0
LINE
8
0
6
CONTINUOUS
10
0.000000
20
-79.448274
30
0.0
11
0.000000
21
-80.198414
31
0.0
0
LINE
8
0
6
CONTINUOUS
10
1.050000
20
-80.198414
30
0.0
11
1.050000
21
-79.463135
31
0.0
0
LINE
8
0
6
CONTINUOUS
10
0.000000
20
-80.198414
30
0.0
11
1.050000
21
-80.198414
31
0.0
0
LINE
8
0
6
CONTINUOUS
10
0.000000
20
-80.500000
30
0.0
11
-1.050000
21
-80.500000
31
0.0
0
LINE
8
0
6
CONTINUOUS
10
-1.050000
20
-80.500000
30
0.0
11
-1.500000
21
-80.500000
31
0.0
0
LINE
8
0
6
CONTINUOUS
10
1.500000
20
-80.500000
30
0.0
11
1.050000
21
-80.500000
31
0.0
0
LINE
8
0
6
CONTINUOUS
10
1.050000
20
-80.500000
30
0.0
11
0.000000
21
-80.500000
31
0.0
0
LINE
8
0
6
CONTINUOUS
10
-1.050000
20
-80.500000
30
0.0
11
0.000000
21
-80.500000
31
0.0
0
LINE
8
0
6
CONTINUOUS
10
-1.500000
20
-80.500000
30
0.0
11
-1.050000
21
-80.500000
31
0.0
0
LINE
8
0
6
CONTINUOUS
10
1.050000
20
-80.500000
30
0.0
11
1.500000
21
-80.500000
31
0.0
0
LINE
8
0
6
CONTINUOUS
10
0.000000
20
-80.500000
30
0.0
11
1.050000
21
-80.500000
31
0.0
0
LINE
8
0
6
CONTINUOUS
10
7.101000
20
-78.239240
30
0.0
11
8.151000
21
-78.188280
31
0.0
0
LINE
8
0
6
CONTINUOUS
10
6.651000
20
-78.358140
30
0.0
11
7.101000
21
-78.239240
31
0.0
0
LINE
8
0
6
CONTINUOUS
10
7.101000
20
-78.477040
30
0.0
11
6.651000
21
-78.358140
31
0.0
0
LINE
8
0
6
CONTINUOUS
10
8.151000
20
-78.527993
30
0.0
11
7.101000
21
-78.477040
31
0.0
0
LINE
8
0
6
CONTINUOUS
10
9.201000
20
-78.477040
30
0.0
11
8.151000
21
-78.527993
31
0.0
0
LINE
8
0
6
CONTINUOUS
10
9.651000
20
-78.358140
30
0.0
11
9.201000
21
-78.477040
31
0.0
0
LINE
8
0
6
CONTINUOUS
10
9.201000
20
-78.239240
30
0.0
11
9.651000
21
-78.358140
31
0.0
0
LINE
8
0
6
CONTINUOUS
10
8.151000
20
-78.188280
30
0.0
11
9.201000
21
-78.239240
31
0.0
0
LINE
8
0
6
CONTINUOUS
10
7.101000
20
-78.239240
30
0.0
11
7.101000
21
-77.542120
31
0.0
0
LINE
8
0
6
CONTINUOUS
10
8.151000
20
-78.188280
30
0.0
11
7.101000
21
-78.239240
31
0.0
0
LINE
8
0
6
CONTINUOUS
10
8.151000
20
-77.516069
30
0.0
11
8.151000
21
-78.188280
31
0.0
0
LINE
8
0
6
CONTINUOUS
10
6.651000
20
-78.358140
30
0.0
11
6.651000
21
-77.600920
31
0.0
0
LINE
8
0
6
CONTINUOUS
10
7.101000
20
-78.239240
30
0.0
11
6.651000
21
-78.358140
31
0.0
0
LINE
8
0
6
CONTINUOUS
10
7.101000
20
-77.542120
30
0.0
11
7.101000
21
-78.239240
31
0.0
0
LINE
8
0
6
CONTINUOUS
10
6.651000
20
-78.358140
30
0.0
11
7.101000
21
-78.477040
31
0.0
0
LINE
8
0
6
CONTINUOUS
10
6.651000
20
-77.600920
30
0.0
11
6.651000
21
-78.358140
31
0.0
0
LINE
8
0
6
CONTINUOUS
10
7.101000
20
-78.477040
30
0.0
11
8.151000
21
-78.527993
31
0.0
0
LINE
8
0
6
CONTINUOUS
10
8.151000
20
-78.527993
30
0.0
11
9.201000
21
-78.477040
31
0.0
0
LINE
8
0
6
CONTINUOUS
10
9.651000
20
-78.358140
30
0.0
11
9.651000
21
-77.597909
31
0.0
0
LINE
8
0
6
CONTINUOUS
10
9.201000
20
-78.477040
30
0.0
11
9.651000
21
-78.358140
31
0.0
0
LINE
8
0
6
CONTINUOUS
10
9.201000
20
-78.239240
30
0.0
11
9.201000
21
-77.540012
31
0.0
0
LINE
8
0
6
CONTINUOUS
10
9.651000
20
-78.358140
30
0.0
11
9.201000
21
-78.239240
31
0.0
0
LINE
8
0
6
CONTINUOUS
10
9.651000
20
-77.597909
30
0.0
11
9.651000
21
-78.358140
31
0.0
0
LINE
8
0
6
CONTINUOUS
10
8.151000
20
-78.188280
30
0.0
11
8.151000
21
-77.516069
31
0.0
0
LINE
8
0
6
CONTINUOUS
10
9.201000
20
-78.239240
30
0.0
11
8.151000
21
-78.188280
31
0.0
0
LINE
8
0
6
CONTINUOUS
10
9.201000
20
-77.540012
30
0.0
11
9.201000
21
-78.239240
31
0.0
0
LINE
8
0
6
CONTINUOUS
10
29.060000
20
-76.797250
30
0.0
11
30.110000
21
-76.736950
31
0.0
0
LINE
8
0
6
CONTINUOUS
10
28.610000
20
-76.937940
30
0.0
11
29.060000
21
-76.797250
31
0.0
0
LINE
8
0
6
CONTINUOUS
10
29.060000
20
-77.078640
30
0.0
11
28.610000
21
-76.937940
31
0.0
0
LINE
8
0
6
CONTINUOUS
10
30.110000
20
-77.138940
30
0.0
11
29.060000
21
-77.078640
31
0.0
0
LINE
8
0
6
CONTINUOUS
10
31.160000
20
-77.078640
30
0.0
11
30.110000
21
-77.138940
31
0.0
0
LINE
8
0
6
CONTINUOUS
10
31.610000
20
-76.937940
30
0.0
11
31.160000
21
-77.078640
31
0.0
0
LINE
8
0
6
CONTINUOUS
10
31.160000
20
-76.797250
30
0.0
11
31.610000
21
-76.937940
31
0.0
0
LINE
8
0
6
CONTINUOUS
10
30.110000
20
-76.736950
30
0.0
11
31.160000
21
-76.797250
31
0.0
0
LINE
8
0
6
CONTINUOUS
10
29.060000
20
-76.797250
30
0.0
11
29.060000
21
-75.718329
31
0.0
0
LINE
8
0
6
CONTINUOUS
10
30.110000
20
-76.736950
30
0.0
11
29.060000
21
-76.797250
31
0.0
0
LINE
8
0
6
CONTINUOUS
10
30.110000
20
-75.659844
30
0.0
11
30.110000
21
-76.736950
31
0.0
0
LINE
8
0
6
CONTINUOUS
10
28.610000
20
-76.937940
30
0.0
11
28.610000
21
-75.849587
31
0.0
0
LINE
8
0
6
CONTINUOUS
10
29.060000
20
-76.797250
30
0.0
11
28.610000
21
-76.937940
31
0.0
0
LINE
8
0
6
CONTINUOUS
10
29.060000
20
-75.718329
30
0.0
11
29.060000
21
-76.797250
31
0.0
0
LINE
8
0
6
CONTINUOUS
10
28.610000
20
-76.937940
30
0.0
11
29.060000
21
-77.078640
31
0.0
0
LINE
8
0
6
CONTINUOUS
10
28.610000
20
-75.849587
30
0.0
11
28.610000
21
-76.937940
31
0.0
0
LINE
8
0
6
CONTINUOUS
10
29.060000
20
-77.078640
30
0.0
11
30.110000
21
-77.138940
31
0.0
0
LINE
8
0
6
CONTINUOUS
10
30.110000
20
-77.138940
30
0.0
11
31.160000
21
-77.078640
31
0.0
0
LINE
8
0
6
CONTINUOUS
10
31.610000
20
-76.937940
30
0.0
11
31.610000
21
-75.841902
31
0.0
0
LINE
8
0
6
CONTINUOUS
10
31.160000
20
-77.078640
30
0.0
11
31.610000
21
-76.937940
31
0.0
0
LINE
8
0
6
CONTINUOUS
10
31.160000
20
-76.797250
30
0.0
11
31.160000
21
-75.712949
31
0.0
0
LINE
8
0
6
CONTINUOUS
10
31.610000
20
-76.937940
30
0.0
11
31.160000
21
-76.797250
31
0.0
0
LINE
8
0
6
CONTINUOUS
10
31.610000
20
-75.841902
30
0.0
11
31.610000
21
-76.937940
31
0.0
0
LINE
8
0
6
CONTINUOUS
10
30.110000
20
-76.736950
30
0.0
11
30.110000
21
-75.659844
31
0.0
0
LINE
8
0
6
CONTINUOUS
10
31.160000
20
-76.797250
30
0.0
11
30.110000
21
-76.736950
31
0.0
0
LINE
8
0
6
CONTINUOUS
10
31.160000
20
-75.712949
30
0.0
11
31.160000
21
-76.797250
31
0.0
0
LINE
8
0
6
CONTINUOUS
10
44.280000
20
-76.915120
30
0.0
11
45.330000
21
-76.854830
31
0.0
0
LINE
8
0
6
CONTINUOUS
10
43.830000
20
-77.055820
30
0.0
11
44.280000
21
-76.915120
31
0.0
0
LINE
8
0
6
CONTINUOUS
10
44.280000
20
-77.196520
30
0.0
11
43.830000
21
-77.055820
31
0.0
0
LINE
8
0
6
CONTINUOUS
10
45.330000
20
-77.256820
30
0.0
11
44.280000
21
-77.196520
31
0.0
0
LINE
8
0
6
CONTINUOUS
10
46.380000
20
-77.196520
30
0.0
11
45.330000
21
-77.256820
31
0.0
0
LINE
8
0
6
CONTINUOUS
10
46.830000
20
-77.055820
30
0.0
11
46.380000
21
-77.196520
31
0.0
0
LINE
8
0
6
CONTINUOUS
10
46.380000
20
-76.915120
30
0.0
11
46.830000
21
-77.055820
31
0.0
0
LINE
8
0
6
CONTINUOUS
10
45.330000
20
-76.854830
30
0.0
11
46.380000
21
-76.915120
31
0.0
0
LINE
8
0
6
CONTINUOUS
10
44.280000
20
-76.915120
30
0.0
11
44.280000
21
-75.755948
31
0.0
0
LINE
8
0
6
CONTINUOUS
10
45.330000
20
-76.854830
30
0.0
11
44.280000
21
-76.915120
31
0.0
0
LINE
8
0
6
CONTINUOUS
10
45.330000
20
-75.692886
30
0.0
11
45.330000
21
-76.854830
31
0.0
0
LINE
8
0
6
CONTINUOUS
10
43.830000
20
-77.055820
30
0.0
11
43.830000
21
-75.887518
31
0.0
0
LINE
8
0
6
CONTINUOUS
10
44.280000
20
-76.915120
30
0.0
11
43.830000
21
-77.055820
31
0.0
0
LINE
8
0
6
CONTINUOUS
10
44.280000
20
-75.755948
30
0.0
11
44.280000
21
-76.915120
31
0.0
0
LINE
8
0
6
CONTINUOUS
10
43.830000
20
-77.055820
30
0.0
11
44.280000
21
-77.196520
31
0.0
0
LINE
8
0
6
CONTINUOUS
10
43.830000
20
-75.887518
30
0.0
11
43.830000
21
-77.055820
31
0.0
0
LINE
8
0
6
CONTINUOUS
10
44.280000
20
-77.196520
30
0.0
11
45.330000
21
-77.256820
31
0.0
0
LINE
8
0
6
CONTINUOUS
10
45.330000
20
-77.256820
30
0.0
11
46.380000
21
-77.196520
31
0.0
0
LINE
8
0
6
CONTINUOUS
10
46.830000
20
-77.055820
30
0.0
11
46.830000
21
-75.864096
31
0.0
0
LINE
8
0
6
CONTINUOUS
10
46.380000
20
-77.196520
30
0.0
11
46.830000
21
-77.055820
31
0.0
0
LINE
8
0
6
CONTINUOUS
10
46.380000
20
-76.915120
30
0.0
11
46.380000
21
-75.739553
31
0.0
0
LINE
8
0
6
CONTINUOUS
10
46.830000
20
-77.055820
30
0.0
11
46.380000
21
-76.915120
31
0.0
0
LINE
8
0
6
CONTINUOUS
10
46.830000
20
-75.864096
30
0.0
11
46.830000
21
-77.055820
31
0.0
0
LINE
8
0
6
CONTINUOUS
10
45.330000
20
-76.854830
30
0.0
11
45.330000
21
-75.692886
31
0.0
0
LINE
8
0
6
CONTINUOUS
10
46.380000
20
-76.915120
30
0.0
11
45.330000
21
-76.854830
31
0.0
0
LINE
8
0
6
CONTINUOUS
10
46.380000
20
-75.739553
30
0.0
11
46.380000
21
-76.915120
31
0.0
0
LINE
8
0
6
CONTINUOUS
10
58.510000
20
-77.047740
30
0.0
11
59.560000
21
-76.987440
31
0.0
0
LINE
8
0
6
CONTINUOUS
10
58.060000
20
-77.188440
30
0.0
11
58.510000
21
-77.047740
31
0.0
0
LINE
8
0
6
CONTINUOUS
10
58.510000
20
-77.329140
30
0.0
11
58.060000
21
-77.188440
31
0.0
0
LINE
8
0
6
CONTINUOUS
10
59.560000
20
-77.389440
30
0.0
11
58.510000
21
-77.329140
31
0.0
0
LINE
8
0
6
CONTINUOUS
10
60.610000
20
-77.329140
30
0.0
11
59.560000
21
-77.389440
31
0.0
0
LINE
8
0
6
CONTINUOUS
10
61.060000
20
-77.188440
30
0.0
11
60.610000
21
-77.329140
31
0.0
0
LINE
8
0
6
CONTINUOUS
10
60.610000
20
-77.047740
30
0.0
11
61.060000
21
-77.188440
31
0.0
0
LINE
8
0
6
CONTINUOUS
10
59.560000
20
-76.987440
30
0.0
11
60.610000
21
-77.047740
31
0.0
0
LINE
8
0
6
CONTINUOUS
10
58.510000
20
-77.047740
30
0.0
11
58.510000
21
-75.761280
31
0.0
0
LINE
8
0
6
CONTINUOUS
10
59.560000
20
-76.987440
30
0.0
11
58.510000
21
-77.047740
31
0.0
0
LINE
8
0
6
CONTINUOUS
10
59.560000
20
-75.697468
30
0.0
11
59.560000
21
-76.987440
31
0.0
0
LINE
8
0
6
CONTINUOUS
10
58.060000
20
-77.188440
30
0.0
11
58.060000
21
-75.892714
31
0.0
0
LINE
8
0
6
CONTINUOUS
10
58.510000
20
-77.047740
30
0.0
11
58.060000
21
-77.188440
31
0.0
0
LINE
8
0
6
CONTINUOUS
10
58.510000
20
-75.761280
30
0.0
11
58.510000
21
-77.047740
31
0.0
0
LINE
8
0
6
CONTINUOUS
10
58.060000
20
-77.188440
30
0.0
11
58.510000
21
-77.329140
31
0.0
0
LINE
8
0
6
CONTINUOUS
10
58.060000
20
-75.892714
30
0.0
11
58.060000
21
-77.188440
31
0.0
0
LINE
8
0
6
CONTINUOUS
10
58.510000
20
-77.329140
30
0.0
11
59.560000
21
-77.389440
31
0.0
0
LINE
8
0
6
CONTINUOUS
10
59.560000
20
-77.389440
30
0.0
11
60.610000
21
-77.329140
31
0.0
0
LINE
8
0
6
CONTINUOUS
10
61.060000
20
-77.188440
30
0.0
11
61.060000
21
-75.866462
31
0.0
0
LINE
8
0
6
CONTINUOUS
10
60.610000
20
-77.329140
30
0.0
11
61.060000
21
-77.188440
31
0.0
0
LINE
8
0
6
CONTINUOUS
10
60.610000
20
-77.047740
30
0.0
11
60.610000
21
-75.742903
31
0.0
0
LINE
8
0
6
CONTINUOUS
10
61.060000
20
-77.188440
30
0.0
11
60.610000
21
-77.047740
31
0.0
0
LINE
8
0
6
CONTINUOUS
10
61.060000
20
-75.866462
30
0.0
11
61.060000
21
-77.188440
31
0.0
0
LINE
8
0
6
CONTINUOUS
10
59.560000
20
-76.987440
30
0.0
11
59.560000
21
-75.697468
31
0.0
0
LINE
8
0
6
CONTINUOUS
10
60.610000
20
-77.047740
30
0.0
11
59.560000
21
-76.987440
31
0.0
0
LINE
8
0
6
CONTINUOUS
10
60.610000
20
-75.742903
30
0.0
11
60.610000
21
-77.047740
31
0.0
0
LINE
8
0
6
CONTINUOUS
10
74.090000
20
-76.802130
30
0.0
11
75.140000
21
-76.741830
31
0.0
0
LINE
8
0
6
CONTINUOUS
10
73.640000
20
-76.942830
30
0.0
11
74.090000
21
-76.802130
31
0.0
0
LINE
8
0
6
CONTINUOUS
10
74.090000
20
-77.083530
30
0.0
11
73.640000
21
-76.942830
31
0.0
0
LINE
8
0
6
CONTINUOUS
10
75.140000
20
-77.143830
30
0.0
11
74.090000
21
-77.083530
31
0.0
0
LINE
8
0
6
CONTINUOUS
10
76.190000
20
-77.083530
30
0.0
11
75.140000
21
-77.143830
31
0.0
0
LINE
8
0
6
CONTINUOUS
10
76.640000
20
-76.942830
30
0.0
11
76.190000
21
-77.083530
31
0.0
0
LINE
8
0
6
CONTINUOUS
10
76.190000
20
-76.802130
30
0.0
11
76.640000
21
-76.942830
31
0.0
0
LINE
8
0
6
CONTINUOUS
10
75.140000
20
-76.741830
30
0.0
11
76.190000
21
-76.802130
31
0.0
0
LINE
8
0
6
CONTINUOUS
10
74.090000
20
-76.802130
30
0.0
11
74.090000
21
-75.740113
31
0.0
0
LINE
8
0
6
CONTINUOUS
10
75.140000
20
-76.741830
30
0.0
11
74.090000
21
-76.802130
31
0.0
0
LINE
8
0
6
CONTINUOUS
10
75.140000
20
-75.669382
30
0.0
11
75.140000
21
-76.741830
31
0.0
0
LINE
8
0
6
CONTINUOUS
10
73.640000
20
-76.942830
30
0.0
11
73.640000
21
-75.868232
31
0.0
0
LINE
8
0
6
CONTINUOUS
10
74.090000
20
-76.802130
30
0.0
11
73.640000
21
-76.942830
31
0.0
0
LINE
8
0
6
CONTINUOUS
10
74.090000
20
-75.740113
30
0.0
11
74.090000
21
-76.802130
31
0.0
0
LINE
8
0
6
CONTINUOUS
10
73.640000
20
-76.942830
30
0.0
11
74.090000
21
-77.083530
31
0.0
0
LINE
8
0
6
CONTINUOUS
10
73.640000
20
-75.868232
30
0.0
11
73.640000
21
-76.942830
31
0.0
0
LINE
8
0
6
CONTINUOUS
10
74.090000
20
-77.083530
30
0.0
11
75.140000
21
-77.143830
31
0.0
0
LINE
8
0
6
CONTINUOUS
10
75.140000
20
-77.143830
30
0.0
11
76.190000
21
-77.083530
31
0.0
0
LINE
8
0
6
CONTINUOUS
10
76.640000
20
-76.942830
30
0.0
11
76.640000
21
-75.812968
31
0.0
0
LINE
8
0
6
CONTINUOUS
10
76.190000
20
-77.083530
30
0.0
11
76.640000
21
-76.942830
31
0.0
0
LINE
8
0
6
CONTINUOUS
10
76.190000
20
-76.802130
30
0.0
11
76.190000
21
-75.701428
31
0.0
0
LINE
8
0
6
CONTINUOUS
10
76.640000
20
-76.942830
30
0.0
11
76.190000
21
-76.802130
31
0.0
0
LINE
8
0
6
CONTINUOUS
10
76.640000
20
-75.812968
30
0.0
11
76.640000
21
-76.942830
31
0.0
0
LINE
8
0
6
CONTINUOUS
10
75.140000
20
-76.741830
30
0.0
11
75.140000
21
-75.669382
31
0.0
0
LINE
8
0
6
CONTINUOUS
10
76.190000
20
-76.802130
30
0.0
11
75.140000
21
-76.741830
31
0.0
0
LINE
8
0
6
CONTINUOUS
10
76.190000
20
-75.701428
30
0.0
11
76.190000
21
-76.802130
31
0.0
0
LINE
8
0
6
CONTINUOUS
10
86.477000
20
-76.640270
30
0.0
11
87.527000
21
-76.587280
31
0.0
0
LINE
8
0
6
CONTINUOUS
10
86.027000
20
-76.763910
30
0.0
11
86.477000
21
-76.640270
31
0.0
0
LINE
8
0
6
CONTINUOUS
10
86.477000
20
-76.887550
30
0.0
11
86.027000
21
-76.763910
31
0.0
0
LINE
8
0
6
CONTINUOUS
10
87.527000
20
-76.940540
30
0.0
11
86.477000
21
-76.887550
31
0.0
0
LINE
8
0
6
CONTINUOUS
10
88.577000
20
-76.887550
30
0.0
11
87.527000
21
-76.940540
31
0.0
0
LINE
8
0
6
CONTINUOUS
10
89.027000
20
-76.763910
30
0.0
11
88.577000
21
-76.887550
31
0.0
0
LINE
8
0
6
CONTINUOUS
10
88.577000
20
-76.640270
30
0.0
11
89.027000
21
-76.763910
31
0.0
0
LINE
8
0
6
CONTINUOUS
10
87.527000
20
-76.587280
30
0.0
11
88.577000
21
-76.640270
31
0.0
0
LINE
8
0
6
CONTINUOUS
10
86.477000
20
-76.640270
30
0.0
11
86.477000
21
-75.794327
31
0.0
0
LINE
8
0
6
CONTINUOUS
10
87.527000
20
-76.587280
30
0.0
11
86.477000
21
-76.640270
31
0.0
0
LINE
8
0
6
CONTINUOUS
10
87.527000
20
-75.697513
30
0.0
11
87.527000
21
-76.587280
31
0.0
0
LINE
8
0
6
CONTINUOUS
10
86.027000
20
-76.763910
30
0.0
11
86.027000
21
-75.902906
31
0.0
0
LINE
8
0
6
CONTINUOUS
10
86.477000
20
-76.640270
30
0.0
11
86.027000
21
-76.763910
31
0.0
0
LINE
8
0
6
CONTINUOUS
10
86.477000
20
-75.794327
30
0.0
11
86.477000
21
-76.640270
31
0.0
0
LINE
8
0
6
CONTINUOUS
10
86.027000
20
-76.763910
30
0.0
11
86.477000
21
-76.887550
31
0.0
0
LINE
8
0
6
CONTINUOUS
10
86.027000
20
-75.902906
30
0.0
11
86.027000
21
-76.763910
31
0.0
0
LINE
8
0
6
CONTINUOUS
10
86.477000
20
-76.887550
30
0.0
11
87.527000
21
-76.940540
31
0.0
0
LINE
8
0
6
CONTINUOUS
10
87.527000
20
-76.940540
30
0.0
11
88.577000
21
-76.887550
31
0.0
0
LINE
8
0
6
CONTINUOUS
10
89.027000
20
-76.763910
30
0.0
11
89.027000
21
-75.700828
31
0.0
0
LINE
8
0
6
CONTINUOUS
10
88.577000
20
-76.887550
30
0.0
11
89.027000
21
-76.763910
31
0.0
0
LINE
8
0
6
CONTINUOUS
10
88.577000
20
-76.640270
30
0.0
11
88.577000
21
-75.681706
31
0.0
0
LINE
8
0
6
CONTINUOUS
10
89.027000
20
-76.763910
30
0.0
11
88.577000
21
-76.640270
31
0.0
0
LINE
8
0
6
CONTINUOUS
10
89.027000
20
-75.700828
30
0.0
11
89.027000
21
-76.746625
31
0.0
0
LINE
8
0
6
CONTINUOUS
10
87.527000
20
-76.587280
30
0.0
11
87.527000
21
-75.697513
31
0.0
0
LINE
8
0
6
CONTINUOUS
10
88.577000
20
-76.640270
30
0.0
11
87.527000
21
-76.587280
31
0.0
0
LINE
8
0
6
CONTINUOUS
10
88.577000
20
-75.671188
30
0.0
11
88.577000
21
-76.640270
31
0.0
0
LINE
8
0
6
CONTINUOUS
10
26.202000
20
-79.075328
30
0.0
11
27.252000
21
-79.050148
31
0.0
0
LINE
8
0
6
CONTINUOUS
10
25.752000
20
-79.134082
30
0.0
11
26.202000
21
-79.075328
31
0.0
0
LINE
8
0
6
CONTINUOUS
10
26.202000
20
-79.192835
30
0.0
11
25.752000
21
-79.134082
31
0.0
0
LINE
8
0
6
CONTINUOUS
10
27.252000
20
-79.218016
30
0.0
11
26.202000
21
-79.192835
31
0.0
0
LINE
8
0
6
CONTINUOUS
10
28.302000
20
-79.192835
30
0.0
11
27.252000
21
-79.218016
31
0.0
0
LINE
8
0
6
CONTINUOUS
10
28.752000
20
-79.134082
30
0.0
11
28.302000
21
-79.192835
31
0.0
0
LINE
8
0
6
CONTINUOUS
10
28.302000
20
-79.075328
30
0.0
11
28.752000
21
-79.134082
31
0.0
0
LINE
8
0
6
CONTINUOUS
10
27.252000
20
-79.050148
30
0.0
11
28.302000
21
-79.075328
31
0.0
0
LINE
8
0
6
CONTINUOUS
10
26.202000
20
-79.075328
30
0.0
11
26.202000
21
-78.336014
31
0.0
0
LINE
8
0
6
CONTINUOUS
10
27.252000
20
-79.050148
30
0.0
11
26.202000
21
-79.075328
31
0.0
0
LINE
8
0
6
CONTINUOUS
10
27.252000
20
-78.309244
30
0.0
11
27.252000
21
-79.050148
31
0.0
0
LINE
8
0
6
CONTINUOUS
10
25.752000
20
-79.134082
30
0.0
11
25.752000
21
-78.394745
31
0.0
0
LINE
8
0
6
CONTINUOUS
10
26.202000
20
-79.075328
30
0.0
11
25.752000
21
-79.134082
31
0.0
0
LINE
8
0
6
CONTINUOUS
10
26.202000
20
-78.336014
30
0.0
11
26.202000
21
-79.075328
31
0.0
0
LINE
8
0
6
CONTINUOUS
10
25.752000
20
-79.134082
30
0.0
11
26.202000
21
-79.192835
31
0.0
0
LINE
8
0
6
CONTINUOUS
10
25.752000
20
-78.394745
30
0.0
11
25.752000
21
-79.134082
31
0.0
0
LINE
8
0
6
CONTINUOUS
10
26.202000
20
-79.192835
30
0.0
11
27.252000
21
-79.218016
31
0.0
0
LINE
8
0
6
CONTINUOUS
10
27.252000
20
-79.218016
30
0.0
11
28.302000
21
-79.192835
31
0.0
0
LINE
8
0
6
CONTINUOUS
10
28.752000
20
-79.134082
30
0.0
11
28.752000
21
-78.385735
31
0.0
0
LINE
8
0
6
CONTINUOUS
10
28.302000
20
-79.192835
30
0.0
11
28.752000
21
-79.134082
31
0.0
0
LINE
8
0
6
CONTINUOUS
10
28.302000
20
-79.075328
30
0.0
11
28.302000
21
-78.330092
31
0.0
0
LINE
8
0
6
CONTINUOUS
10
28.752000
20
-79.134082
30
0.0
11
28.302000
21
-79.075328
31
0.0
0
LINE
8
0
6
CONTINUOUS
10
28.752000
20
-78.385735
30
0.0
11
28.752000
21
-79.134082
31
0.0
0
LINE
8
0
6
CONTINUOUS
10
27.252000
20
-79.050148
30
0.0
11
27.252000
21
-78.309244
31
0.0
0
LINE
8
0
6
CONTINUOUS
10
28.302000
20
-79.075328
30
0.0
11
27.252000
21
-79.050148
31
0.0
0
LINE
8
0
6
CONTINUOUS
10
28.302000
20
-78.330092
30
0.0
11
28.302000
21
-79.075328
31
0.0
0
LINE
8
0
6
CONTINUOUS
10
18.105000
20
-80.198414
30
0.0
11
19.155000
21
-80.198414
31
0.0
0
LINE
8
0
6
CONTINUOUS
10
17.655000
20
-80.198414
30
0.0
11
18.105000
21
-80.198414
31
0.0
0
LINE
8
0
6
CONTINUOUS
10
20.205000
20
-80.198414
30
0.0
11
20.655000
21
-80.198414
31
0.0
0
LINE
8
0
6
CONTINUOUS
10
19.155000
20
-80.198414
30
0.0
11
20.205000
21
-80.198414
31
0.0
0
LINE
8
0
6
CONTINUOUS
10
18.105000
20
-80.198414
30
0.0
11
18.105000
21
-79.500000
31
0.0
0
LINE
8
0
6
CONTINUOUS
10
19.155000
20
-80.198414
30
0.0
11
18.105000
21
-80.198414
31
0.0
0
LINE
8
0
6
CONTINUOUS
10
19.155000
20
-79.500000
30
0.0
11
19.155000
21
-80.198414
31
0.0
0
LINE
8
0
6
CONTINUOUS
10
17.655000
20
-80.198414
30
0.0
11
17.655000
21
-79.500000
31
0.0
0
LINE
8
0
6
CONTINUOUS
10
18.105000
20
-80.198414
30
0.0
11
17.655000
21
-80.198414
31
0.0
0
LINE
8
0
6
CONTINUOUS
10
18.105000
20
-79.500000
30
0.0
11
18.105000
21
-80.198414
31
0.0
0
LINE
8
0
6
CONTINUOUS
10
17.655000
20
-79.500000
30
0.0
11
17.655000
21
-80.198414
31
0.0
0
LINE
8
0
6
CONTINUOUS
10
20.655000
20
-80.198414
30
0.0
11
20.655000
21
-79.500000
31
0.0
0
LINE
8
0
6
CONTINUOUS
10
20.205000
20
-80.198414
30
0.0
11
20.205000
21
-79.500000
31
0.0
0
LINE
8
0
6
CONTINUOUS
10
20.655000
20
-80.198414
30
0.0
11
20.205000
21
-80.198414
31
0.0
0
LINE
8
0
6
CONTINUOUS
10
20.655000
20
-79.500000
30
0.0
11
20.655000
21
-80.198414
31
0.0
0
LINE
8
0
6
CONTINUOUS
10
19.155000
20
-80.198414
30
0.0
11
19.155000
21
-79.500000
31
0.0
0
LINE
8
0
6
CONTINUOUS
10
20.205000
20
-80.198414
30
0.0
11
19.155000
21
-80.198414
31
0.0
0
LINE
8
0
6
CONTINUOUS
10
20.205000
20
-79.500000
30
0.0
11
20.205000
21
-80.198414
31
0.0
0
LINE
8
0
6
CONTINUOUS
10
29.408000
20
-79.598319
30
0.0
11
30.458000
21
-79.586425
31
0.0
0
LINE
8
0
6
CONTINUOUS
10
28.958000
20
-79.626072
30
0.0
11
29.408000
21
-79.598319
31
0.0
0
LINE
8
0
6
CONTINUOUS
10
29.408000
20
-79.653825
30
0.0
11
28.958000
21
-79.626072
31
0.0
0
LINE
8
0
6
CONTINUOUS
10
30.458000
20
-79.665719
30
0.0
11
29.408000
21
-79.653825
31
0.0
0
LINE
8
0
6
CONTINUOUS
10
31.508000
20
-79.653825
30
0.0
11
30.458000
21
-79.665719
31
0.0
0
LINE
8
0
6
CONTINUOUS
10
31.958000
20
-79.626072
30
0.0
11
31.508000
21
-79.653825
31
0.0
0
LINE
8
0
6
CONTINUOUS
10
31.508000
20
-79.598319
30
0.0
11
31.958000
21
-79.626072
31
0.0
0
LINE
8
0
6
CONTINUOUS
10
30.458000
20
-79.586425
30
0.0
11
31.508000
21
-79.598319
31
0.0
0
LINE
8
0
6
CONTINUOUS
10
29.408000
20
-79.598319
30
0.0
11
29.408000
21
-78.881245
31
0.0
0
LINE
8
0
6
CONTINUOUS
10
30.458000
20
-79.586425
30
0.0
11
29.408000
21
-79.598319
31
0.0
0
LINE
8
0
6
CONTINUOUS
10
30.458000
20
-78.863717
30
0.0
11
30.458000
21
-79.586425
31
0.0
0
LINE
8
0
6
CONTINUOUS
10
28.958000
20
-79.626072
30
0.0
11
28.958000
21
-78.917773
31
0.0
0
LINE
8
0
6
CONTINUOUS
10
29.408000
20
-79.598319
30
0.0
11
28.958000
21
-79.626072
31
0.0
0
LINE
8
0
6
CONTINUOUS
10
29.408000
20
-78.881245
30
0.0
11
29.408000
21
-79.598319
31
0.0
0
LINE
8
0
6
CONTINUOUS
10
28.958000
20
-79.626072
30
0.0
11
29.408000
21
-79.653825
31
0.0
0
LINE
8
0
6
CONTINUOUS
10
28.958000
20
-78.917773
30
0.0
11
28.958000
21
-79.626072
31
0.0
0
LINE
8
0
6
CONTINUOUS
10
29.408000
20
-79.653825
30
0.0
11
30.458000
21
-79.665719
31
0.0
0
LINE
8
0
6
CONTINUOUS
10
30.458000
20
-79.665719
30
0.0
11
31.508000
21
-79.653825
31
0.0
0
LINE
8
0
6
CONTINUOUS
10
31.958000
20
-79.626072
30
0.0
11
31.958000
21
-78.910592
31
0.0
0
LINE
8
0
6
CONTINUOUS
10
31.508000
20
-79.653825
30
0.0
11
31.958000
21
-79.626072
31
0.0
0
LINE
8
0
6
CONTINUOUS
10
31.508000
20
-79.598319
30
0.0
11
31.508000
21
-78.876308
31
0.0
0
LINE
8
0
6
CONTINUOUS
10
31.958000
20
-79.626072
30
0.0
11
31.508000
21
-79.598319
31
0.0
0
LINE
8
0
6
CONTINUOUS
10
31.958000
20
-78.910592
30
0.0
11
31.958000
21
-79.626072
31
0.0
0
LINE
8
0
6
CONTINUOUS
10
30.458000
20
-79.586425
30
0.0
11
30.458000
21
-78.863717
31
0.0
0
LINE
8
0
6
CONTINUOUS
10
31.508000
20
-79.598319
30
0.0
11
30.458000
21
-79.586425
31
0.0
0
LINE
8
0
6
CONTINUOUS
10
31.508000
20
-78.876308
30
0.0
11
31.508000
21
-79.598319
31
0.0
0
LINE
8
0
6
CONTINUOUS
10
38.298000
20
-79.099806
30
0.0
11
39.348000
21
-79.074625
31
0.0
0
LINE
8
0
6
CONTINUOUS
10
37.848000
20
-79.158559
30
0.0
11
38.298000
21
-79.099806
31
0.0
0
LINE
8
0
6
CONTINUOUS
10
38.298000
20
-79.217313
30
0.0
11
37.848000
21
-79.158559
31
0.0
0
LINE
8
0
6
CONTINUOUS
10
39.348000
20
-79.242493
30
0.0
11
38.298000
21
-79.217313
31
0.0
0
LINE
8
0
6
CONTINUOUS
10
40.398000
20
-79.217313
30
0.0
11
39.348000
21
-79.242493
31
0.0
0
LINE
8
0
6
CONTINUOUS
10
40.848000
20
-79.158559
30
0.0
11
40.398000
21
-79.217313
31
0.0
0
LINE
8
0
6
CONTINUOUS
10
40.398000
20
-79.099806
30
0.0
11
40.848000
21
-79.158559
31
0.0
0
LINE
8
0
6
CONTINUOUS
10
39.348000
20
-79.074625
30
0.0
11
40.398000
21
-79.099806
31
0.0
0
LINE
8
0
6
CONTINUOUS
10
38.298000
20
-79.099806
30
0.0
11
38.298000
21
-78.318677
31
0.0
0
LINE
8
0
6
CONTINUOUS
10
39.348000
20
-79.074625
30
0.0
11
38.298000
21
-79.099806
31
0.0
0
LINE
8
0
6
CONTINUOUS
10
39.348000
20
-78.290139
30
0.0
11
39.348000
21
-79.074625
31
0.0
0
LINE
8
0
6
CONTINUOUS
10
37.848000
20
-79.158559
30
0.0
11
37.848000
21
-78.377457
31
0.0
0
LINE
8
0
6
CONTINUOUS
10
38.298000
20
-79.099806
30
0.0
11
37.848000
21
-79.158559
31
0.0
0
LINE
8
0
6
CONTINUOUS
10
38.298000
20
-78.318677
30
0.0
11
38.298000
21
-79.099806
31
0.0
0
LINE
8
0
6
CONTINUOUS
10
37.848000
20
-79.158559
30
0.0
11
38.298000
21
-79.217313
31
0.0
0
LINE
8
0
6
CONTINUOUS
10
37.848000
20
-78.377457
30
0.0
11
37.848000
21
-79.158559
31
0.0
0
LINE
8
0
6
CONTINUOUS
10
38.298000
20
-79.217313
30
0.0
11
39.348000
21
-79.242493
31
0.0
0
LINE
8
0
6
CONTINUOUS
10
39.348000
20
-79.242493
30
0.0
11
40.398000
21
-79.217313
31
0.0
0
LINE
8
0
6
CONTINUOUS
10
40.848000
20
-79.158559
30
0.0
11
40.848000
21
-78.365637
31
0.0
0
LINE
8
0
6
CONTINUOUS
10
40.398000
20
-79.217313
30
0.0
11
40.848000
21
-79.158559
31
0.0
0
LINE
8
0
6
CONTINUOUS
10
40.398000
20
-79.099806
30
0.0
11
40.398000
21
-78.310403
31
0.0
0
LINE
8
0
6
CONTINUOUS
10
40.848000
20
-79.158559
30
0.0
11
40.398000
21
-79.099806
31
0.0
0
LINE
8
0
6
CONTINUOUS
10
40.848000
20
-78.365637
30
0.0
11
40.848000
21
-79.158559
31
0.0
0
LINE
8
0
6
CONTINUOUS
10
39.348000
20
-79.074625
30
0.0
11
39.348000
21
-78.290139
31
0.0
0
LINE
8
0
6
CONTINUOUS
10
40.398000
20
-79.099806
30
0.0
11
39.348000
21
-79.074625
31
0.0
0
LINE
8
0
6
CONTINUOUS
10
40.398000
20
-78.310403
30
0.0
11
40.398000
21
-79.099806
31
0.0
0
LINE
8
0
6
CONTINUOUS
10
35.906000
20
-80.198414
30
0.0
11
36.956000
21
-80.198414
31
0.0
0
LINE
8
0
6
CONTINUOUS
10
35.456000
20
-80.198414
30
0.0
11
35.906000
21
-80.198414
31
0.0
0
LINE
8
0
6
CONTINUOUS
10
38.006000
20
-80.198414
30
0.0
11
38.456000
21
-80.198414
31
0.0
0
LINE
8
0
6
CONTINUOUS
10
36.956000
20
-80.198414
30
0.0
11
38.006000
21
-80.198414
31
0.0
0
LINE
8
0
6
CONTINUOUS
10
35.906000
20
-80.198414
30
0.0
11
35.906000
21
-79.305110
31
0.0
0
LINE
8
0
6
CONTINUOUS
10
36.956000
20
-80.198414
30
0.0
11
35.906000
21
-80.198414
31
0.0
0
LINE
8
0
6
CONTINUOUS
10
36.956000
20
-79.280179
30
0.0
11
36.956000
21
-80.198414
31
0.0
0
LINE
8
0
6
CONTINUOUS
10
35.456000
20
-80.198414
30
0.0
11
35.456000
21
-79.336888
31
0.0
0
LINE
8
0
6
CONTINUOUS
10
35.906000
20
-80.198414
30
0.0
11
35.456000
21
-80.198414
31
0.0
0
LINE
8
0
6
CONTINUOUS
10
35.906000
20
-79.305110
30
0.0
11
35.906000
21
-80.198414
31
0.0
0
LINE
8
0
6
CONTINUOUS
10
35.456000
20
-79.336888
30
0.0
11
35.456000
21
-80.198414
31
0.0
0
LINE
8
0
6
CONTINUOUS
10
38.456000
20
-80.198414
30
0.0
11
38.456000
21
-79.287533
31
0.0
0
LINE
8
0
6
CONTINUOUS
10
38.006000
20
-80.198414
30
0.0
11
38.006000
21
-79.274252
31
0.0
0
LINE
8
0
6
CONTINUOUS
10
38.456000
20
-80.198414
30
0.0
11
38.006000
21
-80.198414
31
0.0
0
LINE
8
0
6
CONTINUOUS
10
38.456000
20
-79.287533
30
0.0
11
38.456000
21
-80.198414
31
0.0
0
LINE
8
0
6
CONTINUOUS
10
36.956000
20
-80.198414
30
0.0
11
36.956000
21
-79.280179
31
0.0
0
LINE
8
0
6
CONTINUOUS
10
38.006000
20
-80.198414
30
0.0
11
36.956000
21
-80.198414
31
0.0
0
LINE
8
0
6
CONTINUOUS
10
38.006000
20
-79.274252
30
0.0
11
38.006000
21
-80.198414
31
0.0
0
LINE
8
0
6
CONTINUOUS
10
43.107000
20
-79.606027
30
0.0
11
44.157000
21
-79.594133
31
0.0
0
LINE
8
0
6
CONTINUOUS
10
42.657000
20
-79.633780
30
0.0
11
43.107000
21
-79.606027
31
0.0
0
LINE
8
0
6
CONTINUOUS
10
43.107000
20
-79.661533
30
0.0
11
42.657000
21
-79.633780
31
0.0
0
LINE
8
0
6
CONTINUOUS
10
44.157000
20
-79.673427
30
0.0
11
43.107000
21
-79.661533
31
0.0
0
LINE
8
0
6
CONTINUOUS
10
45.207000
20
-79.661533
30
0.0
11
44.157000
21
-79.673427
31
0.0
0
LINE
8
0
6
CONTINUOUS
10
45.657000
20
-79.633780
30
0.0
11
45.207000
21
-79.661533
31
0.0
0
LINE
8
0
6
CONTINUOUS
10
45.207000
20
-79.606027
30
0.0
11
45.657000
21
-79.633780
31
0.0
0
LINE
8
0
6
CONTINUOUS
10
44.157000
20
-79.594133
30
0.0
11
45.207000
21
-79.606027
31
0.0
0
LINE
8
0
6
CONTINUOUS
10
43.107000
20
-79.606027
30
0.0
11
43.107000
21
-78.848012
31
0.0
0
LINE
8
0
6
CONTINUOUS
10
44.157000
20
-79.594133
30
0.0
11
43.107000
21
-79.606027
31
0.0
0
LINE
8
0
6
CONTINUOUS
10
44.157000
20
-78.828333
30
0.0
11
44.157000
21
-79.594133
31
0.0
0
LINE
8
0
6
CONTINUOUS
10
42.657000
20
-79.633780
30
0.0
11
42.657000
21
-78.883610
31
0.0
0
LINE
8
0
6
CONTINUOUS
10
43.107000
20
-79.606027
30
0.0
11
42.657000
21
-79.633780
31
0.0
0
LINE
8
0
6
CONTINUOUS
10
43.107000
20
-78.848012
30
0.0
11
43.107000
21
-79.606027
31
0.0
0
LINE
8
0
6
CONTINUOUS
10
42.657000
20
-79.633780
30
0.0
11
43.107000
21
-79.661533
31
0.0
0
LINE
8
0
6
CONTINUOUS
10
42.657000
20
-78.883610
30
0.0
11
42.657000
21
-79.633780
31
0.0
0
LINE
8
0
6
CONTINUOUS
10
43.107000
20
-79.661533
30
0.0
11
44.157000
21
-79.673427
31
0.0
0
LINE
8
0
6
CONTINUOUS
10
44.157000
20
-79.673427
30
0.0
11
45.207000
21
-79.661533
31
0.0
0
LINE
8
0
6
CONTINUOUS
10
45.657000
20
-79.633780
30
0.0
11
45.657000
21
-78.863624
31
0.0
0
LINE
8
0
6
CONTINUOUS
10
45.207000
20
-79.661533
30
0.0
11
45.657000
21
-79.633780
31
0.0
0
LINE
8
0
6
CONTINUOUS
10
45.207000
20
-79.606027
30
0.0
11
45.207000
21
-78.835722
31
0.0
0
LINE
8
0
6
CONTINUOUS
10
45.657000
20
-79.633780
30
0.0
11
45.207000
21
-79.606027
31
0.0
0
LINE
8
0
6
CONTINUOUS
10
45.657000
20
-78.863624
30
0.0
11
45.657000
21
-79.633780
31
0.0
0
LINE
8
0
6
CONTINUOUS
10
44.157000
20
-79.594133
30
0.0
11
44.157000
21
-78.828333
31
0.0
0
LINE
8
0
6
CONTINUOUS
10
45.207000
20
-79.606027
30
0.0
11
44.157000
21
-79.594133
31
0.0
0
LINE
8
0
6
CONTINUOUS
10
45.207000
20
-78.835722
30
0.0
11
45.207000
21
-79.606027
31
0.0
0
LINE
8
0
6
CONTINUOUS
10
19.713000
20
-80.500000
30
0.0
11
20.763000
21
-80.500000
31
0.0
0
LINE
8
0
6
CONTINUOUS
10
19.263000
20
-80.500000
30
0.0
11
19.713000
21
-80.500000
31
0.0
0
LINE
8
0
6
CONTINUOUS
10
21.813000
20
-80.500000
30
0.0
11
22.263000
21
-80.500000
31
0.0
0
LINE
8
0
6
CONTINUOUS
10
20.763000
20
-80.500000
30
0.0
11
21.813000
21
-80.500000
31
0.0
0
LINE
8
0
6
CONTINUOUS
10
20.763000
20
-80.500000
30
0.0
11
19.713000
21
-80.500000
31
0.0
0
LINE
8
0
6
CONTINUOUS
10
20.763000
20
-79.500000
30
0.0
11
20.763000
21
-80.500000
31
0.0
0
LINE
8
0
6
CONTINUOUS
10
19.713000
20
-80.500000
30
0.0
11
19.263000
21
-80.500000
31
0.0
0
LINE
8
0
6
CONTINUOUS
10
22.263000
20
-80.500000
30
0.0
11
22.263000
21
-79.500000
31
0.0
0
LINE
8
0
6
CONTINUOUS
10
21.813000
20
-80.500000
30
0.0
11
21.813000
21
-79.500000
31
0.0
0
LINE
8
0
6
CONTINUOUS
10
22.263000
20
-80.500000
30
0.0
11
21.813000
21
-80.500000
31
0.0
0
LINE
8
0
6
CONTINUOUS
10
22.263000
20
-79.500000
30
0.0
11
22.263000
21
-80.500000
31
0.0
0
LINE
8
0
6
CONTINUOUS
10
20.763000
20
-80.500000
30
0.0
11
20.763000
21
-79.500000
31
0.0
0
LINE
8
0
6
CONTINUOUS
10
21.813000
20
-80.500000
30
0.0
11
20.763000
21
-80.500000
31
0.0
0
LINE
8
0
6
CONTINUOUS
10
21.813000
20
-79.500000
30
0.0
11
21.813000
21
-80.500000
31
0.0
0
LINE
8
0
6
CONTINUOUS
10
22.500000
20
-80.500000
30
0.0
11
22.050000
21
-80.500000
31
0.0
0
LINE
8
0
6
CONTINUOUS
10
22.500000
20
-79.500000
30
0.0
11
22.500000
21
-80.500000
31
0.0
0
LINE
8
0
6
CONTINUOUS
10
22.500000
20
-80.500000
30
0.0
11
22.500000
21
-79.500000
31
0.0
0
LINE
8
0
6
CONTINUOUS
10
22.050000
20
-80.500000
30
0.0
11
22.500000
21
-80.500000
31
0.0
0
LINE
8
0
6
CONTINUOUS
10
35.514000
20
-80.500000
30
0.0
11
35.064000
21
-80.500000
31
0.0
0
LINE
8
0
6
CONTINUOUS
10
36.564000
20
-80.500000
30
0.0
11
35.514000
21
-80.500000
31
0.0
0
LINE
8
0
6
CONTINUOUS
10
37.614000
20
-80.500000
30
0.0
11
36.564000
21
-80.500000
31
0.0
0
LINE
8
0
6
CONTINUOUS
10
38.064000
20
-80.500000
30
0.0
11
37.614000
21
-80.500000
31
0.0
0
LINE
8
0
6
CONTINUOUS
10
35.064000
20
-80.500000
30
0.0
11
35.064000
21
-79.500000
31
0.0
0
LINE
8
0
6
CONTINUOUS
10
35.064000
20
-80.500000
30
0.0
11
35.514000
21
-80.500000
31
0.0
0
LINE
8
0
6
CONTINUOUS
10
35.064000
20
-79.500000
30
0.0
11
35.064000
21
-80.500000
31
0.0
0
LINE
8
0
6
CONTINUOUS
10
35.514000
20
-80.500000
30
0.0
11
36.564000
21
-80.500000
31
0.0
0
LINE
8
0
6
CONTINUOUS
10
36.564000
20
-80.500000
30
0.0
11
37.614000
21
-80.500000
31
0.0
0
LINE
8
0
6
CONTINUOUS
10
37.614000
20
-80.500000
30
0.0
11
38.064000
21
-80.500000
31
0.0
0
LINE
8
0
6
CONTINUOUS
10
38.635000
20
-80.500000
30
0.0
11
37.585000
21
-80.500000
31
0.0
0
LINE
8
0
6
CONTINUOUS
10
39.085000
20
-80.500000
30
0.0
11
38.635000
21
-80.500000
31
0.0
0
LINE
8
0
6
CONTINUOUS
10
39.085000
20
-79.388684
30
0.0
11
39.085000
21
-80.500000
31
0.0
0
LINE
8
0
6
CONTINUOUS
10
38.635000
20
-80.500000
30
0.0
11
38.635000
21
-79.409138
31
0.0
0
LINE
8
0
6
CONTINUOUS
10
37.585000
20
-80.500000
30
0.0
11
38.635000
21
-80.500000
31
0.0
0
LINE
8
0
6
CONTINUOUS
10
39.085000
20
-80.500000
30
0.0
11
39.085000
21
-79.393621
31
0.0
0
LINE
8
0
6
CONTINUOUS
10
38.635000
20
-80.500000
30
0.0
11
39.085000
21
-80.500000
31
0.0
0
LINE
8
0
6
CONTINUOUS
10
38.635000
20
-79.403474
30
0.0
11
38.635000
21
-80.500000
31
0.0
0
LINE
8
0
6
CONTINUOUS
10
63.570000
20
-79.494713
30
0.0
11
63.120000
21
-79.494713
31
0.0
0
LINE
8
0
6
CONTINUOUS
10
64.620000
20
-79.494713
30
0.0
11
63.570000
21
-79.494713
31
0.0
0
LINE
8
0
6
CONTINUOUS
10
65.670000
20
-79.494713
30
0.0
11
64.620000
21
-79.494713
31
0.0
0
LINE
8
0
6
CONTINUOUS
10
66.120000
20
-79.494713
30
0.0
11
65.670000
21
-79.494713
31
0.0
0
LINE
8
0
6
CONTINUOUS
10
66.120000
20
-78.272571
30
0.0
11
66.120000
21
-79.494713
31
0.0
0
LINE
8
0
6
CONTINUOUS
10
63.120000
20
-79.494713
30
0.0
11
63.120000
21
-78.564828
31
0.0
0
LINE
8
0
6
CONTINUOUS
10
63.570000
20
-79.494713
30
0.0
11
63.570000
21
-78.549310
31
0.0
0
LINE
8
0
6
CONTINUOUS
10
63.120000
20
-79.494713
30
0.0
11
63.570000
21
-79.494713
31
0.0
0
LINE
8
0
6
CONTINUOUS
10
63.120000
20
-78.564828
30
0.0
11
63.120000
21
-79.494713
31
0.0
0
LINE
8
0
6
CONTINUOUS
10
64.620000
20
-79.494713
30
0.0
11
64.620000
21
-78.513103
31
0.0
0
LINE
8
0
6
CONTINUOUS
10
63.570000
20
-79.494713
30
0.0
11
64.620000
21
-79.494713
31
0.0
0
LINE
8
0
6
CONTINUOUS
10
63.570000
20
-78.549310
30
0.0
11
63.570000
21
-79.494713
31
0.0
0
LINE
8
0
6
CONTINUOUS
10
65.670000
20
-79.494713
30
0.0
11
65.670000
21
-78.282907
31
0.0
0
LINE
8
0
6
CONTINUOUS
10
64.620000
20
-79.494713
30
0.0
11
65.670000
21
-79.494713
31
0.0
0
LINE
8
0
6
CONTINUOUS
10
64.620000
20
-78.513103
30
0.0
11
64.620000
21
-79.494713
31
0.0
0
LINE
8
0
6
CONTINUOUS
10
66.120000
20
-79.494713
30
0.0
11
66.120000
21
-78.272571
31
0.0
0
LINE
8
0
6
CONTINUOUS
10
65.670000
20
-79.494713
30
0.0
11
66.120000
21
-79.494713
31
0.0
0
LINE
8
0
6
CONTINUOUS
10
65.670000
20
-78.282907
30
0.0
11
65.670000
21
-79.494713
31
0.0
0
LINE
8
0
6
CONTINUOUS
10
67.419000
20
-78.921203
30
0.0
11
66.369000
21
-78.921203
31
0.0
0
LINE
8
0
6
CONTINUOUS
10
67.869000
20
-78.921203
30
0.0
11
67.419000
21
-78.921203
31
0.0
0
LINE
8
0
6
CONTINUOUS
10
67.869000
20
-78.257389
30
0.0
11
67.869000
21
-78.921203
31
0.0
0
LINE
8
0
6
CONTINUOUS
10
66.369000
20
-78.921203
30
0.0
11
66.369000
21
-78.332965
31
0.0
0
LINE
8
0
6
CONTINUOUS
10
67.419000
20
-78.921203
30
0.0
11
67.419000
21
-78.277689
31
0.0
0
LINE
8
0
6
CONTINUOUS
10
66.369000
20
-78.921203
30
0.0
11
67.419000
21
-78.921203
31
0.0
0
LINE
8
0
6
CONTINUOUS
10
66.369000
20
-78.332965
30
0.0
11
66.369000
21
-78.921203
31
0.0
0
LINE
8
0
6
CONTINUOUS
10
67.869000
20
-78.921203
30
0.0
11
67.869000
21
-78.257389
31
0.0
0
LINE
8
0
6
CONTINUOUS
10
67.419000
20
-78.921203
30
0.0
11
67.869000
21
-78.921203
31
0.0
0
LINE
8
0
6
CONTINUOUS
10
67.419000
20
-78.277689
30
0.0
11
67.419000
21
-78.921203
31
0.0
0
LINE
8
0
6
CONTINUOUS
10
67.487000
20
-79.172525
30
0.0
11
66.437000
21
-79.172525
31
0.0
0
LINE
8
0
6
CONTINUOUS
10
67.937000
20
-79.172525
30
0.0
11
67.487000
21
-79.172525
31
0.0
0
LINE
8
0
6
CONTINUOUS
10
67.937000
20
-78.306878
30
0.0
11
67.937000
21
-79.172525
31
0.0
0
LINE
8
0
6
CONTINUOUS
10
66.437000
20
-79.172525
30
0.0
11
67.487000
21
-79.172525
31
0.0
0
LINE
8
0
6
CONTINUOUS
10
67.937000
20
-79.172525
30
0.0
11
67.937000
21
-78.336833
31
0.0
0
LINE
8
0
6
CONTINUOUS
10
67.487000
20
-79.172525
30
0.0
11
67.937000
21
-79.172525
31
0.0
0
LINE
8
0
6
CONTINUOUS
10
73.934000
20
-78.720148
30
0.0
11
74.984000
21
-78.684152
31
0.0
0
LINE
8
0
6
CONTINUOUS
10
73.484000
20
-78.804137
30
0.0
11
73.934000
21
-78.720148
31
0.0
0
LINE
8
0
6
CONTINUOUS
10
73.934000
20
-78.888127
30
0.0
11
73.484000
21
-78.804137
31
0.0
0
LINE
8
0
6
CONTINUOUS
10
74.984000
20
-78.924123
30
0.0
11
73.934000
21
-78.888127
31
0.0
0
LINE
8
0
6
CONTINUOUS
10
76.034000
20
-78.888127
30
0.0
11
74.984000
21
-78.924123
31
0.0
0
LINE
8
0
6
CONTINUOUS
10
76.484000
20
-78.804137
30
0.0
11
76.034000
21
-78.888127
31
0.0
0
LINE
8
0
6
CONTINUOUS
10
76.034000
20
-78.720148
30
0.0
11
76.484000
21
-78.804137
31
0.0
0
LINE
8
0
6
CONTINUOUS
10
74.984000
20
-78.684152
30
0.0
11
76.034000
21
-78.720148
31
0.0
0
LINE
8
0
6
CONTINUOUS
10
73.934000
20
-78.720148
30
0.0
11
73.934000
21
-77.486220
31
0.0
0
LINE
8
0
6
CONTINUOUS
10
74.984000
20
-78.684152
30
0.0
11
73.934000
21
-78.720148
31
0.0
0
LINE
8
0
6
CONTINUOUS
10
74.984000
20
-77.389226
30
0.0
11
74.984000
21
-78.684152
31
0.0
0
LINE
8
0
6
CONTINUOUS
10
73.484000
20
-78.804137
30
0.0
11
73.484000
21
-77.542304
31
0.0
0
LINE
8
0
6
CONTINUOUS
10
73.934000
20
-78.720148
30
0.0
11
73.484000
21
-78.804137
31
0.0
0
LINE
8
0
6
CONTINUOUS
10
73.934000
20
-77.486220
30
0.0
11
73.934000
21
-78.720148
31
0.0
0
LINE
8
0
6
CONTINUOUS
10
73.484000
20
-78.804137
30
0.0
11
73.934000
21
-78.888127
31
0.0
0
LINE
8
0
6
CONTINUOUS
10
73.484000
20
-77.542304
30
0.0
11
73.484000
21
-78.804137
31
0.0
0
LINE
8
0
6
CONTINUOUS
10
73.934000
20
-78.888127
30
0.0
11
74.984000
21
-78.924123
31
0.0
0
LINE
8
0
6
CONTINUOUS
10
74.984000
20
-78.924123
30
0.0
11
76.034000
21
-78.888127
31
0.0
0
LINE
8
0
6
CONTINUOUS
10
76.484000
20
-78.804137
30
0.0
11
76.484000
21
-77.400793
31
0.0
0
LINE
8
0
6
CONTINUOUS
10
76.034000
20
-78.888127
30
0.0
11
76.484000
21
-78.804137
31
0.0
0
LINE
8
0
6
CONTINUOUS
10
76.034000
20
-78.720148
30
0.0
11
76.034000
21
-77.362715
31
0.0
0
LINE
8
0
6
CONTINUOUS
10
76.484000
20
-78.804137
30
0.0
11
76.034000
21
-78.720148
31
0.0
0
LINE
8
0
6
CONTINUOUS
10
76.484000
20
-77.400793
30
0.0
11
76.484000
21
-78.804137
31
0.0
0
LINE
8
0
6
CONTINUOUS
10
74.984000
20
-78.684152
30
0.0
11
74.984000
21
-77.389226
31
0.0
0
LINE
8
0
6
CONTINUOUS
10
76.034000
20
-78.720148
30
0.0
11
74.984000
21
-78.684152
31
0.0
0
LINE
8
0
6
CONTINUOUS
10
76.034000
20
-77.362715
30
0.0
11
76.034000
21
-78.720148
31
0.0
0
LINE
8
0
6
CONTINUOUS
10
80.959000
20
-78.796144
30
0.0
11
81.409000
21
-78.737391
31
0.0
0
LINE
8
0
6
CONTINUOUS
10
79.909000
20
-78.821324
30
0.0
11
80.959000
21
-78.796144
31
0.0
0
LINE
8
0
6
CONTINUOUS
10
78.859000
20
-78.796144
30
0.0
11
79.909000
21
-78.821324
31
0.0
0
LINE
8
0
6
CONTINUOUS
10
78.409000
20
-78.737391
30
0.0
11
78.859000
21
-78.796144
31
0.0
0
LINE
8
0
6
CONTINUOUS
10
78.859000
20
-78.678637
30
0.0
11
78.409000
21
-78.737391
31
0.0
0
LINE
8
0
6
CONTINUOUS
10
79.909000
20
-78.653457
30
0.0
11
78.859000
21
-78.678637
31
0.0
0
LINE
8
0
6
CONTINUOUS
10
80.959000
20
-78.678637
30
0.0
11
79.909000
21
-78.653457
31
0.0
0
LINE
8
0
6
CONTINUOUS
10
81.409000
20
-78.737391
30
0.0
11
80.959000
21
-78.678637
31
0.0
0
LINE
8
0
6
CONTINUOUS
10
81.409000
20
-78.737391
30
0.0
11
80.959000
21
-78.796144
31
0.0
0
LINE
8
0
6
CONTINUOUS
10
81.409000
20
-77.325295
30
0.0
11
81.409000
21
-78.737391
31
0.0
0
LINE
8
0
6
CONTINUOUS
10
80.959000
20
-78.796144
30
0.0
11
79.909000
21
-78.821324
31
0.0
0
LINE
8
0
6
CONTINUOUS
10
79.909000
20
-78.821324
30
0.0
11
78.859000
21
-78.796144
31
0.0
0
LINE
8
0
6
CONTINUOUS
10
78.409000
20
-78.737391
30
0.0
11
78.409000
21
-77.576697
31
0.0
0
LINE
8
0
6
CONTINUOUS
10
78.859000
20
-78.796144
30
0.0
11
78.409000
21
-78.737391
31
0.0
0
LINE
8
0
6
CONTINUOUS
10
78.859000
20
-78.678637
30
0.0
11
78.859000
21
-77.544983
31
0.0
0
LINE
8
0
6
CONTINUOUS
10
78.409000
20
-78.737391
30
0.0
11
78.859000
21
-78.678637
31
0.0
0
LINE
8
0
6
CONTINUOUS
10
78.409000
20
-77.576697
30
0.0
11
78.409000
21
-78.737391
31
0.0
0
LINE
8
0
6
CONTINUOUS
10
79.909000
20
-78.653457
30
0.0
11
79.909000
21
-77.472197
31
0.0
0
LINE
8
0
6
CONTINUOUS
10
78.859000
20
-78.678637
30
0.0
11
79.909000
21
-78.653457
31
0.0
0
LINE
8
0
6
CONTINUOUS
10
78.859000
20
-77.544983
30
0.0
11
78.859000
21
-78.678637
31
0.0
0
LINE
8
0
6
CONTINUOUS
10
80.959000
20
-78.678637
30
0.0
11
80.959000
21
-77.360086
31
0.0
0
LINE
8
0
6
CONTINUOUS
10
79.909000
20
-78.653457
30
0.0
11
80.959000
21
-78.678637
31
0.0
0
LINE
8
0
6
CONTINUOUS
10
79.909000
20
-77.472197
30
0.0
11
79.909000
21
-78.653457
31
0.0
0
LINE
8
0
6
CONTINUOUS
10
81.409000
20
-78.737391
30
0.0
11
81.409000
21
-77.325295
31
0.0
0
LINE
8
0
6
CONTINUOUS
10
80.959000
20
-78.678637
30
0.0
11
81.409000
21
-78.737391
31
0.0
0
LINE
8
0
6
CONTINUOUS
10
80.959000
20
-77.360086
30
0.0
11
80.959000
21
-78.678637
31
0.0
0
LINE
8
0
6
CONTINUOUS
10
81.815000
20
-78.844403
30
0.0
11
82.265000
21
-78.816650
31
0.0
0
LINE
8
0
6
CONTINUOUS
10
80.765000
20
-78.856297
30
0.0
11
81.815000
21
-78.844403
31
0.0
0
LINE
8
0
6
CONTINUOUS
10
79.715000
20
-78.844403
30
0.0
11
80.765000
21
-78.856297
31
0.0
0
LINE
8
0
6
CONTINUOUS
10
79.265000
20
-78.816650
30
0.0
11
79.715000
21
-78.844403
31
0.0
0
LINE
8
0
6
CONTINUOUS
10
81.815000
20
-78.788897
30
0.0
11
80.765000
21
-78.777003
31
0.0
0
LINE
8
0
6
CONTINUOUS
10
82.265000
20
-78.816650
30
0.0
11
81.815000
21
-78.788897
31
0.0
0
LINE
8
0
6
CONTINUOUS
10
82.265000
20
-78.816650
30
0.0
11
81.815000
21
-78.844403
31
0.0
0
LINE
8
0
6
CONTINUOUS
10
82.265000
20
-77.377112
30
0.0
11
82.265000
21
-78.816650
31
0.0
0
LINE
8
0
6
CONTINUOUS
10
81.815000
20
-78.844403
30
0.0
11
80.765000
21
-78.856297
31
0.0
0
LINE
8
0
6
CONTINUOUS
10
80.765000
20
-78.856297
30
0.0
11
79.715000
21
-78.844403
31
0.0
0
LINE
8
0
6
CONTINUOUS
10
79.715000
20
-78.844403
30
0.0
11
79.265000
21
-78.816650
31
0.0
0
LINE
8
0
6
CONTINUOUS
10
81.815000
20
-78.788897
30
0.0
11
81.815000
21
-77.422782
31
0.0
0
LINE
8
0
6
CONTINUOUS
10
80.765000
20
-78.777003
30
0.0
11
81.815000
21
-78.788897
31
0.0
0
LINE
8
0
6
CONTINUOUS
10
82.265000
20
-78.816650
30
0.0
11
82.265000
21
-77.377112
31
0.0
0
LINE
8
0
6
CONTINUOUS
10
81.815000
20
-78.788897
30
0.0
11
82.265000
21
-78.816650
31
0.0
0
LINE
8
0
6
CONTINUOUS
10
81.815000
20
-77.422782
30
0.0
11
81.815000
21
-78.788897
31
0.0
0
LINE
8
0
6
CONTINUOUS
10
79.842000
20
-78.931140
30
0.0
11
79.392000
21
-78.931140
31
0.0
0
LINE
8
0
6
CONTINUOUS
10
80.892000
20
-78.931140
30
0.0
11
79.842000
21
-78.931140
31
0.0
0
LINE
8
0
6
CONTINUOUS
10
81.942000
20
-78.931140
30
0.0
11
80.892000
21
-78.931140
31
0.0
0
LINE
8
0
6
CONTINUOUS
10
82.392000
20
-78.931140
30
0.0
11
81.942000
21
-78.931140
31
0.0
0
LINE
8
0
6
CONTINUOUS
10
82.392000
20
-77.485943
30
0.0
11
82.392000
21
-78.931140
31
0.0
0
LINE
8
0
6
CONTINUOUS
10
79.392000
20
-78.931140
30
0.0
11
79.842000
21
-78.931140
31
0.0
0
LINE
8
0
6
CONTINUOUS
10
79.842000
20
-78.931140
30
0.0
11
80.892000
21
-78.931140
31
0.0
0
LINE
8
0
6
CONTINUOUS
10
80.892000
20
-78.931140
30
0.0
11
81.942000
21
-78.931140
31
0.0
0
LINE
8
0
6
CONTINUOUS
10
82.392000
20
-78.931140
30
0.0
11
82.392000
21
-77.485943
31
0.0
0
LINE
8
0
6
CONTINUOUS
10
81.942000
20
-78.931140
30
0.0
11
82.392000
21
-78.931140
31
0.0
0
LINE
8
0
6
CONTINUOUS
10
67.633000
20
-79.474111
30
0.0
11
66.583000
21
-79.474111
31
0.0
0
LINE
8
0
6
CONTINUOUS
10
68.083000
20
-79.474111
30
0.0
11
67.633000
21
-79.474111
31
0.0
0
LINE
8
0
6
CONTINUOUS
10
68.083000
20
-78.315917
30
0.0
11
68.083000
21
-79.474111
31
0.0
0
LINE
8
0
6
CONTINUOUS
10
66.583000
20
-79.474111
30
0.0
11
67.633000
21
-79.474111
31
0.0
0
LINE
8
0
6
CONTINUOUS
10
68.083000
20
-79.474111
30
0.0
11
68.083000
21
-78.328722
31
0.0
0
LINE
8
0
6
CONTINUOUS
10
67.633000
20
-79.474111
30
0.0
11
68.083000
21
-79.474111
31
0.0
0
LINE
8
0
6
CONTINUOUS
10
82.489000
20
-77.505168
30
0.0
11
82.489000
21
-78.780127
31
0.0
0
LINE
8
0
6
CONTINUOUS
10
82.489000
20
-78.780127
30
0.0
11
82.489000
21
-77.528389
31
0.0
0
LINE
8
0
6
CONTINUOUS
10
82.616000
20
-77.513101
30
0.0
11
82.616000
21
-78.780127
31
0.0
0
LINE
8
0
6
CONTINUOUS
10
82.616000
20
-78.780127
30
0.0
11
82.616000
21
-77.521333
31
0.0
0
LINE
8
0
6
CONTINUOUS
10
52.143000
20
-79.197715
30
0.0
11
53.193000
21
-79.172535
31
0.0
0
LINE
8
0
6
CONTINUOUS
10
51.693000
20
-79.256469
30
0.0
11
52.143000
21
-79.197715
31
0.0
0
LINE
8
0
6
CONTINUOUS
10
52.143000
20
-79.315223
30
0.0
11
51.693000
21
-79.256469
31
0.0
0
LINE
8
0
6
CONTINUOUS
10
53.193000
20
-79.340403
30
0.0
11
52.143000
21
-79.315223
31
0.0
0
LINE
8
0
6
CONTINUOUS
10
54.243000
20
-79.315223
30
0.0
11
53.193000
21
-79.340403
31
0.0
0
LINE
8
0
6
CONTINUOUS
10
54.693000
20
-79.256469
30
0.0
11
54.243000
21
-79.315223
31
0.0
0
LINE
8
0
6
CONTINUOUS
10
54.243000
20
-79.197715
30
0.0
11
54.693000
21
-79.256469
31
0.0
0
LINE
8
0
6
CONTINUOUS
10
53.193000
20
-79.172535
30
0.0
11
54.243000
21
-79.197715
31
0.0
0
LINE
8
0
6
CONTINUOUS
10
52.143000
20
-79.197715
30
0.0
11
52.143000
21
-78.345053
31
0.0
0
LINE
8
0
6
CONTINUOUS
10
53.193000
20
-79.172535
30
0.0
11
52.143000
21
-79.197715
31
0.0
0
LINE
8
0
6
CONTINUOUS
10
53.193000
20
-78.313413
30
0.0
11
53.193000
21
-79.172535
31
0.0
0
LINE
8
0
6
CONTINUOUS
10
51.693000
20
-79.256469
30
0.0
11
51.693000
21
-78.402370
31
0.0
0
LINE
8
0
6
CONTINUOUS
10
52.143000
20
-79.197715
30
0.0
11
51.693000
21
-79.256469
31
0.0
0
LINE
8
0
6
CONTINUOUS
10
52.143000
20
-78.345053
30
0.0
11
52.143000
21
-79.197715
31
0.0
0
LINE
8
0
6
CONTINUOUS
10
51.693000
20
-79.256469
30
0.0
11
52.143000
21
-79.315223
31
0.0
0
LINE
8
0
6
CONTINUOUS
10
51.693000
20
-78.402370
30
0.0
11
51.693000
21
-79.256469
31
0.0
0
LINE
8
0
6
CONTINUOUS
10
52.143000
20
-79.315223
30
0.0
11
53.193000
21
-79.340403
31
0.0
0
LINE
8
0
6
CONTINUOUS
10
53.193000
20
-79.340403
30
0.0
11
54.243000
21
-79.315223
31
0.0
0
LINE
8
0
6
CONTINUOUS
10
54.693000
20
-79.256469
30
0.0
11
54.693000
21
-78.376034
31
0.0
0
LINE
8
0
6
CONTINUOUS
10
54.243000
20
-79.315223
30
0.0
11
54.693000
21
-79.256469
31
0.0
0
LINE
8
0
6
CONTINUOUS
10
54.243000
20
-79.197715
30
0.0
11
54.243000
21
-78.327647
31
0.0
0
LINE
8
0
6
CONTINUOUS
10
54.693000
20
-79.256469
30
0.0
11
54.243000
21
-79.197715
31
0.0
0
LINE
8
0
6
CONTINUOUS
10
54.693000
20
-78.376034
30
0.0
11
54.693000
21
-79.256469
31
0.0
0
LINE
8
0
6
CONTINUOUS
10
53.193000
20
-79.172535
30
0.0
11
53.193000
21
-78.313413
31
0.0
0
LINE
8
0
6
CONTINUOUS
10
54.243000
20
-79.197715
30
0.0
11
53.193000
21
-79.172535
31
0.0
0
LINE
8
0
6
CONTINUOUS
10
54.243000
20
-78.327647
30
0.0
11
54.243000
21
-79.197715
31
0.0
0
LINE
8
0
6
CONTINUOUS
10
50.679000
20
-79.947092
30
0.0
11
50.229000
21
-79.947092
31
0.0
0
LINE
8
0
6
CONTINUOUS
10
51.729000
20
-79.947092
30
0.0
11
50.679000
21
-79.947092
31
0.0
0
LINE
8
0
6
CONTINUOUS
10
52.779000
20
-79.947092
30
0.0
11
51.729000
21
-79.947092
31
0.0
0
LINE
8
0
6
CONTINUOUS
10
53.229000
20
-79.947092
30
0.0
11
52.779000
21
-79.947092
31
0.0
0
LINE
8
0
6
CONTINUOUS
10
53.229000
20
-78.905897
30
0.0
11
53.229000
21
-79.947092
31
0.0
0
LINE
8
0
6
CONTINUOUS
10
50.229000
20
-79.947092
30
0.0
11
50.229000
21
-78.917470
31
0.0
0
LINE
8
0
6
CONTINUOUS
10
50.679000
20
-79.947092
30
0.0
11
50.679000
21
-78.896257
31
0.0
0
LINE
8
0
6
CONTINUOUS
10
50.229000
20
-79.947092
30
0.0
11
50.679000
21
-79.947092
31
0.0
0
LINE
8
0
6
CONTINUOUS
10
50.229000
20
-78.917470
30
0.0
11
50.229000
21
-79.947092
31
0.0
0
LINE
8
0
6
CONTINUOUS
10
51.729000
20
-79.947092
30
0.0
11
51.729000
21
-78.957621
31
0.0
0
LINE
8
0
6
CONTINUOUS
10
50.679000
20
-79.947092
30
0.0
11
51.729000
21
-79.947092
31
0.0
0
LINE
8
0
6
CONTINUOUS
10
50.679000
20
-78.896257
30
0.0
11
50.679000
21
-79.947092
31
0.0
0
LINE
8
0
6
CONTINUOUS
10
52.779000
20
-79.947092
30
0.0
11
52.779000
21
-78.921414
31
0.0
0
LINE
8
0
6
CONTINUOUS
10
51.729000
20
-79.947092
30
0.0
11
52.779000
21
-79.947092
31
0.0
0
LINE
8
0
6
CONTINUOUS
10
51.729000
20
-78.957621
30
0.0
11
51.729000
21
-79.947092
31
0.0
0
LINE
8
0
6
CONTINUOUS
10
53.229000
20
-79.947092
30
0.0
11
53.229000
21
-78.905897
31
0.0
0
LINE
8
0
6
CONTINUOUS
10
52.779000
20
-79.947092
30
0.0
11
53.229000
21
-79.947092
31
0.0
0
LINE
8
0
6
CONTINUOUS
10
52.779000
20
-78.921414
30
0.0
11
52.779000
21
-79.947092
31
0.0
0
LINE
8
0
6
CONTINUOUS
10
53.521000
20
-79.775989
30
0.0
11
53.071000
21
-79.775989
31
0.0
0
LINE
8
0
6
CONTINUOUS
10
53.521000
20
-79.775989
30
0.0
11
53.521000
21
-78.895828
31
0.0
0
LINE
8
0
6
CONTINUOUS
10
53.071000
20
-79.775989
30
0.0
11
53.521000
21
-79.775989
31
0.0
0
LINE
8
0
6
CONTINUOUS
10
50.387000
20
-79.956882
30
0.0
11
49.937000
21
-79.956882
31
0.0
0
LINE
8
0
6
CONTINUOUS
10
49.937000
20
-79.956882
30
0.0
11
49.937000
21
-79.019414
31
0.0
0
LINE
8
0
6
CONTINUOUS
10
49.937000
20
-79.956882
30
0.0
11
50.387000
21
-79.956882
31
0.0
0
LINE
8
0
6
CONTINUOUS
10
49.937000
20
-79.008236
30
0.0
11
49.937000
21
-79.956882
31
0.0
0
LINE
8
0
6
CONTINUOUS
10
49.950000
20
-79.956882
30
0.0
11
49.500000
21
-79.956882
31
0.0
0
LINE
8
0
6
CONTINUOUS
10
49.500000
20
-79.956882
30
0.0
11
49.500000
21
-79.034483
31
0.0
0
LINE
8
0
6
CONTINUOUS
10
49.500000
20
-79.956882
30
0.0
11
49.950000
21
-79.956882
31
0.0
0
LINE
8
0
6
CONTINUOUS
10
49.500000
20
-79.034482
30
0.0
11
49.500000
21
-79.956882
31
0.0
0
LINE
8
0
6
CONTINUOUS
10
38.936000
20
-80.500000
30
0.0
11
39.386000
21
-80.500000
31
0.0
0
LINE
8
0
6
CONTINUOUS
10
39.386000
20
-80.500000
30
0.0
11
38.936000
21
-80.500000
31
0.0
0
LINE
8
0
6
CONTINUOUS
10
39.386000
20
-79.383241
30
0.0
11
39.386000
21
-80.500000
31
0.0
0
LINE
8
0
6
CONTINUOUS
10
39.386000
20
-80.500000
30
0.0
11
39.386000
21
-79.383241
31
0.0
0
LINE
8
0
6
CONTINUOUS
10
82.466000
20
-78.780127
30
0.0
11
82.916000
21
-78.780127
31
0.0
0
LINE
8
0
6
CONTINUOUS
10
82.916000
20
-78.780127
30
0.0
11
82.466000
21
-78.780127
31
0.0
0
LINE
8
0
6
CONTINUOUS
10
82.916000
20
-77.504667
30
0.0
11
82.916000
21
-78.780127
31
0.0
0
LINE
8
0
6
CONTINUOUS
10
82.916000
20
-78.780127
30
0.0
11
82.916000
21
-77.504667
31
0.0
0
LINE
8
0
6
CONTINUOUS
10
93.561000
20
-76.998690
30
0.0
11
94.011000
21
-76.914700
31
0.0
0
LINE
8
0
6
CONTINUOUS
10
92.511000
20
-77.034690
30
0.0
11
93.561000
21
-76.998690
31
0.0
0
LINE
8
0
6
CONTINUOUS
10
91.461000
20
-76.998690
30
0.0
11
92.511000
21
-77.034690
31
0.0
0
LINE
8
0
6
CONTINUOUS
10
91.011000
20
-76.914700
30
0.0
11
91.461000
21
-76.998690
31
0.0
0
LINE
8
0
6
CONTINUOUS
10
91.461000
20
-76.830710
30
0.0
11
91.011000
21
-76.914700
31
0.0
0
LINE
8
0
6
CONTINUOUS
10
92.511000
20
-76.794720
30
0.0
11
91.461000
21
-76.830710
31
0.0
0
LINE
8
0
6
CONTINUOUS
10
93.561000
20
-76.830710
30
0.0
11
92.511000
21
-76.794720
31
0.0
0
LINE
8
0
6
CONTINUOUS
10
94.011000
20
-76.914700
30
0.0
11
93.561000
21
-76.830710
31
0.0
0
LINE
8
0
6
CONTINUOUS
10
94.011000
20
-76.914700
30
0.0
11
93.561000
21
-76.998690
31
0.0
0
LINE
8
0
6
CONTINUOUS
10
94.011000
20
-75.668375
30
0.0
11
94.011000
21
-76.914700
31
0.0
0
LINE
8
0
6
CONTINUOUS
10
93.561000
20
-76.998690
30
0.0
11
92.511000
21
-77.034690
31
0.0
0
LINE
8
0
6
CONTINUOUS
10
92.511000
20
-77.034690
30
0.0
11
91.461000
21
-76.998690
31
0.0
0
LINE
8
0
6
CONTINUOUS
10
91.011000
20
-76.914700
30
0.0
11
91.011000
21
-76.012585
31
0.0
0
LINE
8
0
6
CONTINUOUS
10
91.461000
20
-76.998690
30
0.0
11
91.011000
21
-76.914700
31
0.0
0
LINE
8
0
6
CONTINUOUS
10
91.461000
20
-76.830710
30
0.0
11
91.461000
21
-75.941270
31
0.0
0
LINE
8
0
6
CONTINUOUS
10
91.011000
20
-76.914700
30
0.0
11
91.461000
21
-76.830710
31
0.0
0
LINE
8
0
6
CONTINUOUS
10
91.011000
20
-76.012585
30
0.0
11
91.011000
21
-76.914700
31
0.0
0
LINE
8
0
6
CONTINUOUS
10
92.511000
20
-76.794720
30
0.0
11
92.511000
21
-75.812355
31
0.0
0
LINE
8
0
6
CONTINUOUS
10
91.461000
20
-76.830710
30
0.0
11
92.511000
21
-76.794720
31
0.0
0
LINE
8
0
6
CONTINUOUS
10
91.461000
20
-75.941270
30
0.0
11
91.461000
21
-76.830710
31
0.0
0
LINE
8
0
6
CONTINUOUS
10
93.561000
20
-76.830710
30
0.0
11
93.561000
21
-75.700323
31
0.0
0
LINE
8
0
6
CONTINUOUS
10
92.511000
20
-76.794720
30
0.0
11
93.561000
21
-76.830710
31
0.0
0
LINE
8
0
6
CONTINUOUS
10
92.511000
20
-75.812355
30
0.0
11
92.511000
21
-76.794720
31
0.0
0
LINE
8
0
6
CONTINUOUS
10
94.011000
20
-76.914700
30
0.0
11
94.011000
21
-75.668375
31
0.0
0
LINE
8
0
6
CONTINUOUS
10
93.561000
20
-76.830710
30
0.0
11
94.011000
21
-76.914700
31
0.0
0
LINE
8
0
6
CONTINUOUS
10
93.561000
20
-75.700323
30
0.0
11
93.561000
21
-76.830710
31
0.0
0
LINE
8
0
6
CONTINUOUS
10
94.821000
20
-76.869640
30
0.0
11
93.771000
21
-76.869640
31
0.0
0
LINE
8
0
6
CONTINUOUS
10
95.271000
20
-76.869640
30
0.0
11
94.821000
21
-76.869640
31
0.0
0
LINE
8
0
6
CONTINUOUS
10
95.271000
20
-75.697056
30
0.0
11
95.271000
21
-76.869640
31
0.0
0
LINE
8
0
6
CONTINUOUS
10
94.821000
20
-76.869640
30
0.0
11
94.821000
21
-75.742735
31
0.0
0
LINE
8
0
6
CONTINUOUS
10
93.771000
20
-76.869640
30
0.0
11
94.821000
21
-76.869640
31
0.0
0
LINE
8
0
6
CONTINUOUS
10
95.271000
20
-76.869640
30
0.0
11
95.271000
21
-75.697056
31
0.0
0
LINE
8
0
6
CONTINUOUS
10
94.821000
20
-76.869640
30
0.0
11
95.271000
21
-76.869640
31
0.0
0
LINE
8
0
6
CONTINUOUS
10
94.821000
20
-75.742735
30
0.0
11
94.821000
21
-76.869640
31
0.0
0
LINE
8
0
6
CONTINUOUS
10
94.790000
20
-76.959940
30
0.0
11
93.740000
21
-76.959940
31
0.0
0
LINE
8
0
6
CONTINUOUS
10
95.840000
20
-76.959940
30
0.0
11
94.790000
21
-76.959940
31
0.0
0
LINE
8
0
6
CONTINUOUS
10
96.290000
20
-76.959940
30
0.0
11
95.840000
21
-76.959940
31
0.0
0
LINE
8
0
6
CONTINUOUS
10
96.290000
20
-75.689911
30
0.0
11
96.290000
21
-76.959940
31
0.0
0
LINE
8
0
6
CONTINUOUS
10
93.740000
20
-76.959940
30
0.0
11
94.790000
21
-76.959940
31
0.0
0
LINE
8
0
6
CONTINUOUS
10
95.840000
20
-76.959940
30
0.0
11
95.840000
21
-75.736842
31
0.0
0
LINE
8
0
6
CONTINUOUS
10
94.790000
20
-76.959940
30
0.0
11
95.840000
21
-76.959940
31
0.0
0
LINE
8
0
6
CONTINUOUS
10
96.290000
20
-76.959940
30
0.0
11
96.290000
21
-75.689911
31
0.0
0
LINE
8
0
6
CONTINUOUS
10
95.840000
20
-76.959940
30
0.0
11
96.290000
21
-76.959940
31
0.0
0
LINE
8
0
6
CONTINUOUS
10
95.840000
20
-75.736842
30
0.0
11
95.840000
21
-76.959940
31
0.0
0
LINE
8
0
6
CONTINUOUS
10
97.170000
20
-76.728490
30
0.0
11
96.720000
21
-76.728490
31
0.0
0
LINE
8
0
6
CONTINUOUS
10
97.170000
20
-75.657180
30
0.0
11
97.170000
21
-76.728490
31
0.0
0
LINE
8
0
6
CONTINUOUS
10
96.720000
20
-76.728490
30
0.0
11
96.720000
21
-75.710663
31
0.0
0
LINE
8
0
6
CONTINUOUS
10
97.170000
20
-76.728490
30
0.0
11
97.170000
21
-75.657180
31
0.0
0
LINE
8
0
6
CONTINUOUS
10
96.720000
20
-76.728490
30
0.0
11
97.170000
21
-76.728490
31
0.0
0
LINE
8
0
6
CONTINUOUS
10
96.720000
20
-75.710663
30
0.0
11
96.720000
21
-76.728490
31
0.0
0
LINE
8
0
6
CONTINUOUS
10
94.950000
20
-77.030080
30
0.0
11
94.500000
21
-77.030080
31
0.0
0
LINE
8
0
6
CONTINUOUS
10
96.000000
20
-77.030080
30
0.0
11
94.950000
21
-77.030080
31
0.0
0
LINE
8
0
6
CONTINUOUS
10
97.050000
20
-77.030080
30
0.0
11
96.000000
21
-77.030080
31
0.0
0
LINE
8
0
6
CONTINUOUS
10
97.500000
20
-77.030080
30
0.0
11
97.050000
21
-77.030080
31
0.0
0
LINE
8
0
6
CONTINUOUS
10
97.500000
20
-75.653423
30
0.0
11
97.500000
21
-77.030080
31
0.0
0
LINE
8
0
6
CONTINUOUS
10
94.500000
20
-77.030080
30
0.0
11
94.950000
21
-77.030080
31
0.0
0
LINE
8
0
6
CONTINUOUS
10
94.950000
20
-77.030080
30
0.0
11
96.000000
21
-77.030080
31
0.0
0
LINE
8
0
6
CONTINUOUS
10
96.000000
20
-77.030080
30
0.0
11
97.050000
21
-77.030080
31
0.0
0
LINE
8
0
6
CONTINUOUS
10
97.500000
20
-77.030080
30
0.0
11
97.500000
21
-75.687500
31
0.0
0
LINE
8
0
6
CONTINUOUS
10
97.050000
20
-77.030080
30
0.0
11
97.500000
21
-77.030080
31
0.0
0
LINE
8
0
6
CONTINUOUS
10
97.651000
20
-77.030080
30
0.0
11
98.101000
21
-77.030080
31
0.0
0
LINE
8
0
6
CONTINUOUS
10
97.651000
20
-77.030080
30
0.0
11
97.651000
21
-75.668625
31
0.0
0
LINE
8
0
6
CONTINUOUS
10
98.101000
20
-77.030080
30
0.0
11
97.651000
21
-77.030080
31
0.0
0
LINE
8
0
6
CONTINUOUS
10
98.101000
20
-75.612375
30
0.0
11
98.101000
21
-77.030080
31
0.0
0
LINE
8
0
6
CONTINUOUS
10
97.651000
20
-75.668625
30
0.0
11
97.651000
21
-77.030080
31
0.0
0
LINE
8
0
6
CONTINUOUS
10
98.101000
20
-77.030080
30
0.0
11
98.101000
21
-75.612375
31
0.0
0
LINE
8
0
6
CONTINUOUS
10
16.242000
20
-79.664837
30
0.0
11
17.292000
21
-79.652943
31
0.0
0
LINE
8
0
6
CONTINUOUS
10
15.792000
20
-79.692590
30
0.0
11
16.242000
21
-79.664837
31
0.0
0
LINE
8
0
6
CONTINUOUS
10
16.242000
20
-79.720342
30
0.0
11
15.792000
21
-79.692590
31
0.0
0
LINE
8
0
6
CONTINUOUS
10
17.292000
20
-79.732236
30
0.0
11
16.242000
21
-79.720342
31
0.0
0
LINE
8
0
6
CONTINUOUS
10
18.342000
20
-79.720342
30
0.0
11
17.292000
21
-79.732236
31
0.0
0
LINE
8
0
6
CONTINUOUS
10
18.792000
20
-79.692590
30
0.0
11
18.342000
21
-79.720342
31
0.0
0
LINE
8
0
6
CONTINUOUS
10
18.342000
20
-79.664837
30
0.0
11
18.792000
21
-79.692590
31
0.0
0
LINE
8
0
6
CONTINUOUS
10
17.292000
20
-79.652943
30
0.0
11
18.342000
21
-79.664837
31
0.0
0
LINE
8
0
6
CONTINUOUS
10
16.242000
20
-79.664837
30
0.0
11
16.242000
21
-78.989618
31
0.0
0
LINE
8
0
6
CONTINUOUS
10
17.292000
20
-79.652943
30
0.0
11
16.242000
21
-79.664837
31
0.0
0
LINE
8
0
6
CONTINUOUS
10
17.292000
20
-78.973382
30
0.0
11
17.292000
21
-79.652943
31
0.0
0
LINE
8
0
6
CONTINUOUS
10
15.792000
20
-79.692590
30
0.0
11
15.792000
21
-79.026119
31
0.0
0
LINE
8
0
6
CONTINUOUS
10
16.242000
20
-79.664837
30
0.0
11
15.792000
21
-79.692590
31
0.0
0
LINE
8
0
6
CONTINUOUS
10
16.242000
20
-78.989618
30
0.0
11
16.242000
21
-79.664837
31
0.0
0
LINE
8
0
6
CONTINUOUS
10
15.792000
20
-79.692590
30
0.0
11
16.242000
21
-79.720342
31
0.0
0
LINE
8
0
6
CONTINUOUS
10
15.792000
20
-79.026119
30
0.0
11
15.792000
21
-79.692590
31
0.0
0
LINE
8
0
6
CONTINUOUS
10
16.242000
20
-79.720342
30
0.0
11
17.292000
21
-79.732236
31
0.0
0
LINE
8
0
6
CONTINUOUS
10
17.292000
20
-79.732236
30
0.0
11
18.342000
21
-79.720342
31
0.0
0
LINE
8
0
6
CONTINUOUS
10
18.792000
20
-79.692590
30
0.0
11
18.792000
21
-79.023967
31
0.0
0
LINE
8
0
6
CONTINUOUS
10
18.342000
20
-79.720342
30
0.0
11
18.792000
21
-79.692590
31
0.0
0
LINE
8
0
6
CONTINUOUS
10
18.342000
20
-79.664837
30
0.0
11
18.342000
21
-78.988111
31
0.0
0
LINE
8
0
6
CONTINUOUS
10
18.792000
20
-79.692590
30
0.0
11
18.342000
21
-79.664837
31
0.0
0
LINE
8
0
6
CONTINUOUS
10
18.792000
20
-79.023967
30
0.0
11
18.792000
21
-79.692590
31
0.0
0
LINE
8
0
6
CONTINUOUS
10
17.292000
20
-79.652943
30
0.0
11
17.292000
21
-78.973382
31
0.0
0
LINE
8
0
6
CONTINUOUS
10
18.342000
20
-79.664837
30
0.0
11
17.292000
21
-79.652943
31
0.0
0
LINE
8
0
6
CONTINUOUS
10
18.342000
20
-78.988111
30
0.0
11
18.342000
21
-79.664837
31
0.0
0
LINE
8
0
6
CONTINUOUS
10
62.771000
20
-78.379300
30
0.0
11
63.821000
21
-78.328340
31
0.0
0
LINE
8
0
6
CONTINUOUS
10
62.321000
20
-78.498200
30
0.0
11
62.771000
21
-78.379300
31
0.0
0
LINE
8
0
6
CONTINUOUS
10
62.771000
20
-78.617097
30
0.0
11
62.321000
21
-78.498200
31
0.0
0
LINE
8
0
6
CONTINUOUS
10
63.821000
20
-78.668054
30
0.0
11
62.771000
21
-78.617097
31
0.0
0
LINE
8
0
6
CONTINUOUS
10
64.871000
20
-78.617097
30
0.0
11
63.821000
21
-78.668054
31
0.0
0
LINE
8
0
6
CONTINUOUS
10
65.321000
20
-78.498200
30
0.0
11
64.871000
21
-78.617097
31
0.0
0
LINE
8
0
6
CONTINUOUS
10
64.871000
20
-78.379300
30
0.0
11
65.321000
21
-78.498200
31
0.0
0
LINE
8
0
6
CONTINUOUS
10
63.821000
20
-78.328340
30
0.0
11
64.871000
21
-78.379300
31
0.0
0
LINE
8
0
6
CONTINUOUS
10
62.771000
20
-78.379300
30
0.0
11
62.771000
21
-77.404573
31
0.0
0
LINE
8
0
6
CONTINUOUS
10
63.821000
20
-78.328340
30
0.0
11
62.771000
21
-78.379300
31
0.0
0
LINE
8
0
6
CONTINUOUS
10
63.821000
20
-77.337588
30
0.0
11
63.821000
21
-78.328340
31
0.0
0
LINE
8
0
6
CONTINUOUS
10
62.321000
20
-78.498200
30
0.0
11
62.321000
21
-77.515555
31
0.0
0
LINE
8
0
6
CONTINUOUS
10
62.771000
20
-78.379300
30
0.0
11
62.321000
21
-78.498200
31
0.0
0
LINE
8
0
6
CONTINUOUS
10
62.771000
20
-77.404573
30
0.0
11
62.771000
21
-78.379300
31
0.0
0
LINE
8
0
6
CONTINUOUS
10
62.321000
20
-78.498200
30
0.0
11
62.771000
21
-78.617097
31
0.0
0
LINE
8
0
6
CONTINUOUS
10
62.321000
20
-77.515555
30
0.0
11
62.321000
21
-78.498200
31
0.0
0
LINE
8
0
6
CONTINUOUS
10
62.771000
20
-78.617097
30
0.0
11
63.821000
21
-78.668054
31
0.0
0
LINE
8
0
6
CONTINUOUS
10
63.821000
20
-78.668054
30
0.0
11
64.871000
21
-78.617097
31
0.0
0
LINE
8
0
6
CONTINUOUS
10
65.321000
20
-78.498200
30
0.0
11
65.321000
21
-77.482992
31
0.0
0
LINE
8
0
6
CONTINUOUS
10
64.871000
20
-78.617097
30
0.0
11
65.321000
21
-78.498200
31
0.0
0
LINE
8
0
6
CONTINUOUS
10
64.871000
20
-78.379300
30
0.0
11
64.871000
21
-77.371464
31
0.0
0
LINE
8
0
6
CONTINUOUS
10
65.321000
20
-78.498200
30
0.0
11
64.871000
21
-78.379300
31
0.0
0
LINE
8
0
6
CONTINUOUS
10
65.321000
20
-77.482992
30
0.0
11
65.321000
21
-78.482167
31
0.0
0
LINE
8
0
6
CONTINUOUS
10
63.821000
20
-78.328340
30
0.0
11
63.821000
21
-77.337588
31
0.0
0
LINE
8
0
6
CONTINUOUS
10
64.871000
20
-78.379300
30
0.0
11
63.821000
21
-78.328340
31
0.0
0
LINE
8
0
6
CONTINUOUS
10
64.871000
20
-77.371464
30
0.0
11
64.871000
21
-78.379300
31
0.0
0
LINE
8
0
6
CONTINUOUS
10
33.041000
20
-78.267990
30
0.0
11
34.091000
21
-78.217030
31
0.0
0
LINE
8
0
6
CONTINUOUS
10
32.591000
20
-78.386890
30
0.0
11
33.041000
21
-78.267990
31
0.0
0
LINE
8
0
6
CONTINUOUS
10
33.041000
20
-78.505787
30
0.0
11
32.591000
21
-78.386890
31
0.0
0
LINE
8
0
6
CONTINUOUS
10
34.091000
20
-78.556744
30
0.0
11
33.041000
21
-78.505787
31
0.0
0
LINE
8
0
6
CONTINUOUS
10
35.141000
20
-78.505787
30
0.0
11
34.091000
21
-78.556744
31
0.0
0
LINE
8
0
6
CONTINUOUS
10
35.591000
20
-78.386890
30
0.0
11
35.141000
21
-78.505787
31
0.0
0
LINE
8
0
6
CONTINUOUS
10
35.141000
20
-78.267990
30
0.0
11
35.591000
21
-78.386890
31
0.0
0
LINE
8
0
6
CONTINUOUS
10
34.091000
20
-78.217030
30
0.0
11
35.141000
21
-78.267990
31
0.0
0
LINE
8
0
6
CONTINUOUS
10
33.041000
20
-78.267990
30
0.0
11
33.041000
21
-77.526768
31
0.0
0
LINE
8
0
6
CONTINUOUS
10
34.091000
20
-78.217030
30
0.0
11
33.041000
21
-78.267990
31
0.0
0
LINE
8
0
6
CONTINUOUS
10
34.091000
20
-77.496677
30
0.0
11
34.091000
21
-78.217030
31
0.0
0
LINE
8
0
6
CONTINUOUS
10
32.591000
20
-78.386890
30
0.0
11
32.591000
21
-77.585658
31
0.0
0
LINE
8
0
6
CONTINUOUS
10
33.041000
20
-78.267990
30
0.0
11
32.591000
21
-78.386890
31
0.0
0
LINE
8
0
6
CONTINUOUS
10
33.041000
20
-77.526768
30
0.0
11
33.041000
21
-78.267990
31
0.0
0
LINE
8
0
6
CONTINUOUS
10
32.591000
20
-78.386890
30
0.0
11
33.041000
21
-78.505787
31
0.0
0
LINE
8
0
6
CONTINUOUS
10
32.591000
20
-77.585658
30
0.0
11
32.591000
21
-78.386890
31
0.0
0
LINE
8
0
6
CONTINUOUS
10
33.041000
20
-78.505787
30
0.0
11
34.091000
21
-78.556744
31
0.0
0
LINE
8
0
6
CONTINUOUS
10
34.091000
20
-78.556744
30
0.0
11
35.141000
21
-78.505787
31
0.0
0
LINE
8
0
6
CONTINUOUS
10
35.591000
20
-78.386890
30
0.0
11
35.591000
21
-77.575137
31
0.0
0
LINE
8
0
6
CONTINUOUS
10
35.141000
20
-78.505787
30
0.0
11
35.591000
21
-78.386890
31
0.0
0
LINE
8
0
6
CONTINUOUS
10
35.141000
20
-78.267990
30
0.0
11
35.141000
21
-77.519403
31
0.0
0
LINE
8
0
6
CONTINUOUS
10
35.591000
20
-78.386890
30
0.0
11
35.141000
21
-78.267990
31
0.0
0
LINE
8
0
6
CONTINUOUS
10
35.591000
20
-77.575137
30
0.0
11
35.591000
21
-78.386890
31
0.0
0
LINE
8
0
6
CONTINUOUS
10
34.091000
20
-78.217030
30
0.0
11
34.091000
21
-77.496677
31
0.0
0
LINE
8
0
6
CONTINUOUS
10
35.141000
20
-78.267990
30
0.0
11
34.091000
21
-78.217030
31
0.0
0
LINE
8
0
6
CONTINUOUS
10
35.141000
20
-77.519403
30
0.0
11
35.141000
21
-78.267990
31
0.0
0
LINE
8
0
6
CONTINUOUS
10
48.489000
20
-78.282360
30
0.0
11
49.539000
21
-78.231400
31
0.0
0
LINE
8
0
6
CONTINUOUS
10
48.039000
20
-78.401260
30
0.0
11
48.489000
21
-78.282360
31
0.0
0
LINE
8
0
6
CONTINUOUS
10
48.489000
20
-78.520162
30
0.0
11
48.039000
21
-78.401260
31
0.0
0
LINE
8
0
6
CONTINUOUS
10
49.539000
20
-78.571120
30
0.0
11
48.489000
21
-78.520162
31
0.0
0
LINE
8
0
6
CONTINUOUS
10
50.589000
20
-78.520162
30
0.0
11
49.539000
21
-78.571120
31
0.0
0
LINE
8
0
6
CONTINUOUS
10
51.039000
20
-78.401260
30
0.0
11
50.589000
21
-78.520162
31
0.0
0
LINE
8
0
6
CONTINUOUS
10
50.589000
20
-78.282360
30
0.0
11
51.039000
21
-78.401260
31
0.0
0
LINE
8
0
6
CONTINUOUS
10
49.539000
20
-78.231400
30
0.0
11
50.589000
21
-78.282360
31
0.0
0
LINE
8
0
6
CONTINUOUS
10
48.489000
20
-78.282360
30
0.0
11
48.489000
21
-77.452437
31
0.0
0
LINE
8
0
6
CONTINUOUS
10
49.539000
20
-78.231400
30
0.0
11
48.489000
21
-78.282360
31
0.0
0
LINE
8
0
6
CONTINUOUS
10
49.539000
20
-77.388624
30
0.0
11
49.539000
21
-78.231400
31
0.0
0
LINE
8
0
6
CONTINUOUS
10
48.039000
20
-78.401260
30
0.0
11
48.039000
21
-77.537517
31
0.0
0
LINE
8
0
6
CONTINUOUS
10
48.489000
20
-78.282360
30
0.0
11
48.039000
21
-78.401260
31
0.0
0
LINE
8
0
6
CONTINUOUS
10
48.489000
20
-77.452437
30
0.0
11
48.489000
21
-78.282360
31
0.0
0
LINE
8
0
6
CONTINUOUS
10
48.039000
20
-78.401260
30
0.0
11
48.489000
21
-78.520162
31
0.0
0
LINE
8
0
6
CONTINUOUS
10
48.039000
20
-77.537517
30
0.0
11
48.039000
21
-78.401260
31
0.0
0
LINE
8
0
6
CONTINUOUS
10
48.489000
20
-78.520162
30
0.0
11
49.539000
21
-78.571120
31
0.0
0
LINE
8
0
6
CONTINUOUS
10
49.539000
20
-78.571120
30
0.0
11
50.589000
21
-78.520162
31
0.0
0
LINE
8
0
6
CONTINUOUS
10
51.039000
20
-78.401260
30
0.0
11
51.039000
21
-77.525734
31
0.0
0
LINE
8
0
6
CONTINUOUS
10
50.589000
20
-78.520162
30
0.0
11
51.039000
21
-78.401260
31
0.0
0
LINE
8
0
6
CONTINUOUS
10
50.589000
20
-78.282360
30
0.0
11
50.589000
21
-77.434014
31
0.0
0
LINE
8
0
6
CONTINUOUS
10
51.039000
20
-78.401260
30
0.0
11
50.589000
21
-78.282360
31
0.0
0
LINE
8
0
6
CONTINUOUS
10
51.039000
20
-77.525734
30
0.0
11
51.039000
21
-78.401260
31
0.0
0
LINE
8
0
6
CONTINUOUS
10
49.539000
20
-78.231400
30
0.0
11
49.539000
21
-77.388624
31
0.0
0
LINE
8
0
6
CONTINUOUS
10
50.589000
20
-78.282360
30
0.0
11
49.539000
21
-78.231400
31
0.0
0
LINE
8
0
6
CONTINUOUS
10
50.589000
20
-77.434014
30
0.0
11
50.589000
21
-78.282360
31
0.0
0
LINE
8
0
6
CONTINUOUS
10
21.237000
20
-78.253610
30
0.0
11
22.287000
21
-78.202650
31
0.0
0
LINE
8
0
6
CONTINUOUS
10
20.787000
20
-78.372510
30
0.0
11
21.237000
21
-78.253610
31
0.0
0
LINE
8
0
6
CONTINUOUS
10
21.237000
20
-78.491410
30
0.0
11
20.787000
21
-78.372510
31
0.0
0
LINE
8
0
6
CONTINUOUS
10
22.287000
20
-78.542369
30
0.0
11
21.237000
21
-78.491410
31
0.0
0
LINE
8
0
6
CONTINUOUS
10
23.337000
20
-78.491410
30
0.0
11
22.287000
21
-78.542369
31
0.0
0
LINE
8
0
6
CONTINUOUS
10
23.787000
20
-78.372510
30
0.0
11
23.337000
21
-78.491410
31
0.0
0
LINE
8
0
6
CONTINUOUS
10
23.337000
20
-78.253610
30
0.0
11
23.787000
21
-78.372510
31
0.0
0
LINE
8
0
6
CONTINUOUS
10
22.287000
20
-78.202650
30
0.0
11
23.337000
21
-78.253610
31
0.0
0
LINE
8
0
6
CONTINUOUS
10
21.237000
20
-78.253610
30
0.0
11
21.237000
21
-77.534410
31
0.0
0
LINE
8
0
6
CONTINUOUS
10
22.287000
20
-78.202650
30
0.0
11
21.237000
21
-78.253610
31
0.0
0
LINE
8
0
6
CONTINUOUS
10
22.287000
20
-77.508220
30
0.0
11
22.287000
21
-78.202650
31
0.0
0
LINE
8
0
6
CONTINUOUS
10
20.787000
20
-78.372510
30
0.0
11
20.787000
21
-77.593244
31
0.0
0
LINE
8
0
6
CONTINUOUS
10
21.237000
20
-78.253610
30
0.0
11
20.787000
21
-78.372510
31
0.0
0
LINE
8
0
6
CONTINUOUS
10
21.237000
20
-77.534410
30
0.0
11
21.237000
21
-78.253610
31
0.0
0
LINE
8
0
6
CONTINUOUS
10
20.787000
20
-78.372510
30
0.0
11
21.237000
21
-78.491410
31
0.0
0
LINE
8
0
6
CONTINUOUS
10
20.787000
20
-77.593244
30
0.0
11
20.787000
21
-78.372510
31
0.0
0
LINE
8
0
6
CONTINUOUS
10
21.237000
20
-78.491410
30
0.0
11
22.287000
21
-78.542369
31
0.0
0
LINE
8
0
6
CONTINUOUS
10
22.287000
20
-78.542369
30
0.0
11
23.337000
21
-78.491410
31
0.0
0
LINE
8
0
6
CONTINUOUS
10
23.787000
20
-78.372510
30
0.0
11
23.787000
21
-77.589796
31
0.0
0
LINE
8
0
6
CONTINUOUS
10
23.337000
20
-78.491410
30
0.0
11
23.787000
21
-78.372510
31
0.0
0
LINE
8
0
6
CONTINUOUS
10
23.337000
20
-78.253610
30
0.0
11
23.337000
21
-77.531996
31
0.0
0
LINE
8
0
6
CONTINUOUS
10
23.787000
20
-78.372510
30
0.0
11
23.337000
21
-78.253610
31
0.0
0
LINE
8
0
6
CONTINUOUS
10
23.787000
20
-77.589796
30
0.0
11
23.787000
21
-78.372510
31
0.0
0
LINE
8
0
6
CONTINUOUS
10
22.287000
20
-78.202650
30
0.0
11
22.287000
21
-77.508220
31
0.0
0
LINE
8
0
6
CONTINUOUS
10
23.337000
20
-78.253610
30
0.0
11
22.287000
21
-78.202650
31
0.0
0
LINE
8
0
6
CONTINUOUS
10
23.337000
20
-77.531996
30
0.0
11
23.337000
21
-78.253610
31
0.0
0
LINE
8
0
6
CONTINUOUS
10
-38.935700
20
-80.500000
30
0.0
11
-39.385700
21
-80.500000
31
0.0
0
LINE
8
0
6
CONTINUOUS
10
-39.385700
20
-80.500000
30
0.0
11
-38.935700
21
-80.500000
31
0.0
0
LINE
8
0
6
CONTINUOUS
10
-39.385700
20
-79.383252
30
0.0
11
-39.385700
21
-80.500000
31
0.0
0
LINE
8
0
6
CONTINUOUS
10
-39.385700
20
-80.500000
30
0.0
11
-39.385700
21
-79.383252
31
0.0
0
LINE
8
0
6
CONTINUOUS
10
-97.651300
20
-77.030080
30
0.0
11
-98.101300
21
-77.030080
31
0.0
0
LINE
8
0
6
CONTINUOUS
10
-97.651300
20
-77.030080
30
0.0
11
-97.651300
21
-75.668588
31
0.0
0
LINE
8
0
6
CONTINUOUS
10
-98.101300
20
-77.030080
30
0.0
11
-97.651300
21
-77.030080
31
0.0
0
LINE
8
0
6
CONTINUOUS
10
-98.101300
20
-75.612337
30
0.0
11
-98.101300
21
-77.030080
31
0.0
0
LINE
8
0
6
CONTINUOUS
10
-97.651300
20
-75.668588
30
0.0
11
-97.651300
21
-77.030080
31
0.0
0
LINE
8
0
6
CONTINUOUS
10
-98.101300
20
-77.030080
30
0.0
11
-98.101300
21
-75.612337
31
0.0
0
LINE
8
0
6
CONTINUOUS
10
-82.466300
20
-78.780127
30
0.0
11
-82.916300
21
-78.780127
31
0.0
0
LINE
8
0
6
CONTINUOUS
10
-82.916300
20
-78.780127
30
0.0
11
-82.466300
21
-78.780127
31
0.0
0
LINE
8
0
6
CONTINUOUS
10
-82.916300
20
-77.504650
30
0.0
11
-82.916300
21
-78.780127
31
0.0
0
LINE
8
0
6
CONTINUOUS
10
-82.916300
20
-78.780127
30
0.0
11
-82.916300
21
-77.504650
31
0.0
0
LINE
8
0
6
CONTINUOUS
10
1.050000
20
-80.500000
30
0.0
11
0.000000
21
-80.500000
31
0.0
0
LINE
8
0
6
CONTINUOUS
10
1.500000
20
-80.500000
30
0.0
11
1.050000
21
-80.500000
31
0.0
0
LINE
8
0
6
CONTINUOUS
10
-1.050000
20
-80.500000
30
0.0
11
-1.500000
21
-80.500000
31
0.0
0
LINE
8
0
6
CONTINUOUS
10
0.000000
20
-80.500000
30
0.0
11
-1.050000
21
-80.500000
31
0.0
0
LINE
8
0
6
CONTINUOUS
10
0.000000
20
-80.500000
30
0.0
11
1.050000
21
-80.500000
31
0.0
0
LINE
8
0
6
CONTINUOUS
10
1.050000
20
-80.500000
30
0.0
11
1.500000
21
-80.500000
31
0.0
0
LINE
8
0
6
CONTINUOUS
10
-1.500000
20
-80.500000
30
0.0
11
-1.050000
21
-80.500000
31
0.0
0
LINE
8
0
6
CONTINUOUS
10
-1.050000
20
-80.500000
30
0.0
11
0.000000
21
-80.500000
31
0.0
0
LINE
8
0
6
CONTINUOUS
10
1.050000
20
-80.198414
30
0.0
11
0.000000
21
-80.198414
31
0.0
0
LINE
8
0
6
CONTINUOUS
10
1.500000
20
-80.198414
30
0.0
11
1.050000
21
-80.198414
31
0.0
0
LINE
8
0
6
CONTINUOUS
10
-1.050000
20
-80.198414
30
0.0
11
-1.500000
21
-80.198414
31
0.0
0
LINE
8
0
6
CONTINUOUS
10
0.000000
20
-80.198414
30
0.0
11
-1.050000
21
-80.198414
31
0.0
0
LINE
8
0
6
CONTINUOUS
10
1.050000
20
-80.198414
30
0.0
11
1.050000
21
-79.463135
31
0.0
0
LINE
8
0
6
CONTINUOUS
10
0.000000
20
-80.198414
30
0.0
11
1.050000
21
-80.198414
31
0.0
0
LINE
8
0
6
CONTINUOUS
10
0.000000
20
-79.448274
30
0.0
11
0.000000
21
-80.198414
31
0.0
0
LINE
8
0
6
CONTINUOUS
10
1.500000
20
-80.198414
30
0.0
11
1.500000
21
-79.499059
31
0.0
0
LINE
8
0
6
CONTINUOUS
10
1.050000
20
-80.198414
30
0.0
11
1.500000
21
-80.198414
31
0.0
0
LINE
8
0
6
CONTINUOUS
10
1.050000
20
-79.463135
30
0.0
11
1.050000
21
-80.198414
31
0.0
0
LINE
8
0
6
CONTINUOUS
10
1.500000
20
-79.499059
30
0.0
11
1.500000
21
-80.198414
31
0.0
0
LINE
8
0
6
CONTINUOUS
10
-1.500000
20
-80.198414
30
0.0
11
-1.500000
21
-79.499057
31
0.0
0
LINE
8
0
6
CONTINUOUS
10
-1.050000
20
-80.198414
30
0.0
11
-1.050000
21
-79.463133
31
0.0
0
LINE
8
0
6
CONTINUOUS
10
-1.500000
20
-80.198414
30
0.0
11
-1.050000
21
-80.198414
31
0.0
0
LINE
8
0
6
CONTINUOUS
10
-1.500000
20
-79.499057
30
0.0
11
-1.500000
21
-80.198414
31
0.0
0
LINE
8
0
6
CONTINUOUS
10
0.000000
20
-80.198414
30
0.0
11
0.000000
21
-79.448276
31
0.0
0
LINE
8
0
6
CONTINUOUS
10
-1.050000
20
-80.198414
30
0.0
11
0.000000
21
-80.198414
31
0.0
0
LINE
8
0
6
CONTINUOUS
10
-1.050000
20
-79.463133
30
0.0
11
-1.050000
21
-80.198414
31
0.0
0
LINE
8
0
6
CONTINUOUS
10
1.050000
20
-79.625297
30
0.0
11
0.000000
21
-79.613403
31
0.0
0
LINE
8
0
6
CONTINUOUS
10
1.500000
20
-79.653050
30
0.0
11
1.050000
21
-79.625297
31
0.0
0
LINE
8
0
6
CONTINUOUS
10
1.050000
20
-79.680803
30
0.0
11
1.500000
21
-79.653050
31
0.0
0
LINE
8
0
6
CONTINUOUS
10
0.000000
20
-79.692697
30
0.0
11
1.050000
21
-79.680803
31
0.0
0
LINE
8
0
6
CONTINUOUS
10
-1.050000
20
-79.680803
30
0.0
11
0.000000
21
-79.692697
31
0.0
0
LINE
8
0
6
CONTINUOUS
10
-1.500000
20
-79.653050
30
0.0
11
-1.050000
21
-79.680803
31
0.0
0
LINE
8
0
6
CONTINUOUS
10
-1.050000
20
-79.625297
30
0.0
11
-1.500000
21
-79.653050
31
0.0
0
LINE
8
0
6
CONTINUOUS
10
0.000000
20
-79.613403
30
0.0
11
-1.050000
21
-79.625297
31
0.0
0
LINE
8
0
6
CONTINUOUS
10
1.050000
20
-79.625297
30
0.0
11
1.050000
21
-78.948100
31
0.0
0
LINE
8
0
6
CONTINUOUS
10
0.000000
20
-79.613403
30
0.0
11
1.050000
21
-79.625297
31
0.0
0
LINE
8
0
6
CONTINUOUS
10
0.000000
20
-78.933242
30
0.0
11
0.000000
21
-79.613403
31
0.0
0
LINE
8
0
6
CONTINUOUS
10
1.500000
20
-79.653050
30
0.0
11
1.500000
21
-78.984005
31
0.0
0
LINE
8
0
6
CONTINUOUS
10
1.050000
20
-79.625297
30
0.0
11
1.500000
21
-79.653050
31
0.0
0
LINE
8
0
6
CONTINUOUS
10
1.050000
20
-78.948100
30
0.0
11
1.050000
21
-79.625297
31
0.0
0
LINE
8
0
6
CONTINUOUS
10
1.500000
20
-79.653050
30
0.0
11
1.050000
21
-79.680803
31
0.0
0
LINE
8
0
6
CONTINUOUS
10
1.500000
20
-78.984005
30
0.0
11
1.500000
21
-79.653050
31
0.0
0
LINE
8
0
6
CONTINUOUS
10
1.050000
20
-79.680803
30
0.0
11
0.000000
21
-79.692697
31
0.0
0
LINE
8
0
6
CONTINUOUS
10
0.000000
20
-79.692697
30
0.0
11
-1.050000
21
-79.680803
31
0.0
0
LINE
8
0
6
CONTINUOUS
10
-1.500000
20
-79.653050
30
0.0
11
-1.500000
21
-78.984003
31
0.0
0
LINE
8
0
6
CONTINUOUS
10
-1.050000
20
-79.680803
30
0.0
11
-1.500000
21
-79.653050
31
0.0
0
LINE
8
0
6
CONTINUOUS
10
-1.050000
20
-79.625297
30
0.0
11
-1.050000
21
-78.948098
31
0.0
0
LINE
8
0
6
CONTINUOUS
10
-1.500000
20
-79.653050
30
0.0
11
-1.050000
21
-79.625297
31
0.0
0
LINE
8
0
6
CONTINUOUS
10
-1.500000
20
-78.984003
30
0.0
11
-1.500000
21
-79.653050
31
0.0
0
LINE
8
0
6
CONTINUOUS
10
0.000000
20
-79.613403
30
0.0
11
0.000000
21
-78.933244
31
0.0
0
LINE
8
0
6
CONTINUOUS
10
-1.050000
20
-79.625297
30
0.0
11
0.000000
21
-79.613403
31
0.0
0
LINE
8
0
6
CONTINUOUS
10
-1.050000
20
-78.948098
30
0.0
11
-1.050000
21
-79.625297
31
0.0
0
LINE
8
0
6
CONTINUOUS
10
-7.101000
20
-78.239240
30
0.0
11
-8.151000
21
-78.188280
31
0.0
0
LINE
8
0
6
CONTINUOUS
10
-6.651000
20
-78.358140
30
0.0
11
-7.101000
21
-78.239240
31
0.0
0
LINE
8
0
6
CONTINUOUS
10
-7.101000
20
-78.477040
30
0.0
11
-6.651000
21
-78.358140
31
0.0
0
LINE
8
0
6
CONTINUOUS
10
-8.151000
20
-78.527993
30
0.0
11
-7.101000
21
-78.477040
31
0.0
0
LINE
8
0
6
CONTINUOUS
10
-9.201000
20
-78.477040
30
0.0
11
-8.151000
21
-78.527993
31
0.0
0
LINE
8
0
6
CONTINUOUS
10
-9.651000
20
-78.358140
30
0.0
11
-9.201000
21
-78.477040
31
0.0
0
LINE
8
0
6
CONTINUOUS
10
-9.201000
20
-78.239240
30
0.0
11
-9.651000
21
-78.358140
31
0.0
0
LINE
8
0
6
CONTINUOUS
10
-8.151000
20
-78.188280
30
0.0
11
-9.201000
21
-78.239240
31
0.0
0
LINE
8
0
6
CONTINUOUS
10
-7.101000
20
-78.239240
30
0.0
11
-7.101000
21
-77.542121
31
0.0
0
LINE
8
0
6
CONTINUOUS
10
-8.151000
20
-78.188280
30
0.0
11
-7.101000
21
-78.239240
31
0.0
0
LINE
8
0
6
CONTINUOUS
10
-8.151000
20
-77.516070
30
0.0
11
-8.151000
21
-78.188280
31
0.0
0
LINE
8
0
6
CONTINUOUS
10
-6.651000
20
-78.358140
30
0.0
11
-6.651000
21
-77.600921
31
0.0
0
LINE
8
0
6
CONTINUOUS
10
-7.101000
20
-78.239240
30
0.0
11
-6.651000
21
-78.358140
31
0.0
0
LINE
8
0
6
CONTINUOUS
10
-7.101000
20
-77.542121
30
0.0
11
-7.101000
21
-78.239240
31
0.0
0
LINE
8
0
6
CONTINUOUS
10
-6.651000
20
-78.358140
30
0.0
11
-7.101000
21
-78.477040
31
0.0
0
LINE
8
0
6
CONTINUOUS
10
-6.651000
20
-77.600921
30
0.0
11
-6.651000
21
-78.358140
31
0.0
0
LINE
8
0
6
CONTINUOUS
10
-7.101000
20
-78.477040
30
0.0
11
-8.151000
21
-78.527993
31
0.0
0
LINE
8
0
6
CONTINUOUS
10
-8.151000
20
-78.527993
30
0.0
11
-9.201000
21
-78.477040
31
0.0
0
LINE
8
0
6
CONTINUOUS
10
-9.651000
20
-78.358140
30
0.0
11
-9.651000
21
-77.597910
31
0.0
0
LINE
8
0
6
CONTINUOUS
10
-9.201000
20
-78.477040
30
0.0
11
-9.651000
21
-78.358140
31
0.0
0
LINE
8
0
6
CONTINUOUS
10
-9.201000
20
-78.239240
30
0.0
11
-9.201000
21
-77.540014
31
0.0
0
LINE
8
0
6
CONTINUOUS
10
-9.651000
20
-78.358140
30
0.0
11
-9.201000
21
-78.239240
31
0.0
0
LINE
8
0
6
CONTINUOUS
10
-9.651000
20
-77.597910
30
0.0
11
-9.651000
21
-78.358140
31
0.0
0
LINE
8
0
6
CONTINUOUS
10
-8.151000
20
-78.188280
30
0.0
11
-8.151000
21
-77.516070
31
0.0
0
LINE
8
0
6
CONTINUOUS
10
-9.201000
20
-78.239240
30
0.0
11
-8.151000
21
-78.188280
31
0.0
0
LINE
8
0
6
CONTINUOUS
10
-9.201000
20
-77.540014
30
0.0
11
-9.201000
21
-78.239240
31
0.0
0
LINE
8
0
6
CONTINUOUS
10
-13.950000
20
-76.753040
30
0.0
11
-15.000000
21
-76.692740
31
0.0
0
LINE
8
0
6
CONTINUOUS
10
-13.500000
20
-76.893740
30
0.0
11
-13.950000
21
-76.753040
31
0.0
0
LINE
8
0
6
CONTINUOUS
10
-13.950000
20
-77.034440
30
0.0
11
-13.500000
21
-76.893740
31
0.0
0
LINE
8
0
6
CONTINUOUS
10
-15.000000
20
-77.094740
30
0.0
11
-13.950000
21
-77.034440
31
0.0
0
LINE
8
0
6
CONTINUOUS
10
-16.050000
20
-77.034440
30
0.0
11
-15.000000
21
-77.094740
31
0.0
0
LINE
8
0
6
CONTINUOUS
10
-16.500000
20
-76.893740
30
0.0
11
-16.050000
21
-77.034440
31
0.0
0
LINE
8
0
6
CONTINUOUS
10
-16.050000
20
-76.753040
30
0.0
11
-16.500000
21
-76.893740
31
0.0
0
LINE
8
0
6
CONTINUOUS
10
-15.000000
20
-76.692740
30
0.0
11
-16.050000
21
-76.753040
31
0.0
0
LINE
8
0
6
CONTINUOUS
10
-13.950000
20
-76.753040
30
0.0
11
-13.950000
21
-75.713995
31
0.0
0
LINE
8
0
6
CONTINUOUS
10
-15.000000
20
-76.692740
30
0.0
11
-13.950000
21
-76.753040
31
0.0
0
LINE
8
0
6
CONTINUOUS
10
-15.000000
20
-75.655824
30
0.0
11
-15.000000
21
-76.692740
31
0.0
0
LINE
8
0
6
CONTINUOUS
10
-13.500000
20
-76.893740
30
0.0
11
-13.500000
21
-75.845177
31
0.0
0
LINE
8
0
6
CONTINUOUS
10
-13.950000
20
-76.753040
30
0.0
11
-13.500000
21
-76.893740
31
0.0
0
LINE
8
0
6
CONTINUOUS
10
-13.950000
20
-75.713995
30
0.0
11
-13.950000
21
-76.753040
31
0.0
0
LINE
8
0
6
CONTINUOUS
10
-13.500000
20
-76.893740
30
0.0
11
-13.950000
21
-77.034440
31
0.0
0
LINE
8
0
6
CONTINUOUS
10
-13.500000
20
-75.845177
30
0.0
11
-13.500000
21
-76.893740
31
0.0
0
LINE
8
0
6
CONTINUOUS
10
-13.950000
20
-77.034440
30
0.0
11
-15.000000
21
-77.094740
31
0.0
0
LINE
8
0
6
CONTINUOUS
10
-15.000000
20
-77.094740
30
0.0
11
-16.050000
21
-77.034440
31
0.0
0
LINE
8
0
6
CONTINUOUS
10
-16.500000
20
-76.893740
30
0.0
11
-16.500000
21
-75.838475
31
0.0
0
LINE
8
0
6
CONTINUOUS
10
-16.050000
20
-77.034440
30
0.0
11
-16.500000
21
-76.893740
31
0.0
0
LINE
8
0
6
CONTINUOUS
10
-16.050000
20
-76.753040
30
0.0
11
-16.050000
21
-75.709304
31
0.0
0
LINE
8
0
6
CONTINUOUS
10
-16.500000
20
-76.893740
30
0.0
11
-16.050000
21
-76.753040
31
0.0
0
LINE
8
0
6
CONTINUOUS
10
-16.500000
20
-75.838475
30
0.0
11
-16.500000
21
-76.893740
31
0.0
0
LINE
8
0
6
CONTINUOUS
10
-15.000000
20
-76.692740
30
0.0
11
-15.000000
21
-75.655824
31
0.0
0
LINE
8
0
6
CONTINUOUS
10
-16.050000
20
-76.753040
30
0.0
11
-15.000000
21
-76.692740
31
0.0
0
LINE
8
0
6
CONTINUOUS
10
-16.050000
20
-75.709304
30
0.0
11
-16.050000
21
-76.753040
31
0.0
0
LINE
8
0
6
CONTINUOUS
10
1.050000
20
-76.753040
30
0.0
11
0.000000
21
-76.692740
31
0.0
0
LINE
8
0
6
CONTINUOUS
10
1.500000
20
-76.893740
30
0.0
11
1.050000
21
-76.753040
31
0.0
0
LINE
8
0
6
CONTINUOUS
10
1.050000
20
-77.034440
30
0.0
11
1.500000
21
-76.893740
31
0.0
0
LINE
8
0
6
CONTINUOUS
10
0.000000
20
-77.094740
30
0.0
11
1.050000
21
-77.034440
31
0.0
0
LINE
8
0
6
CONTINUOUS
10
-1.050000
20
-77.034440
30
0.0
11
0.000000
21
-77.094740
31
0.0
0
LINE
8
0
6
CONTINUOUS
10
-1.500000
20
-76.893740
30
0.0
11
-1.050000
21
-77.034440
31
0.0
0
LINE
8
0
6
CONTINUOUS
10
-1.050000
20
-76.753040
30
0.0
11
-1.500000
21
-76.893740
31
0.0
0
LINE
8
0
6
CONTINUOUS
10
0.000000
20
-76.692740
30
0.0
11
-1.050000
21
-76.753040
31
0.0
0
LINE
8
0
6
CONTINUOUS
10
1.050000
20
-76.753040
30
0.0
11
1.050000
21
-75.742830
31
0.0
0
LINE
8
0
6
CONTINUOUS
10
0.000000
20
-76.692740
30
0.0
11
1.050000
21
-76.753040
31
0.0
0
LINE
8
0
6
CONTINUOUS
10
0.000000
20
-75.689333
30
0.0
11
0.000000
21
-76.692740
31
0.0
0
LINE
8
0
6
CONTINUOUS
10
1.500000
20
-76.893740
30
0.0
11
1.500000
21
-75.872002
31
0.0
0
LINE
8
0
6
CONTINUOUS
10
1.050000
20
-76.753040
30
0.0
11
1.500000
21
-76.893740
31
0.0
0
LINE
8
0
6
CONTINUOUS
10
1.050000
20
-75.742830
30
0.0
11
1.050000
21
-76.753040
31
0.0
0
LINE
8
0
6
CONTINUOUS
10
1.500000
20
-76.893740
30
0.0
11
1.050000
21
-77.034440
31
0.0
0
LINE
8
0
6
CONTINUOUS
10
1.500000
20
-75.872002
30
0.0
11
1.500000
21
-76.893740
31
0.0
0
LINE
8
0
6
CONTINUOUS
10
1.050000
20
-77.034440
30
0.0
11
0.000000
21
-77.094740
31
0.0
0
LINE
8
0
6
CONTINUOUS
10
0.000000
20
-77.094740
30
0.0
11
-1.050000
21
-77.034440
31
0.0
0
LINE
8
0
6
CONTINUOUS
10
-1.500000
20
-76.893740
30
0.0
11
-1.500000
21
-75.871984
31
0.0
0
LINE
8
0
6
CONTINUOUS
10
-1.050000
20
-77.034440
30
0.0
11
-1.500000
21
-76.893740
31
0.0
0
LINE
8
0
6
CONTINUOUS
10
-1.050000
20
-76.753040
30
0.0
11
-1.050000
21
-75.742813
31
0.0
0
LINE
8
0
6
CONTINUOUS
10
-1.500000
20
-76.893740
30
0.0
11
-1.050000
21
-76.753040
31
0.0
0
LINE
8
0
6
CONTINUOUS
10
-1.500000
20
-75.871984
30
0.0
11
-1.500000
21
-76.893740
31
0.0
0
LINE
8
0
6
CONTINUOUS
10
0.000000
20
-76.692740
30
0.0
11
0.000000
21
-75.689351
31
0.0
0
LINE
8
0
6
CONTINUOUS
10
-1.050000
20
-76.753040
30
0.0
11
0.000000
21
-76.692740
31
0.0
0
LINE
8
0
6
CONTINUOUS
10
-1.050000
20
-75.742813
30
0.0
11
-1.050000
21
-76.753040
31
0.0
0
LINE
8
0
6
CONTINUOUS
10
-11.629000
20
-79.067169
30
0.0
11
-12.679000
21
-79.041989
31
0.0
0
LINE
8
0
6
CONTINUOUS
10
-11.179000
20
-79.125923
30
0.0
11
-11.629000
21
-79.067169
31
0.0
0
LINE
8
0
6
CONTINUOUS
10
-11.629000
20
-79.184676
30
0.0
11
-11.179000
21
-79.125923
31
0.0
0
LINE
8
0
6
CONTINUOUS
10
-12.679000
20
-79.209856
30
0.0
11
-11.629000
21
-79.184676
31
0.0
0
LINE
8
0
6
CONTINUOUS
10
-13.729000
20
-79.184676
30
0.0
11
-12.679000
21
-79.209856
31
0.0
0
LINE
8
0
6
CONTINUOUS
10
-14.179000
20
-79.125923
30
0.0
11
-13.729000
21
-79.184676
31
0.0
0
LINE
8
0
6
CONTINUOUS
10
-13.729000
20
-79.067169
30
0.0
11
-14.179000
21
-79.125923
31
0.0
0
LINE
8
0
6
CONTINUOUS
10
-12.679000
20
-79.041989
30
0.0
11
-13.729000
21
-79.067169
31
0.0
0
LINE
8
0
6
CONTINUOUS
10
-11.629000
20
-79.067169
30
0.0
11
-11.629000
21
-78.344341
31
0.0
0
LINE
8
0
6
CONTINUOUS
10
-12.679000
20
-79.041989
30
0.0
11
-11.629000
21
-79.067169
31
0.0
0
LINE
8
0
6
CONTINUOUS
10
-12.679000
20
-78.318338
30
0.0
11
-12.679000
21
-79.041989
31
0.0
0
LINE
8
0
6
CONTINUOUS
10
-11.179000
20
-79.125923
30
0.0
11
-11.179000
21
-78.403018
31
0.0
0
LINE
8
0
6
CONTINUOUS
10
-11.629000
20
-79.067169
30
0.0
11
-11.179000
21
-79.125923
31
0.0
0
LINE
8
0
6
CONTINUOUS
10
-11.629000
20
-78.344341
30
0.0
11
-11.629000
21
-79.067169
31
0.0
0
LINE
8
0
6
CONTINUOUS
10
-11.179000
20
-79.125923
30
0.0
11
-11.629000
21
-79.184676
31
0.0
0
LINE
8
0
6
CONTINUOUS
10
-11.179000
20
-78.403018
30
0.0
11
-11.179000
21
-79.125923
31
0.0
0
LINE
8
0
6
CONTINUOUS
10
-11.629000
20
-79.184676
30
0.0
11
-12.679000
21
-79.209856
31
0.0
0
LINE
8
0
6
CONTINUOUS
10
-12.679000
20
-79.209856
30
0.0
11
-13.729000
21
-79.184676
31
0.0
0
LINE
8
0
6
CONTINUOUS
10
-14.179000
20
-79.125923
30
0.0
11
-14.179000
21
-78.399983
31
0.0
0
LINE
8
0
6
CONTINUOUS
10
-13.729000
20
-79.184676
30
0.0
11
-14.179000
21
-79.125923
31
0.0
0
LINE
8
0
6
CONTINUOUS
10
-13.729000
20
-79.067169
30
0.0
11
-13.729000
21
-78.342226
31
0.0
0
LINE
8
0
6
CONTINUOUS
10
-14.179000
20
-79.125923
30
0.0
11
-13.729000
21
-79.067169
31
0.0
0
LINE
8
0
6
CONTINUOUS
10
-14.179000
20
-78.399983
30
0.0
11
-14.179000
21
-79.125923
31
0.0
0
LINE
8
0
6
CONTINUOUS
10
-12.679000
20
-79.041989
30
0.0
11
-12.679000
21
-78.318338
31
0.0
0
LINE
8
0
6
CONTINUOUS
10
-13.729000
20
-79.067169
30
0.0
11
-12.679000
21
-79.041989
31
0.0
0
LINE
8
0
6
CONTINUOUS
10
-13.729000
20
-78.342226
30
0.0
11
-13.729000
21
-79.067169
31
0.0
0
LINE
8
0
6
CONTINUOUS
10
1.050000
20
-79.099806
30
0.0
11
0.000000
21
-79.074625
31
0.0
0
LINE
8
0
6
CONTINUOUS
10
1.500000
20
-79.158559
30
0.0
11
1.050000
21
-79.099806
31
0.0
0
LINE
8
0
6
CONTINUOUS
10
1.050000
20
-79.217313
30
0.0
11
1.500000
21
-79.158559
31
0.0
0
LINE
8
0
6
CONTINUOUS
10
0.000000
20
-79.242493
30
0.0
11
1.050000
21
-79.217313
31
0.0
0
LINE
8
0
6
CONTINUOUS
10
-1.050000
20
-79.217313
30
0.0
11
0.000000
21
-79.242493
31
0.0
0
LINE
8
0
6
CONTINUOUS
10
-1.500000
20
-79.158559
30
0.0
11
-1.050000
21
-79.217313
31
0.0
0
LINE
8
0
6
CONTINUOUS
10
-1.050000
20
-79.099806
30
0.0
11
-1.500000
21
-79.158559
31
0.0
0
LINE
8
0
6
CONTINUOUS
10
0.000000
20
-79.074625
30
0.0
11
-1.050000
21
-79.099806
31
0.0
0
LINE
8
0
6
CONTINUOUS
10
1.050000
20
-79.099806
30
0.0
11
1.050000
21
-78.387326
31
0.0
0
LINE
8
0
6
CONTINUOUS
10
0.000000
20
-79.074625
30
0.0
11
1.050000
21
-79.099806
31
0.0
0
LINE
8
0
6
CONTINUOUS
10
0.000000
20
-78.363438
30
0.0
11
0.000000
21
-79.074625
31
0.0
0
LINE
8
0
6
CONTINUOUS
10
1.500000
20
-79.158559
30
0.0
11
1.500000
21
-78.445152
31
0.0
0
LINE
8
0
6
CONTINUOUS
10
1.050000
20
-79.099806
30
0.0
11
1.500000
21
-79.158559
31
0.0
0
LINE
8
0
6
CONTINUOUS
10
1.050000
20
-78.387326
30
0.0
11
1.050000
21
-79.099806
31
0.0
0
LINE
8
0
6
CONTINUOUS
10
1.500000
20
-79.158559
30
0.0
11
1.050000
21
-79.217313
31
0.0
0
LINE
8
0
6
CONTINUOUS
10
1.500000
20
-78.445152
30
0.0
11
1.500000
21
-79.158559
31
0.0
0
LINE
8
0
6
CONTINUOUS
10
1.050000
20
-79.217313
30
0.0
11
0.000000
21
-79.242493
31
0.0
0
LINE
8
0
6
CONTINUOUS
10
0.000000
20
-79.242493
30
0.0
11
-1.050000
21
-79.217313
31
0.0
0
LINE
8
0
6
CONTINUOUS
10
-1.500000
20
-79.158559
30
0.0
11
-1.500000
21
-78.445153
31
0.0
0
LINE
8
0
6
CONTINUOUS
10
-1.050000
20
-79.217313
30
0.0
11
-1.500000
21
-79.158559
31
0.0
0
LINE
8
0
6
CONTINUOUS
10
-1.050000
20
-79.099806
30
0.0
11
-1.050000
21
-78.387327
31
0.0
0
LINE
8
0
6
CONTINUOUS
10
-1.500000
20
-79.158559
30
0.0
11
-1.050000
21
-79.099806
31
0.0
0
LINE
8
0
6
CONTINUOUS
10
-1.500000
20
-78.445153
30
0.0
11
-1.500000
21
-79.158559
31
0.0
0
LINE
8
0
6
CONTINUOUS
10
0.000000
20
-79.074625
30
0.0
11
0.000000
21
-78.363439
31
0.0
0
LINE
8
0
6
CONTINUOUS
10
-1.050000
20
-79.099806
30
0.0
11
0.000000
21
-79.074625
31
0.0
0
LINE
8
0
6
CONTINUOUS
10
-1.050000
20
-78.387327
30
0.0
11
-1.050000
21
-79.099806
31
0.0
0
LINE
8
0
6
CONTINUOUS
10
-22.500000
20
-80.500000
30
0.0
11
-22.050000
21
-80.500000
31
0.0
0
LINE
8
0
6
CONTINUOUS
10
-22.500000
20
-79.500000
30
0.0
11
-22.500000
21
-80.500000
31
0.0
0
LINE
8
0
6
CONTINUOUS
10
-22.500000
20
-80.500000
30
0.0
11
-22.500000
21
-79.500000
31
0.0
0
LINE
8
0
6
CONTINUOUS
10
-22.050000
20
-80.500000
30
0.0
11
-22.500000
21
-80.500000
31
0.0
0
LINE
8
0
6
CONTINUOUS
10
-38.635100
20
-80.500000
30
0.0
11
-37.585100
21
-80.500000
31
0.0
0
LINE
8
0
6
CONTINUOUS
10
-39.085100
20
-80.500000
30
0.0
11
-38.635100
21
-80.500000
31
0.0
0
LINE
8
0
6
CONTINUOUS
10
-39.085100
20
-79.388684
30
0.0
11
-39.085100
21
-80.500000
31
0.0
0
LINE
8
0
6
CONTINUOUS
10
-38.635100
20
-80.500000
30
0.0
11
-38.635100
21
-79.409134
31
0.0
0
LINE
8
0
6
CONTINUOUS
10
-37.585100
20
-80.500000
30
0.0
11
-38.635100
21
-80.500000
31
0.0
0
LINE
8
0
6
CONTINUOUS
10
-39.085100
20
-80.500000
30
0.0
11
-39.085100
21
-79.393617
31
0.0
0
LINE
8
0
6
CONTINUOUS
10
-38.635100
20
-80.500000
30
0.0
11
-39.085100
21
-80.500000
31
0.0
0
LINE
8
0
6
CONTINUOUS
10
-38.635100
20
-79.403475
30
0.0
11
-38.635100
21
-80.500000
31
0.0
0
LINE
8
0
6
CONTINUOUS
10
-82.615700
20
-77.513116
30
0.0
11
-82.615700
21
-78.780127
31
0.0
0
LINE
8
0
6
CONTINUOUS
10
-82.615700
20
-78.780127
30
0.0
11
-82.615700
21
-77.521350
31
0.0
0
LINE
8
0
6
CONTINUOUS
10
-49.950000
20
-79.956882
30
0.0
11
-49.500000
21
-79.956882
31
0.0
0
LINE
8
0
6
CONTINUOUS
10
-49.500000
20
-79.956882
30
0.0
11
-49.500000
21
-79.034483
31
0.0
0
LINE
8
0
6
CONTINUOUS
10
-49.500000
20
-79.956882
30
0.0
11
-49.950000
21
-79.956882
31
0.0
0
LINE
8
0
6
CONTINUOUS
10
-49.500000
20
-79.034483
30
0.0
11
-49.500000
21
-79.956882
31
0.0
0
LINE
8
0
6
CONTINUOUS
10
-19.713000
20
-80.500000
30
0.0
11
-20.763000
21
-80.500000
31
0.0
0
LINE
8
0
6
CONTINUOUS
10
-19.263000
20
-80.500000
30
0.0
11
-19.713000
21
-80.500000
31
0.0
0
LINE
8
0
6
CONTINUOUS
10
-21.813000
20
-80.500000
30
0.0
11
-22.263000
21
-80.500000
31
0.0
0
LINE
8
0
6
CONTINUOUS
10
-20.763000
20
-80.500000
30
0.0
11
-21.813000
21
-80.500000
31
0.0
0
LINE
8
0
6
CONTINUOUS
10
-20.763000
20
-80.500000
30
0.0
11
-19.713000
21
-80.500000
31
0.0
0
LINE
8
0
6
CONTINUOUS
10
-20.763000
20
-79.500000
30
0.0
11
-20.763000
21
-80.500000
31
0.0
0
LINE
8
0
6
CONTINUOUS
10
-19.713000
20
-80.500000
30
0.0
11
-19.263000
21
-80.500000
31
0.0
0
LINE
8
0
6
CONTINUOUS
10
-22.263000
20
-80.500000
30
0.0
11
-22.263000
21
-79.500000
31
0.0
0
LINE
8
0
6
CONTINUOUS
10
-21.813000
20
-80.500000
30
0.0
11
-21.813000
21
-79.500000
31
0.0
0
LINE
8
0
6
CONTINUOUS
10
-22.263000
20
-80.500000
30
0.0
11
-21.813000
21
-80.500000
31
0.0
0
LINE
8
0
6
CONTINUOUS
10
-22.263000
20
-79.500000
30
0.0
11
-22.263000
21
-80.500000
31
0.0
0
LINE
8
0
6
CONTINUOUS
10
-20.763000
20
-80.500000
30
0.0
11
-20.763000
21
-79.500000
31
0.0
0
LINE
8
0
6
CONTINUOUS
10
-21.813000
20
-80.500000
30
0.0
11
-20.763000
21
-80.500000
31
0.0
0
LINE
8
0
6
CONTINUOUS
10
-21.813000
20
-79.500000
30
0.0
11
-21.813000
21
-80.500000
31
0.0
0
LINE
8
0
6
CONTINUOUS
10
-18.105000
20
-80.198414
30
0.0
11
-19.155000
21
-80.198414
31
0.0
0
LINE
8
0
6
CONTINUOUS
10
-17.655000
20
-80.198414
30
0.0
11
-18.105000
21
-80.198414
31
0.0
0
LINE
8
0
6
CONTINUOUS
10
-20.205000
20
-80.198414
30
0.0
11
-20.655000
21
-80.198414
31
0.0
0
LINE
8
0
6
CONTINUOUS
10
-19.155000
20
-80.198414
30
0.0
11
-20.205000
21
-80.198414
31
0.0
0
LINE
8
0
6
CONTINUOUS
10
-18.105000
20
-80.198414
30
0.0
11
-18.105000
21
-79.500000
31
0.0
0
LINE
8
0
6
CONTINUOUS
10
-19.155000
20
-80.198414
30
0.0
11
-18.105000
21
-80.198414
31
0.0
0
LINE
8
0
6
CONTINUOUS
10
-19.155000
20
-79.500000
30
0.0
11
-19.155000
21
-80.198414
31
0.0
0
LINE
8
0
6
CONTINUOUS
10
-17.655000
20
-80.198414
30
0.0
11
-17.655000
21
-79.500000
31
0.0
0
LINE
8
0
6
CONTINUOUS
10
-18.105000
20
-80.198414
30
0.0
11
-17.655000
21
-80.198414
31
0.0
0
LINE
8
0
6
CONTINUOUS
10
-18.105000
20
-79.500000
30
0.0
11
-18.105000
21
-80.198414
31
0.0
0
LINE
8
0
6
CONTINUOUS
10
-17.655000
20
-79.500000
30
0.0
11
-17.655000
21
-80.198414
31
0.0
0
LINE
8
0
6
CONTINUOUS
10
-20.655000
20
-80.198414
30
0.0
11
-20.655000
21
-79.500000
31
0.0
0
LINE
8
0
6
CONTINUOUS
10
-20.205000
20
-80.198414
30
0.0
11
-20.205000
21
-79.500000
31
0.0
0
LINE
8
0
6
CONTINUOUS
10
-20.655000
20
-80.198414
30
0.0
11
-20.205000
21
-80.198414
31
0.0
0
LINE
8
0
6
CONTINUOUS
10
-20.655000
20
-79.500000
30
0.0
11
-20.655000
21
-80.198414
31
0.0
0
LINE
8
0
6
CONTINUOUS
10
-19.155000
20
-80.198414
30
0.0
11
-19.155000
21
-79.500000
31
0.0
0
LINE
8
0
6
CONTINUOUS
10
-20.205000
20
-80.198414
30
0.0
11
-19.155000
21
-80.198414
31
0.0
0
LINE
8
0
6
CONTINUOUS
10
-20.205000
20
-79.500000
30
0.0
11
-20.205000
21
-80.198414
31
0.0
0
LINE
8
0
6
CONTINUOUS
10
-29.408000
20
-79.598319
30
0.0
11
-30.458000
21
-79.586425
31
0.0
0
LINE
8
0
6
CONTINUOUS
10
-28.958000
20
-79.626072
30
0.0
11
-29.408000
21
-79.598319
31
0.0
0
LINE
8
0
6
CONTINUOUS
10
-29.408000
20
-79.653825
30
0.0
11
-28.958000
21
-79.626072
31
0.0
0
LINE
8
0
6
CONTINUOUS
10
-30.458000
20
-79.665719
30
0.0
11
-29.408000
21
-79.653825
31
0.0
0
LINE
8
0
6
CONTINUOUS
10
-31.508200
20
-79.653825
30
0.0
11
-30.458000
21
-79.665719
31
0.0
0
LINE
8
0
6
CONTINUOUS
10
-31.958200
20
-79.626072
30
0.0
11
-31.508200
21
-79.653825
31
0.0
0
LINE
8
0
6
CONTINUOUS
10
-31.508200
20
-79.598319
30
0.0
11
-31.958200
21
-79.626072
31
0.0
0
LINE
8
0
6
CONTINUOUS
10
-30.458000
20
-79.586425
30
0.0
11
-31.508200
21
-79.598319
31
0.0
0
LINE
8
0
6
CONTINUOUS
10
-29.408000
20
-79.598319
30
0.0
11
-29.408000
21
-78.881250
31
0.0
0
LINE
8
0
6
CONTINUOUS
10
-30.458000
20
-79.586425
30
0.0
11
-29.408000
21
-79.598319
31
0.0
0
LINE
8
0
6
CONTINUOUS
10
-30.458000
20
-78.863717
30
0.0
11
-30.458000
21
-79.586425
31
0.0
0
LINE
8
0
6
CONTINUOUS
10
-28.958000
20
-79.626072
30
0.0
11
-28.958000
21
-78.917778
31
0.0
0
LINE
8
0
6
CONTINUOUS
10
-29.408000
20
-79.598319
30
0.0
11
-28.958000
21
-79.626072
31
0.0
0
LINE
8
0
6
CONTINUOUS
10
-29.408000
20
-78.881250
30
0.0
11
-29.408000
21
-79.598319
31
0.0
0
LINE
8
0
6
CONTINUOUS
10
-28.958000
20
-79.626072
30
0.0
11
-29.408000
21
-79.653825
31
0.0
0
LINE
8
0
6
CONTINUOUS
10
-28.958000
20
-78.917778
30
0.0
11
-28.958000
21
-79.626072
31
0.0
0
LINE
8
0
6
CONTINUOUS
10
-29.408000
20
-79.653825
30
0.0
11
-30.458000
21
-79.665719
31
0.0
0
LINE
8
0
6
CONTINUOUS
10
-30.458000
20
-79.665719
30
0.0
11
-31.508200
21
-79.653825
31
0.0
0
LINE
8
0
6
CONTINUOUS
10
-31.958200
20
-79.626072
30
0.0
11
-31.958200
21
-78.910592
31
0.0
0
LINE
8
0
6
CONTINUOUS
10
-31.508200
20
-79.653825
30
0.0
11
-31.958200
21
-79.626072
31
0.0
0
LINE
8
0
6
CONTINUOUS
10
-31.508200
20
-79.598319
30
0.0
11
-31.508200
21
-78.876307
31
0.0
0
LINE
8
0
6
CONTINUOUS
10
-31.958200
20
-79.626072
30
0.0
11
-31.508200
21
-79.598319
31
0.0
0
LINE
8
0
6
CONTINUOUS
10
-31.958200
20
-78.910592
30
0.0
11
-31.958200
21
-79.626072
31
0.0
0
LINE
8
0
6
CONTINUOUS
10
-30.458000
20
-79.586425
30
0.0
11
-30.458000
21
-78.863717
31
0.0
0
LINE
8
0
6
CONTINUOUS
10
-31.508200
20
-79.598319
30
0.0
11
-30.458000
21
-79.586425
31
0.0
0
LINE
8
0
6
CONTINUOUS
10
-31.508200
20
-78.876307
30
0.0
11
-31.508200
21
-79.598319
31
0.0
0
LINE
8
0
6
CONTINUOUS
10
-35.514400
20
-80.500000
30
0.0
11
-35.064400
21
-80.500000
31
0.0
0
LINE
8
0
6
CONTINUOUS
10
-36.564400
20
-80.500000
30
0.0
11
-35.514400
21
-80.500000
31
0.0
0
LINE
8
0
6
CONTINUOUS
10
-37.614400
20
-80.500000
30
0.0
11
-36.564400
21
-80.500000
31
0.0
0
LINE
8
0
6
CONTINUOUS
10
-38.064400
20
-80.500000
30
0.0
11
-37.614400
21
-80.500000
31
0.0
0
LINE
8
0
6
CONTINUOUS
10
-35.064400
20
-80.500000
30
0.0
11
-35.064400
21
-79.500000
31
0.0
0
LINE
8
0
6
CONTINUOUS
10
-35.064400
20
-80.500000
30
0.0
11
-35.514400
21
-80.500000
31
0.0
0
LINE
8
0
6
CONTINUOUS
10
-35.064400
20
-79.500000
30
0.0
11
-35.064400
21
-80.500000
31
0.0
0
LINE
8
0
6
CONTINUOUS
10
-35.514400
20
-80.500000
30
0.0
11
-36.564400
21
-80.500000
31
0.0
0
LINE
8
0
6
CONTINUOUS
10
-36.564400
20
-80.500000
30
0.0
11
-37.614400
21
-80.500000
31
0.0
0
LINE
8
0
6
CONTINUOUS
10
-37.614400
20
-80.500000
30
0.0
11
-38.064400
21
-80.500000
31
0.0
0
LINE
8
0
6
CONTINUOUS
10
-43.107200
20
-79.606027
30
0.0
11
-44.157200
21
-79.594133
31
0.0
0
LINE
8
0
6
CONTINUOUS
10
-42.657200
20
-79.633780
30
0.0
11
-43.107200
21
-79.606027
31
0.0
0
LINE
8
0
6
CONTINUOUS
10
-43.107200
20
-79.661533
30
0.0
11
-42.657200
21
-79.633780
31
0.0
0
LINE
8
0
6
CONTINUOUS
10
-44.157200
20
-79.673427
30
0.0
11
-43.107200
21
-79.661533
31
0.0
0
LINE
8
0
6
CONTINUOUS
10
-45.207200
20
-79.661533
30
0.0
11
-44.157200
21
-79.673427
31
0.0
0
LINE
8
0
6
CONTINUOUS
10
-45.657200
20
-79.633780
30
0.0
11
-45.207200
21
-79.661533
31
0.0
0
LINE
8
0
6
CONTINUOUS
10
-45.207200
20
-79.606027
30
0.0
11
-45.657200
21
-79.633780
31
0.0
0
LINE
8
0
6
CONTINUOUS
10
-44.157200
20
-79.594133
30
0.0
11
-45.207200
21
-79.606027
31
0.0
0
LINE
8
0
6
CONTINUOUS
10
-43.107200
20
-79.606027
30
0.0
11
-43.107200
21
-78.847990
31
0.0
0
LINE
8
0
6
CONTINUOUS
10
-44.157200
20
-79.594133
30
0.0
11
-43.107200
21
-79.606027
31
0.0
0
LINE
8
0
6
CONTINUOUS
10
-44.157200
20
-78.828312
30
0.0
11
-44.157200
21
-79.594133
31
0.0
0
LINE
8
0
6
CONTINUOUS
10
-42.657200
20
-79.633780
30
0.0
11
-42.657200
21
-78.883589
31
0.0
0
LINE
8
0
6
CONTINUOUS
10
-43.107200
20
-79.606027
30
0.0
11
-42.657200
21
-79.633780
31
0.0
0
LINE
8
0
6
CONTINUOUS
10
-43.107200
20
-78.847990
30
0.0
11
-43.107200
21
-79.606027
31
0.0
0
LINE
8
0
6
CONTINUOUS
10
-42.657200
20
-79.633780
30
0.0
11
-43.107200
21
-79.661533
31
0.0
0
LINE
8
0
6
CONTINUOUS
10
-42.657200
20
-78.883589
30
0.0
11
-42.657200
21
-79.633780
31
0.0
0
LINE
8
0
6
CONTINUOUS
10
-43.107200
20
-79.661533
30
0.0
11
-44.157200
21
-79.673427
31
0.0
0
LINE
8
0
6
CONTINUOUS
10
-44.157200
20
-79.673427
30
0.0
11
-45.207200
21
-79.661533
31
0.0
0
LINE
8
0
6
CONTINUOUS
10
-45.657200
20
-79.633780
30
0.0
11
-45.657200
21
-78.863628
31
0.0
0
LINE
8
0
6
CONTINUOUS
10
-45.207200
20
-79.661533
30
0.0
11
-45.657200
21
-79.633780
31
0.0
0
LINE
8
0
6
CONTINUOUS
10
-45.207200
20
-79.606027
30
0.0
11
-45.207200
21
-78.835726
31
0.0
0
LINE
8
0
6
CONTINUOUS
10
-45.657200
20
-79.633780
30
0.0
11
-45.207200
21
-79.606027
31
0.0
0
LINE
8
0
6
CONTINUOUS
10
-45.657200
20
-78.863628
30
0.0
11
-45.657200
21
-79.633780
31
0.0
0
LINE
8
0
6
CONTINUOUS
10
-44.157200
20
-79.594133
30
0.0
11
-44.157200
21
-78.828312
31
0.0
0
LINE
8
0
6
CONTINUOUS
10
-45.207200
20
-79.606027
30
0.0
11
-44.157200
21
-79.594133
31
0.0
0
LINE
8
0
6
CONTINUOUS
10
-45.207200
20
-78.835726
30
0.0
11
-45.207200
21
-79.606027
31
0.0
0
LINE
8
0
6
CONTINUOUS
10
-35.906300
20
-80.198414
30
0.0
11
-36.956300
21
-80.198414
31
0.0
0
LINE
8
0
6
CONTINUOUS
10
-35.456300
20
-80.198414
30
0.0
11
-35.906300
21
-80.198414
31
0.0
0
LINE
8
0
6
CONTINUOUS
10
-38.006300
20
-80.198414
30
0.0
11
-38.456300
21
-80.198414
31
0.0
0
LINE
8
0
6
CONTINUOUS
10
-36.956300
20
-80.198414
30
0.0
11
-38.006300
21
-80.198414
31
0.0
0
LINE
8
0
6
CONTINUOUS
10
-35.906300
20
-80.198414
30
0.0
11
-35.906300
21
-79.305106
31
0.0
0
LINE
8
0
6
CONTINUOUS
10
-36.956300
20
-80.198414
30
0.0
11
-35.906300
21
-80.198414
31
0.0
0
LINE
8
0
6
CONTINUOUS
10
-36.956300
20
-79.280178
30
0.0
11
-36.956300
21
-80.198414
31
0.0
0
LINE
8
0
6
CONTINUOUS
10
-35.456300
20
-80.198414
30
0.0
11
-35.456300
21
-79.336887
31
0.0
0
LINE
8
0
6
CONTINUOUS
10
-35.906300
20
-80.198414
30
0.0
11
-35.456300
21
-80.198414
31
0.0
0
LINE
8
0
6
CONTINUOUS
10
-35.906300
20
-79.305106
30
0.0
11
-35.906300
21
-80.198414
31
0.0
0
LINE
8
0
6
CONTINUOUS
10
-35.456300
20
-79.336887
30
0.0
11
-35.456300
21
-80.198414
31
0.0
0
LINE
8
0
6
CONTINUOUS
10
-38.456300
20
-80.198414
30
0.0
11
-38.456300
21
-79.287516
31
0.0
0
LINE
8
0
6
CONTINUOUS
10
-38.006300
20
-80.198414
30
0.0
11
-38.006300
21
-79.274257
31
0.0
0
LINE
8
0
6
CONTINUOUS
10
-38.456300
20
-80.198414
30
0.0
11
-38.006300
21
-80.198414
31
0.0
0
LINE
8
0
6
CONTINUOUS
10
-38.456300
20
-79.287516
30
0.0
11
-38.456300
21
-80.198414
31
0.0
0
LINE
8
0
6
CONTINUOUS
10
-36.956300
20
-80.198414
30
0.0
11
-36.956300
21
-79.280178
31
0.0
0
LINE
8
0
6
CONTINUOUS
10
-38.006300
20
-80.198414
30
0.0
11
-36.956300
21
-80.198414
31
0.0
0
LINE
8
0
6
CONTINUOUS
10
-38.006300
20
-79.274257
30
0.0
11
-38.006300
21
-80.198414
31
0.0
0
LINE
8
0
6
CONTINUOUS
10
-21.237000
20
-78.253610
30
0.0
11
-22.287000
21
-78.202650
31
0.0
0
LINE
8
0
6
CONTINUOUS
10
-20.787000
20
-78.372510
30
0.0
11
-21.237000
21
-78.253610
31
0.0
0
LINE
8
0
6
CONTINUOUS
10
-21.237000
20
-78.491410
30
0.0
11
-20.787000
21
-78.372510
31
0.0
0
LINE
8
0
6
CONTINUOUS
10
-22.287000
20
-78.542369
30
0.0
11
-21.237000
21
-78.491410
31
0.0
0
LINE
8
0
6
CONTINUOUS
10
-23.337000
20
-78.491410
30
0.0
11
-22.287000
21
-78.542369
31
0.0
0
LINE
8
0
6
CONTINUOUS
10
-23.787000
20
-78.372510
30
0.0
11
-23.337000
21
-78.491410
31
0.0
0
LINE
8
0
6
CONTINUOUS
10
-23.337000
20
-78.253610
30
0.0
11
-23.787000
21
-78.372510
31
0.0
0
LINE
8
0
6
CONTINUOUS
10
-22.287000
20
-78.202650
30
0.0
11
-23.337000
21
-78.253610
31
0.0
0
LINE
8
0
6
CONTINUOUS
10
-21.237000
20
-78.253610
30
0.0
11
-21.237000
21
-77.534411
31
0.0
0
LINE
8
0
6
CONTINUOUS
10
-22.287000
20
-78.202650
30
0.0
11
-21.237000
21
-78.253610
31
0.0
0
LINE
8
0
6
CONTINUOUS
10
-22.287000
20
-77.508221
30
0.0
11
-22.287000
21
-78.202650
31
0.0
0
LINE
8
0
6
CONTINUOUS
10
-20.787000
20
-78.372510
30
0.0
11
-20.787000
21
-77.593245
31
0.0
0
LINE
8
0
6
CONTINUOUS
10
-21.237000
20
-78.253610
30
0.0
11
-20.787000
21
-78.372510
31
0.0
0
LINE
8
0
6
CONTINUOUS
10
-21.237000
20
-77.534411
30
0.0
11
-21.237000
21
-78.253610
31
0.0
0
LINE
8
0
6
CONTINUOUS
10
-20.787000
20
-78.372510
30
0.0
11
-21.237000
21
-78.491410
31
0.0
0
LINE
8
0
6
CONTINUOUS
10
-20.787000
20
-77.593245
30
0.0
11
-20.787000
21
-78.372510
31
0.0
0
LINE
8
0
6
CONTINUOUS
10
-21.237000
20
-78.491410
30
0.0
11
-22.287000
21
-78.542369
31
0.0
0
LINE
8
0
6
CONTINUOUS
10
-22.287000
20
-78.542369
30
0.0
11
-23.337000
21
-78.491410
31
0.0
0
LINE
8
0
6
CONTINUOUS
10
-23.787000
20
-78.372510
30
0.0
11
-23.787000
21
-77.589797
31
0.0
0
LINE
8
0
6
CONTINUOUS
10
-23.337000
20
-78.491410
30
0.0
11
-23.787000
21
-78.372510
31
0.0
0
LINE
8
0
6
CONTINUOUS
10
-23.337000
20
-78.253610
30
0.0
11
-23.337000
21
-77.531997
31
0.0
0
LINE
8
0
6
CONTINUOUS
10
-23.787000
20
-78.372510
30
0.0
11
-23.337000
21
-78.253610
31
0.0
0
LINE
8
0
6
CONTINUOUS
10
-23.787000
20
-77.589797
30
0.0
11
-23.787000
21
-78.372510
31
0.0
0
LINE
8
0
6
CONTINUOUS
10
-22.287000
20
-78.202650
30
0.0
11
-22.287000
21
-77.508221
31
0.0
0
LINE
8
0
6
CONTINUOUS
10
-23.337000
20
-78.253610
30
0.0
11
-22.287000
21
-78.202650
31
0.0
0
LINE
8
0
6
CONTINUOUS
10
-23.337000
20
-77.531997
30
0.0
11
-23.337000
21
-78.253610
31
0.0
0
LINE
8
0
6
CONTINUOUS
10
-29.060000
20
-76.797250
30
0.0
11
-30.110000
21
-76.736950
31
0.0
0
LINE
8
0
6
CONTINUOUS
10
-28.610000
20
-76.937940
30
0.0
11
-29.060000
21
-76.797250
31
0.0
0
LINE
8
0
6
CONTINUOUS
10
-29.060000
20
-77.078640
30
0.0
11
-28.610000
21
-76.937940
31
0.0
0
LINE
8
0
6
CONTINUOUS
10
-30.110000
20
-77.138940
30
0.0
11
-29.060000
21
-77.078640
31
0.0
0
LINE
8
0
6
CONTINUOUS
10
-31.159900
20
-77.078640
30
0.0
11
-30.110000
21
-77.138940
31
0.0
0
LINE
8
0
6
CONTINUOUS
10
-31.609900
20
-76.937940
30
0.0
11
-31.159900
21
-77.078640
31
0.0
0
LINE
8
0
6
CONTINUOUS
10
-31.159900
20
-76.797250
30
0.0
11
-31.609900
21
-76.937940
31
0.0
0
LINE
8
0
6
CONTINUOUS
10
-30.110000
20
-76.736950
30
0.0
11
-31.159900
21
-76.797250
31
0.0
0
LINE
8
0
6
CONTINUOUS
10
-29.060000
20
-76.797250
30
0.0
11
-29.060000
21
-75.718368
31
0.0
0
LINE
8
0
6
CONTINUOUS
10
-30.110000
20
-76.736950
30
0.0
11
-29.060000
21
-76.797250
31
0.0
0
LINE
8
0
6
CONTINUOUS
10
-30.110000
20
-75.659884
30
0.0
11
-30.110000
21
-76.736950
31
0.0
0
LINE
8
0
6
CONTINUOUS
10
-28.610000
20
-76.937940
30
0.0
11
-28.610000
21
-75.849627
31
0.0
0
LINE
8
0
6
CONTINUOUS
10
-29.060000
20
-76.797250
30
0.0
11
-28.610000
21
-76.937940
31
0.0
0
LINE
8
0
6
CONTINUOUS
10
-29.060000
20
-75.718368
30
0.0
11
-29.060000
21
-76.797250
31
0.0
0
LINE
8
0
6
CONTINUOUS
10
-28.610000
20
-76.937940
30
0.0
11
-29.060000
21
-77.078640
31
0.0
0
LINE
8
0
6
CONTINUOUS
10
-28.610000
20
-75.849627
30
0.0
11
-28.610000
21
-76.937940
31
0.0
0
LINE
8
0
6
CONTINUOUS
10
-29.060000
20
-77.078640
30
0.0
11
-30.110000
21
-77.138940
31
0.0
0
LINE
8
0
6
CONTINUOUS
10
-30.110000
20
-77.138940
30
0.0
11
-31.159900
21
-77.078640
31
0.0
0
LINE
8
0
6
CONTINUOUS
10
-31.609900
20
-76.937940
30
0.0
11
-31.609900
21
-75.841942
31
0.0
0
LINE
8
0
6
CONTINUOUS
10
-31.159900
20
-77.078640
30
0.0
11
-31.609900
21
-76.937940
31
0.0
0
LINE
8
0
6
CONTINUOUS
10
-31.159900
20
-76.797250
30
0.0
11
-31.159900
21
-75.712989
31
0.0
0
LINE
8
0
6
CONTINUOUS
10
-31.609900
20
-76.937940
30
0.0
11
-31.159900
21
-76.797250
31
0.0
0
LINE
8
0
6
CONTINUOUS
10
-31.609900
20
-75.841942
30
0.0
11
-31.609900
21
-76.937940
31
0.0
0
LINE
8
0
6
CONTINUOUS
10
-30.110000
20
-76.736950
30
0.0
11
-30.110000
21
-75.659884
31
0.0
0
LINE
8
0
6
CONTINUOUS
10
-31.159900
20
-76.797250
30
0.0
11
-30.110000
21
-76.736950
31
0.0
0
LINE
8
0
6
CONTINUOUS
10
-31.159900
20
-75.712989
30
0.0
11
-31.159900
21
-76.797250
31
0.0
0
LINE
8
0
6
CONTINUOUS
10
-48.488800
20
-78.282360
30
0.0
11
-49.538800
21
-78.231400
31
0.0
0
LINE
8
0
6
CONTINUOUS
10
-48.038800
20
-78.401260
30
0.0
11
-48.488800
21
-78.282360
31
0.0
0
LINE
8
0
6
CONTINUOUS
10
-48.488800
20
-78.520162
30
0.0
11
-48.038800
21
-78.401260
31
0.0
0
LINE
8
0
6
CONTINUOUS
10
-49.538800
20
-78.571120
30
0.0
11
-48.488800
21
-78.520162
31
0.0
0
LINE
8
0
6
CONTINUOUS
10
-50.588800
20
-78.520162
30
0.0
11
-49.538800
21
-78.571120
31
0.0
0
LINE
8
0
6
CONTINUOUS
10
-51.038800
20
-78.401260
30
0.0
11
-50.588800
21
-78.520162
31
0.0
0
LINE
8
0
6
CONTINUOUS
10
-50.588800
20
-78.282360
30
0.0
11
-51.038800
21
-78.401260
31
0.0
0
LINE
8
0
6
CONTINUOUS
10
-49.538800
20
-78.231400
30
0.0
11
-50.588800
21
-78.282360
31
0.0
0
LINE
8
0
6
CONTINUOUS
10
-48.488800
20
-78.282360
30
0.0
11
-48.488800
21
-77.452446
31
0.0
0
LINE
8
0
6
CONTINUOUS
10
-49.538800
20
-78.231400
30
0.0
11
-48.488800
21
-78.282360
31
0.0
0
LINE
8
0
6
CONTINUOUS
10
-49.538800
20
-77.388633
30
0.0
11
-49.538800
21
-78.231400
31
0.0
0
LINE
8
0
6
CONTINUOUS
10
-48.038800
20
-78.401260
30
0.0
11
-48.038800
21
-77.537530
31
0.0
0
LINE
8
0
6
CONTINUOUS
10
-48.488800
20
-78.282360
30
0.0
11
-48.038800
21
-78.401260
31
0.0
0
LINE
8
0
6
CONTINUOUS
10
-48.488800
20
-77.452446
30
0.0
11
-48.488800
21
-78.282360
31
0.0
0
LINE
8
0
6
CONTINUOUS
10
-48.038800
20
-78.401260
30
0.0
11
-48.488800
21
-78.520162
31
0.0
0
LINE
8
0
6
CONTINUOUS
10
-48.038800
20
-77.537530
30
0.0
11
-48.038800
21
-78.401260
31
0.0
0
LINE
8
0
6
CONTINUOUS
10
-48.488800
20
-78.520162
30
0.0
11
-49.538800
21
-78.571120
31
0.0
0
LINE
8
0
6
CONTINUOUS
10
-49.538800
20
-78.571120
30
0.0
11
-50.588800
21
-78.520162
31
0.0
0
LINE
8
0
6
CONTINUOUS
10
-51.038800
20
-78.401260
30
0.0
11
-51.038800
21
-77.525747
31
0.0
0
LINE
8
0
6
CONTINUOUS
10
-50.588800
20
-78.520162
30
0.0
11
-51.038800
21
-78.401260
31
0.0
0
LINE
8
0
6
CONTINUOUS
10
-50.588800
20
-78.282360
30
0.0
11
-50.588800
21
-77.434024
31
0.0
0
LINE
8
0
6
CONTINUOUS
10
-51.038800
20
-78.401260
30
0.0
11
-50.588800
21
-78.282360
31
0.0
0
LINE
8
0
6
CONTINUOUS
10
-51.038800
20
-77.525747
30
0.0
11
-51.038800
21
-78.401260
31
0.0
0
LINE
8
0
6
CONTINUOUS
10
-49.538800
20
-78.231400
30
0.0
11
-49.538800
21
-77.388633
31
0.0
0
LINE
8
0
6
CONTINUOUS
10
-50.588800
20
-78.282360
30
0.0
11
-49.538800
21
-78.231400
31
0.0
0
LINE
8
0
6
CONTINUOUS
10
-50.588800
20
-77.434024
30
0.0
11
-50.588800
21
-78.282360
31
0.0
0
LINE
8
0
6
CONTINUOUS
10
-44.279700
20
-76.915120
30
0.0
11
-45.329700
21
-76.854830
31
0.0
0
LINE
8
0
6
CONTINUOUS
10
-43.829700
20
-77.055820
30
0.0
11
-44.279700
21
-76.915120
31
0.0
0
LINE
8
0
6
CONTINUOUS
10
-44.279700
20
-77.196520
30
0.0
11
-43.829700
21
-77.055820
31
0.0
0
LINE
8
0
6
CONTINUOUS
10
-45.329700
20
-77.256820
30
0.0
11
-44.279700
21
-77.196520
31
0.0
0
LINE
8
0
6
CONTINUOUS
10
-46.379700
20
-77.196520
30
0.0
11
-45.329700
21
-77.256820
31
0.0
0
LINE
8
0
6
CONTINUOUS
10
-46.829700
20
-77.055820
30
0.0
11
-46.379700
21
-77.196520
31
0.0
0
LINE
8
0
6
CONTINUOUS
10
-46.379700
20
-76.915120
30
0.0
11
-46.829700
21
-77.055820
31
0.0
0
LINE
8
0
6
CONTINUOUS
10
-45.329700
20
-76.854830
30
0.0
11
-46.379700
21
-76.915120
31
0.0
0
LINE
8
0
6
CONTINUOUS
10
-44.279700
20
-76.915120
30
0.0
11
-44.279700
21
-75.755936
31
0.0
0
LINE
8
0
6
CONTINUOUS
10
-45.329700
20
-76.854830
30
0.0
11
-44.279700
21
-76.915120
31
0.0
0
LINE
8
0
6
CONTINUOUS
10
-45.329700
20
-75.692875
30
0.0
11
-45.329700
21
-76.854830
31
0.0
0
LINE
8
0
6
CONTINUOUS
10
-43.829700
20
-77.055820
30
0.0
11
-43.829700
21
-75.887506
31
0.0
0
LINE
8
0
6
CONTINUOUS
10
-44.279700
20
-76.915120
30
0.0
11
-43.829700
21
-77.055820
31
0.0
0
LINE
8
0
6
CONTINUOUS
10
-44.279700
20
-75.755936
30
0.0
11
-44.279700
21
-76.915120
31
0.0
0
LINE
8
0
6
CONTINUOUS
10
-43.829700
20
-77.055820
30
0.0
11
-44.279700
21
-77.196520
31
0.0
0
LINE
8
0
6
CONTINUOUS
10
-43.829700
20
-75.887506
30
0.0
11
-43.829700
21
-77.055820
31
0.0
0
LINE
8
0
6
CONTINUOUS
10
-44.279700
20
-77.196520
30
0.0
11
-45.329700
21
-77.256820
31
0.0
0
LINE
8
0
6
CONTINUOUS
10
-45.329700
20
-77.256820
30
0.0
11
-46.379700
21
-77.196520
31
0.0
0
LINE
8
0
6
CONTINUOUS
10
-46.829700
20
-77.055820
30
0.0
11
-46.829700
21
-75.864084
31
0.0
0
LINE
8
0
6
CONTINUOUS
10
-46.379700
20
-77.196520
30
0.0
11
-46.829700
21
-77.055820
31
0.0
0
LINE
8
0
6
CONTINUOUS
10
-46.379700
20
-76.915120
30
0.0
11
-46.379700
21
-75.739541
31
0.0
0
LINE
8
0
6
CONTINUOUS
10
-46.829700
20
-77.055820
30
0.0
11
-46.379700
21
-76.915120
31
0.0
0
LINE
8
0
6
CONTINUOUS
10
-46.829700
20
-75.864084
30
0.0
11
-46.829700
21
-77.055820
31
0.0
0
LINE
8
0
6
CONTINUOUS
10
-45.329700
20
-76.854830
30
0.0
11
-45.329700
21
-75.692875
31
0.0
0
LINE
8
0
6
CONTINUOUS
10
-46.379700
20
-76.915120
30
0.0
11
-45.329700
21
-76.854830
31
0.0
0
LINE
8
0
6
CONTINUOUS
10
-46.379700
20
-75.739541
30
0.0
11
-46.379700
21
-76.915120
31
0.0
0
LINE
8
0
6
CONTINUOUS
10
-33.041000
20
-78.267990
30
0.0
11
-34.091000
21
-78.217030
31
0.0
0
LINE
8
0
6
CONTINUOUS
10
-32.591000
20
-78.386890
30
0.0
11
-33.041000
21
-78.267990
31
0.0
0
LINE
8
0
6
CONTINUOUS
10
-33.041000
20
-78.505787
30
0.0
11
-32.591000
21
-78.386890
31
0.0
0
LINE
8
0
6
CONTINUOUS
10
-34.091000
20
-78.556744
30
0.0
11
-33.041000
21
-78.505787
31
0.0
0
LINE
8
0
6
CONTINUOUS
10
-35.141000
20
-78.505787
30
0.0
11
-34.091000
21
-78.556744
31
0.0
0
LINE
8
0
6
CONTINUOUS
10
-35.591000
20
-78.386890
30
0.0
11
-35.141000
21
-78.505787
31
0.0
0
LINE
8
0
6
CONTINUOUS
10
-35.141000
20
-78.267990
30
0.0
11
-35.591000
21
-78.386890
31
0.0
0
LINE
8
0
6
CONTINUOUS
10
-34.091000
20
-78.217030
30
0.0
11
-35.141000
21
-78.267990
31
0.0
0
LINE
8
0
6
CONTINUOUS
10
-33.041000
20
-78.267990
30
0.0
11
-33.041000
21
-77.526754
31
0.0
0
LINE
8
0
6
CONTINUOUS
10
-34.091000
20
-78.217030
30
0.0
11
-33.041000
21
-78.267990
31
0.0
0
LINE
8
0
6
CONTINUOUS
10
-34.091000
20
-77.496664
30
0.0
11
-34.091000
21
-78.217030
31
0.0
0
LINE
8
0
6
CONTINUOUS
10
-32.591000
20
-78.386890
30
0.0
11
-32.591000
21
-77.585643
31
0.0
0
LINE
8
0
6
CONTINUOUS
10
-33.041000
20
-78.267990
30
0.0
11
-32.591000
21
-78.386890
31
0.0
0
LINE
8
0
6
CONTINUOUS
10
-33.041000
20
-77.526754
30
0.0
11
-33.041000
21
-78.267990
31
0.0
0
LINE
8
0
6
CONTINUOUS
10
-32.591000
20
-78.386890
30
0.0
11
-33.041000
21
-78.505787
31
0.0
0
LINE
8
0
6
CONTINUOUS
10
-32.591000
20
-77.585643
30
0.0
11
-32.591000
21
-78.386890
31
0.0
0
LINE
8
0
6
CONTINUOUS
10
-33.041000
20
-78.505787
30
0.0
11
-34.091000
21
-78.556744
31
0.0
0
LINE
8
0
6
CONTINUOUS
10
-34.091000
20
-78.556744
30
0.0
11
-35.141000
21
-78.505787
31
0.0
0
LINE
8
0
6
CONTINUOUS
10
-35.591000
20
-78.386890
30
0.0
11
-35.591000
21
-77.575122
31
0.0
0
LINE
8
0
6
CONTINUOUS
10
-35.141000
20
-78.505787
30
0.0
11
-35.591000
21
-78.386890
31
0.0
0
LINE
8
0
6
CONTINUOUS
10
-35.141000
20
-78.267990
30
0.0
11
-35.141000
21
-77.519389
31
0.0
0
LINE
8
0
6
CONTINUOUS
10
-35.591000
20
-78.386890
30
0.0
11
-35.141000
21
-78.267990
31
0.0
0
LINE
8
0
6
CONTINUOUS
10
-35.591000
20
-77.575122
30
0.0
11
-35.591000
21
-78.386890
31
0.0
0
LINE
8
0
6
CONTINUOUS
10
-34.091000
20
-78.217030
30
0.0
11
-34.091000
21
-77.496664
31
0.0
0
LINE
8
0
6
CONTINUOUS
10
-35.141000
20
-78.267990
30
0.0
11
-34.091000
21
-78.217030
31
0.0
0
LINE
8
0
6
CONTINUOUS
10
-35.141000
20
-77.519389
30
0.0
11
-35.141000
21
-78.267990
31
0.0
0
LINE
8
0
6
CONTINUOUS
10
-38.298000
20
-79.099806
30
0.0
11
-39.348000
21
-79.074625
31
0.0
0
LINE
8
0
6
CONTINUOUS
10
-37.848000
20
-79.158559
30
0.0
11
-38.298000
21
-79.099806
31
0.0
0
LINE
8
0
6
CONTINUOUS
10
-38.298000
20
-79.217313
30
0.0
11
-37.848000
21
-79.158559
31
0.0
0
LINE
8
0
6
CONTINUOUS
10
-39.348000
20
-79.242493
30
0.0
11
-38.298000
21
-79.217313
31
0.0
0
LINE
8
0
6
CONTINUOUS
10
-40.398000
20
-79.217313
30
0.0
11
-39.348000
21
-79.242493
31
0.0
0
LINE
8
0
6
CONTINUOUS
10
-40.848000
20
-79.158559
30
0.0
11
-40.398000
21
-79.217313
31
0.0
0
LINE
8
0
6
CONTINUOUS
10
-40.398000
20
-79.099806
30
0.0
11
-40.848000
21
-79.158559
31
0.0
0
LINE
8
0
6
CONTINUOUS
10
-39.348000
20
-79.074625
30
0.0
11
-40.398000
21
-79.099806
31
0.0
0
LINE
8
0
6
CONTINUOUS
10
-38.298000
20
-79.099806
30
0.0
11
-38.298000
21
-78.318688
31
0.0
0
LINE
8
0
6
CONTINUOUS
10
-39.348000
20
-79.074625
30
0.0
11
-38.298000
21
-79.099806
31
0.0
0
LINE
8
0
6
CONTINUOUS
10
-39.348000
20
-78.290151
30
0.0
11
-39.348000
21
-79.074625
31
0.0
0
LINE
8
0
6
CONTINUOUS
10
-37.848000
20
-79.158559
30
0.0
11
-37.848000
21
-78.377469
31
0.0
0
LINE
8
0
6
CONTINUOUS
10
-38.298000
20
-79.099806
30
0.0
11
-37.848000
21
-79.158559
31
0.0
0
LINE
8
0
6
CONTINUOUS
10
-38.298000
20
-78.318688
30
0.0
11
-38.298000
21
-79.099806
31
0.0
0
LINE
8
0
6
CONTINUOUS
10
-37.848000
20
-79.158559
30
0.0
11
-38.298000
21
-79.217313
31
0.0
0
LINE
8
0
6
CONTINUOUS
10
-37.848000
20
-78.377469
30
0.0
11
-37.848000
21
-79.158559
31
0.0
0
LINE
8
0
6
CONTINUOUS
10
-38.298000
20
-79.217313
30
0.0
11
-39.348000
21
-79.242493
31
0.0
0
LINE
8
0
6
CONTINUOUS
10
-39.348000
20
-79.242493
30
0.0
11
-40.398000
21
-79.217313
31
0.0
0
LINE
8
0
6
CONTINUOUS
10
-40.848000
20
-79.158559
30
0.0
11
-40.848000
21
-78.365649
31
0.0
0
LINE
8
0
6
CONTINUOUS
10
-40.398000
20
-79.217313
30
0.0
11
-40.848000
21
-79.158559
31
0.0
0
LINE
8
0
6
CONTINUOUS
10
-40.398000
20
-79.099806
30
0.0
11
-40.398000
21
-78.310415
31
0.0
0
LINE
8
0
6
CONTINUOUS
10
-40.848000
20
-79.158559
30
0.0
11
-40.398000
21
-79.099806
31
0.0
0
LINE
8
0
6
CONTINUOUS
10
-40.848000
20
-78.365649
30
0.0
11
-40.848000
21
-79.158559
31
0.0
0
LINE
8
0
6
CONTINUOUS
10
-39.348000
20
-79.074625
30
0.0
11
-39.348000
21
-78.290151
31
0.0
0
LINE
8
0
6
CONTINUOUS
10
-40.398000
20
-79.099806
30
0.0
11
-39.348000
21
-79.074625
31
0.0
0
LINE
8
0
6
CONTINUOUS
10
-40.398000
20
-78.310415
30
0.0
11
-40.398000
21
-79.099806
31
0.0
0
LINE
8
0
6
CONTINUOUS
10
-26.202000
20
-79.075328
30
0.0
11
-27.252000
21
-79.050148
31
0.0
0
LINE
8
0
6
CONTINUOUS
10
-25.752000
20
-79.134082
30
0.0
11
-26.202000
21
-79.075328
31
0.0
0
LINE
8
0
6
CONTINUOUS
10
-26.202000
20
-79.192835
30
0.0
11
-25.752000
21
-79.134082
31
0.0
0
LINE
8
0
6
CONTINUOUS
10
-27.252000
20
-79.218016
30
0.0
11
-26.202000
21
-79.192835
31
0.0
0
LINE
8
0
6
CONTINUOUS
10
-28.302000
20
-79.192835
30
0.0
11
-27.252000
21
-79.218016
31
0.0
0
LINE
8
0
6
CONTINUOUS
10
-28.752000
20
-79.134082
30
0.0
11
-28.302000
21
-79.192835
31
0.0
0
LINE
8
0
6
CONTINUOUS
10
-28.302000
20
-79.075328
30
0.0
11
-28.752000
21
-79.134082
31
0.0
0
LINE
8
0
6
CONTINUOUS
10
-27.252000
20
-79.050148
30
0.0
11
-28.302000
21
-79.075328
31
0.0
0
LINE
8
0
6
CONTINUOUS
10
-26.202000
20
-79.075328
30
0.0
11
-26.202000
21
-78.336014
31
0.0
0
LINE
8
0
6
CONTINUOUS
10
-27.252000
20
-79.050148
30
0.0
11
-26.202000
21
-79.075328
31
0.0
0
LINE
8
0
6
CONTINUOUS
10
-27.252000
20
-78.309229
30
0.0
11
-27.252000
21
-79.050148
31
0.0
0
LINE
8
0
6
CONTINUOUS
10
-25.752000
20
-79.134082
30
0.0
11
-25.752000
21
-78.394745
31
0.0
0
LINE
8
0
6
CONTINUOUS
10
-26.202000
20
-79.075328
30
0.0
11
-25.752000
21
-79.134082
31
0.0
0
LINE
8
0
6
CONTINUOUS
10
-26.202000
20
-78.336014
30
0.0
11
-26.202000
21
-79.075328
31
0.0
0
LINE
8
0
6
CONTINUOUS
10
-25.752000
20
-79.134082
30
0.0
11
-26.202000
21
-79.192835
31
0.0
0
LINE
8
0
6
CONTINUOUS
10
-25.752000
20
-78.394745
30
0.0
11
-25.752000
21
-79.134082
31
0.0
0
LINE
8
0
6
CONTINUOUS
10
-26.202000
20
-79.192835
30
0.0
11
-27.252000
21
-79.218016
31
0.0
0
LINE
8
0
6
CONTINUOUS
10
-27.252000
20
-79.218016
30
0.0
11
-28.302000
21
-79.192835
31
0.0
0
LINE
8
0
6
CONTINUOUS
10
-28.752000
20
-79.134082
30
0.0
11
-28.752000
21
-78.385720
31
0.0
0
LINE
8
0
6
CONTINUOUS
10
-28.302000
20
-79.192835
30
0.0
11
-28.752000
21
-79.134082
31
0.0
0
LINE
8
0
6
CONTINUOUS
10
-28.302000
20
-79.075328
30
0.0
11
-28.302000
21
-78.330078
31
0.0
0
LINE
8
0
6
CONTINUOUS
10
-28.752000
20
-79.134082
30
0.0
11
-28.302000
21
-79.075328
31
0.0
0
LINE
8
0
6
CONTINUOUS
10
-28.752000
20
-78.385720
30
0.0
11
-28.752000
21
-79.134082
31
0.0
0
LINE
8
0
6
CONTINUOUS
10
-27.252000
20
-79.050148
30
0.0
11
-27.252000
21
-78.309229
31
0.0
0
LINE
8
0
6
CONTINUOUS
10
-28.302000
20
-79.075328
30
0.0
11
-27.252000
21
-79.050148
31
0.0
0
LINE
8
0
6
CONTINUOUS
10
-28.302000
20
-78.330078
30
0.0
11
-28.302000
21
-79.075328
31
0.0
0
LINE
8
0
6
CONTINUOUS
10
-67.633300
20
-79.474111
30
0.0
11
-66.583300
21
-79.474111
31
0.0
0
LINE
8
0
6
CONTINUOUS
10
-68.083300
20
-79.474111
30
0.0
11
-67.633300
21
-79.474111
31
0.0
0
LINE
8
0
6
CONTINUOUS
10
-68.083300
20
-78.315899
30
0.0
11
-68.083300
21
-79.474111
31
0.0
0
LINE
8
0
6
CONTINUOUS
10
-66.583300
20
-79.474111
30
0.0
11
-67.633300
21
-79.474111
31
0.0
0
LINE
8
0
6
CONTINUOUS
10
-68.083300
20
-79.474111
30
0.0
11
-68.083300
21
-78.328706
31
0.0
0
LINE
8
0
6
CONTINUOUS
10
-67.633300
20
-79.474111
30
0.0
11
-68.083300
21
-79.474111
31
0.0
0
LINE
8
0
6
CONTINUOUS
10
-67.487400
20
-79.172525
30
0.0
11
-66.437400
21
-79.172525
31
0.0
0
LINE
8
0
6
CONTINUOUS
10
-67.937400
20
-79.172525
30
0.0
11
-67.487400
21
-79.172525
31
0.0
0
LINE
8
0
6
CONTINUOUS
10
-67.937400
20
-78.306837
30
0.0
11
-67.937400
21
-79.172525
31
0.0
0
LINE
8
0
6
CONTINUOUS
10
-66.437400
20
-79.172525
30
0.0
11
-67.487400
21
-79.172525
31
0.0
0
LINE
8
0
6
CONTINUOUS
10
-67.937400
20
-79.172525
30
0.0
11
-67.937400
21
-78.336811
31
0.0
0
LINE
8
0
6
CONTINUOUS
10
-67.487400
20
-79.172525
30
0.0
11
-67.937400
21
-79.172525
31
0.0
0
LINE
8
0
6
CONTINUOUS
10
-67.419300
20
-78.921203
30
0.0
11
-66.369300
21
-78.921203
31
0.0
0
LINE
8
0
6
CONTINUOUS
10
-67.869300
20
-78.921203
30
0.0
11
-67.419300
21
-78.921203
31
0.0
0
LINE
8
0
6
CONTINUOUS
10
-67.869300
20
-78.257370
30
0.0
11
-67.869300
21
-78.921203
31
0.0
0
LINE
8
0
6
CONTINUOUS
10
-66.369300
20
-78.921203
30
0.0
11
-66.369300
21
-78.332947
31
0.0
0
LINE
8
0
6
CONTINUOUS
10
-67.419300
20
-78.921203
30
0.0
11
-67.419300
21
-78.277671
31
0.0
0
LINE
8
0
6
CONTINUOUS
10
-66.369300
20
-78.921203
30
0.0
11
-67.419300
21
-78.921203
31
0.0
0
LINE
8
0
6
CONTINUOUS
10
-66.369300
20
-78.332947
30
0.0
11
-66.369300
21
-78.921203
31
0.0
0
LINE
8
0
6
CONTINUOUS
10
-67.869300
20
-78.921203
30
0.0
11
-67.869300
21
-78.257370
31
0.0
0
LINE
8
0
6
CONTINUOUS
10
-67.419300
20
-78.921203
30
0.0
11
-67.869300
21
-78.921203
31
0.0
0
LINE
8
0
6
CONTINUOUS
10
-67.419300
20
-78.277671
30
0.0
11
-67.419300
21
-78.921203
31
0.0
0
LINE
8
0
6
CONTINUOUS
10
-63.569500
20
-79.494713
30
0.0
11
-63.119500
21
-79.494713
31
0.0
0
LINE
8
0
6
CONTINUOUS
10
-64.619500
20
-79.494713
30
0.0
11
-63.569500
21
-79.494713
31
0.0
0
LINE
8
0
6
CONTINUOUS
10
-65.669500
20
-79.494713
30
0.0
11
-64.619500
21
-79.494713
31
0.0
0
LINE
8
0
6
CONTINUOUS
10
-66.119500
20
-79.494713
30
0.0
11
-65.669500
21
-79.494713
31
0.0
0
LINE
8
0
6
CONTINUOUS
10
-66.119500
20
-78.272588
30
0.0
11
-66.119500
21
-79.494713
31
0.0
0
LINE
8
0
6
CONTINUOUS
10
-63.119500
20
-79.494713
30
0.0
11
-63.119500
21
-78.564845
31
0.0
0
LINE
8
0
6
CONTINUOUS
10
-63.569500
20
-79.494713
30
0.0
11
-63.569500
21
-78.549328
31
0.0
0
LINE
8
0
6
CONTINUOUS
10
-63.119500
20
-79.494713
30
0.0
11
-63.569500
21
-79.494713
31
0.0
0
LINE
8
0
6
CONTINUOUS
10
-63.119500
20
-78.564845
30
0.0
11
-63.119500
21
-79.494713
31
0.0
0
LINE
8
0
6
CONTINUOUS
10
-64.619500
20
-79.494713
30
0.0
11
-64.619500
21
-78.513121
31
0.0
0
LINE
8
0
6
CONTINUOUS
10
-63.569500
20
-79.494713
30
0.0
11
-64.619500
21
-79.494713
31
0.0
0
LINE
8
0
6
CONTINUOUS
10
-63.569500
20
-78.549328
30
0.0
11
-63.569500
21
-79.494713
31
0.0
0
LINE
8
0
6
CONTINUOUS
10
-65.669500
20
-79.494713
30
0.0
11
-65.669500
21
-78.282919
31
0.0
0
LINE
8
0
6
CONTINUOUS
10
-64.619500
20
-79.494713
30
0.0
11
-65.669500
21
-79.494713
31
0.0
0
LINE
8
0
6
CONTINUOUS
10
-64.619500
20
-78.513121
30
0.0
11
-64.619500
21
-79.494713
31
0.0
0
LINE
8
0
6
CONTINUOUS
10
-66.119500
20
-79.494713
30
0.0
11
-66.119500
21
-78.272588
31
0.0
0
LINE
8
0
6
CONTINUOUS
10
-65.669500
20
-79.494713
30
0.0
11
-66.119500
21
-79.494713
31
0.0
0
LINE
8
0
6
CONTINUOUS
10
-65.669500
20
-78.282919
30
0.0
11
-65.669500
21
-79.494713
31
0.0
0
LINE
8
0
6
CONTINUOUS
10
-82.488700
20
-77.505186
30
0.0
11
-82.488700
21
-78.780127
31
0.0
0
LINE
8
0
6
CONTINUOUS
10
-82.488700
20
-78.780127
30
0.0
11
-82.488700
21
-77.528406
31
0.0
0
LINE
8
0
6
CONTINUOUS
10
-79.841900
20
-78.931140
30
0.0
11
-79.391900
21
-78.931140
31
0.0
0
LINE
8
0
6
CONTINUOUS
10
-80.891900
20
-78.931140
30
0.0
11
-79.841900
21
-78.931140
31
0.0
0
LINE
8
0
6
CONTINUOUS
10
-81.941900
20
-78.931140
30
0.0
11
-80.891900
21
-78.931140
31
0.0
0
LINE
8
0
6
CONTINUOUS
10
-82.391900
20
-78.931140
30
0.0
11
-81.941900
21
-78.931140
31
0.0
0
LINE
8
0
6
CONTINUOUS
10
-82.391900
20
-77.485971
30
0.0
11
-82.391900
21
-78.931140
31
0.0
0
LINE
8
0
6
CONTINUOUS
10
-79.391900
20
-78.931140
30
0.0
11
-79.841900
21
-78.931140
31
0.0
0
LINE
8
0
6
CONTINUOUS
10
-79.841900
20
-78.931140
30
0.0
11
-80.891900
21
-78.931140
31
0.0
0
LINE
8
0
6
CONTINUOUS
10
-80.891900
20
-78.931140
30
0.0
11
-81.941900
21
-78.931140
31
0.0
0
LINE
8
0
6
CONTINUOUS
10
-82.391900
20
-78.931140
30
0.0
11
-82.391900
21
-77.485971
31
0.0
0
LINE
8
0
6
CONTINUOUS
10
-81.941900
20
-78.931140
30
0.0
11
-82.391900
21
-78.931140
31
0.0
0
LINE
8
0
6
CONTINUOUS
10
-81.815000
20
-78.844403
30
0.0
11
-82.265000
21
-78.816650
31
0.0
0
LINE
8
0
6
CONTINUOUS
10
-80.765000
20
-78.856297
30
0.0
11
-81.815000
21
-78.844403
31
0.0
0
LINE
8
0
6
CONTINUOUS
10
-79.715000
20
-78.844403
30
0.0
11
-80.765000
21
-78.856297
31
0.0
0
LINE
8
0
6
CONTINUOUS
10
-79.265000
20
-78.816650
30
0.0
11
-79.715000
21
-78.844403
31
0.0
0
LINE
8
0
6
CONTINUOUS
10
-81.815000
20
-78.788897
30
0.0
11
-80.765000
21
-78.777003
31
0.0
0
LINE
8
0
6
CONTINUOUS
10
-82.265000
20
-78.816650
30
0.0
11
-81.815000
21
-78.788897
31
0.0
0
LINE
8
0
6
CONTINUOUS
10
-82.265000
20
-78.816650
30
0.0
11
-81.815000
21
-78.844403
31
0.0
0
LINE
8
0
6
CONTINUOUS
10
-82.265000
20
-77.377113
30
0.0
11
-82.265000
21
-78.816650
31
0.0
0
LINE
8
0
6
CONTINUOUS
10
-81.815000
20
-78.844403
30
0.0
11
-80.765000
21
-78.856297
31
0.0
0
LINE
8
0
6
CONTINUOUS
10
-80.765000
20
-78.856297
30
0.0
11
-79.715000
21
-78.844403
31
0.0
0
LINE
8
0
6
CONTINUOUS
10
-79.715000
20
-78.844403
30
0.0
11
-79.265000
21
-78.816650
31
0.0
0
LINE
8
0
6
CONTINUOUS
10
-81.815000
20
-78.788897
30
0.0
11
-81.815000
21
-77.422780
31
0.0
0
LINE
8
0
6
CONTINUOUS
10
-80.765000
20
-78.777003
30
0.0
11
-81.815000
21
-78.788897
31
0.0
0
LINE
8
0
6
CONTINUOUS
10
-82.265000
20
-78.816650
30
0.0
11
-82.265000
21
-77.377113
31
0.0
0
LINE
8
0
6
CONTINUOUS
10
-81.815000
20
-78.788897
30
0.0
11
-82.265000
21
-78.816650
31
0.0
0
LINE
8
0
6
CONTINUOUS
10
-81.815000
20
-77.422780
30
0.0
11
-81.815000
21
-78.788897
31
0.0
0
LINE
8
0
6
CONTINUOUS
10
-80.959000
20
-78.796144
30
0.0
11
-81.409000
21
-78.737391
31
0.0
0
LINE
8
0
6
CONTINUOUS
10
-79.909000
20
-78.821324
30
0.0
11
-80.959000
21
-78.796144
31
0.0
0
LINE
8
0
6
CONTINUOUS
10
-78.859000
20
-78.796144
30
0.0
11
-79.909000
21
-78.821324
31
0.0
0
LINE
8
0
6
CONTINUOUS
10
-78.409000
20
-78.737391
30
0.0
11
-78.859000
21
-78.796144
31
0.0
0
LINE
8
0
6
CONTINUOUS
10
-78.859000
20
-78.678637
30
0.0
11
-78.409000
21
-78.737391
31
0.0
0
LINE
8
0
6
CONTINUOUS
10
-79.909000
20
-78.653457
30
0.0
11
-78.859000
21
-78.678637
31
0.0
0
LINE
8
0
6
CONTINUOUS
10
-80.959000
20
-78.678637
30
0.0
11
-79.909000
21
-78.653457
31
0.0
0
LINE
8
0
6
CONTINUOUS
10
-81.409000
20
-78.737391
30
0.0
11
-80.959000
21
-78.678637
31
0.0
0
LINE
8
0
6
CONTINUOUS
10
-81.409000
20
-78.737391
30
0.0
11
-80.959000
21
-78.796144
31
0.0
0
LINE
8
0
6
CONTINUOUS
10
-81.409000
20
-77.325260
30
0.0
11
-81.409000
21
-78.737391
31
0.0
0
LINE
8
0
6
CONTINUOUS
10
-80.959000
20
-78.796144
30
0.0
11
-79.909000
21
-78.821324
31
0.0
0
LINE
8
0
6
CONTINUOUS
10
-79.909000
20
-78.821324
30
0.0
11
-78.859000
21
-78.796144
31
0.0
0
LINE
8
0
6
CONTINUOUS
10
-78.409000
20
-78.737391
30
0.0
11
-78.409000
21
-77.576677
31
0.0
0
LINE
8
0
6
CONTINUOUS
10
-78.859000
20
-78.796144
30
0.0
11
-78.409000
21
-78.737391
31
0.0
0
LINE
8
0
6
CONTINUOUS
10
-78.859000
20
-78.678637
30
0.0
11
-78.859000
21
-77.544959
31
0.0
0
LINE
8
0
6
CONTINUOUS
10
-78.409000
20
-78.737391
30
0.0
11
-78.859000
21
-78.678637
31
0.0
0
LINE
8
0
6
CONTINUOUS
10
-78.409000
20
-77.576677
30
0.0
11
-78.409000
21
-78.737391
31
0.0
0
LINE
8
0
6
CONTINUOUS
10
-79.909000
20
-78.653457
30
0.0
11
-79.909000
21
-77.472160
31
0.0
0
LINE
8
0
6
CONTINUOUS
10
-78.859000
20
-78.678637
30
0.0
11
-79.909000
21
-78.653457
31
0.0
0
LINE
8
0
6
CONTINUOUS
10
-78.859000
20
-77.544959
30
0.0
11
-78.859000
21
-78.678637
31
0.0
0
LINE
8
0
6
CONTINUOUS
10
-80.959000
20
-78.678637
30
0.0
11
-80.959000
21
-77.360061
31
0.0
0
LINE
8
0
6
CONTINUOUS
10
-79.909000
20
-78.653457
30
0.0
11
-80.959000
21
-78.678637
31
0.0
0
LINE
8
0
6
CONTINUOUS
10
-79.909000
20
-77.472160
30
0.0
11
-79.909000
21
-78.653457
31
0.0
0
LINE
8
0
6
CONTINUOUS
10
-81.409000
20
-78.737391
30
0.0
11
-81.409000
21
-77.325260
31
0.0
0
LINE
8
0
6
CONTINUOUS
10
-80.959000
20
-78.678637
30
0.0
11
-81.409000
21
-78.737391
31
0.0
0
LINE
8
0
6
CONTINUOUS
10
-80.959000
20
-77.360061
30
0.0
11
-80.959000
21
-78.678637
31
0.0
0
LINE
8
0
6
CONTINUOUS
10
-62.770600
20
-78.379300
30
0.0
11
-63.820600
21
-78.328340
31
0.0
0
LINE
8
0
6
CONTINUOUS
10
-62.320600
20
-78.498200
30
0.0
11
-62.770600
21
-78.379300
31
0.0
0
LINE
8
0
6
CONTINUOUS
10
-62.770600
20
-78.617097
30
0.0
11
-62.320600
21
-78.498200
31
0.0
0
LINE
8
0
6
CONTINUOUS
10
-63.820600
20
-78.668054
30
0.0
11
-62.770600
21
-78.617097
31
0.0
0
LINE
8
0
6
CONTINUOUS
10
-64.870600
20
-78.617097
30
0.0
11
-63.820600
21
-78.668054
31
0.0
0
LINE
8
0
6
CONTINUOUS
10
-65.320600
20
-78.498200
30
0.0
11
-64.870600
21
-78.617097
31
0.0
0
LINE
8
0
6
CONTINUOUS
10
-64.870600
20
-78.379300
30
0.0
11
-65.320600
21
-78.498200
31
0.0
0
LINE
8
0
6
CONTINUOUS
10
-63.820600
20
-78.328340
30
0.0
11
-64.870600
21
-78.379300
31
0.0
0
LINE
8
0
6
CONTINUOUS
10
-62.770600
20
-78.379300
30
0.0
11
-62.770600
21
-77.404585
31
0.0
0
LINE
8
0
6
CONTINUOUS
10
-63.820600
20
-78.328340
30
0.0
11
-62.770600
21
-78.379300
31
0.0
0
LINE
8
0
6
CONTINUOUS
10
-63.820600
20
-77.337599
30
0.0
11
-63.820600
21
-78.328340
31
0.0
0
LINE
8
0
6
CONTINUOUS
10
-62.320600
20
-78.498200
30
0.0
11
-62.320600
21
-77.515537
31
0.0
0
LINE
8
0
6
CONTINUOUS
10
-62.770600
20
-78.379300
30
0.0
11
-62.320600
21
-78.498200
31
0.0
0
LINE
8
0
6
CONTINUOUS
10
-62.770600
20
-77.404585
30
0.0
11
-62.770600
21
-78.379300
31
0.0
0
LINE
8
0
6
CONTINUOUS
10
-62.320600
20
-78.498200
30
0.0
11
-62.770600
21
-78.617097
31
0.0
0
LINE
8
0
6
CONTINUOUS
10
-62.320600
20
-77.515537
30
0.0
11
-62.320600
21
-78.498200
31
0.0
0
LINE
8
0
6
CONTINUOUS
10
-62.770600
20
-78.617097
30
0.0
11
-63.820600
21
-78.668054
31
0.0
0
LINE
8
0
6
CONTINUOUS
10
-63.820600
20
-78.668054
30
0.0
11
-64.870600
21
-78.617097
31
0.0
0
LINE
8
0
6
CONTINUOUS
10
-65.320600
20
-78.498200
30
0.0
11
-65.320600
21
-77.482982
31
0.0
0
LINE
8
0
6
CONTINUOUS
10
-64.870600
20
-78.617097
30
0.0
11
-65.320600
21
-78.498200
31
0.0
0
LINE
8
0
6
CONTINUOUS
10
-64.870600
20
-78.379300
30
0.0
11
-64.870600
21
-77.371456
31
0.0
0
LINE
8
0
6
CONTINUOUS
10
-65.320600
20
-78.498200
30
0.0
11
-64.870600
21
-78.379300
31
0.0
0
LINE
8
0
6
CONTINUOUS
10
-65.320600
20
-77.482982
30
0.0
11
-65.320600
21
-78.482189
31
0.0
0
LINE
8
0
6
CONTINUOUS
10
-63.820600
20
-78.328340
30
0.0
11
-63.820600
21
-77.337599
31
0.0
0
LINE
8
0
6
CONTINUOUS
10
-64.870600
20
-78.379300
30
0.0
11
-63.820600
21
-78.328340
31
0.0
0
LINE
8
0
6
CONTINUOUS
10
-64.870600
20
-77.371456
30
0.0
11
-64.870600
21
-78.379300
31
0.0
0
LINE
8
0
6
CONTINUOUS
10
-58.510400
20
-77.047740
30
0.0
11
-59.560400
21
-76.987440
31
0.0
0
LINE
8
0
6
CONTINUOUS
10
-58.060400
20
-77.188440
30
0.0
11
-58.510400
21
-77.047740
31
0.0
0
LINE
8
0
6
CONTINUOUS
10
-58.510400
20
-77.329140
30
0.0
11
-58.060400
21
-77.188440
31
0.0
0
LINE
8
0
6
CONTINUOUS
10
-59.560400
20
-77.389440
30
0.0
11
-58.510400
21
-77.329140
31
0.0
0
LINE
8
0
6
CONTINUOUS
10
-60.610400
20
-77.329140
30
0.0
11
-59.560400
21
-77.389440
31
0.0
0
LINE
8
0
6
CONTINUOUS
10
-61.060400
20
-77.188440
30
0.0
11
-60.610400
21
-77.329140
31
0.0
0
LINE
8
0
6
CONTINUOUS
10
-60.610400
20
-77.047740
30
0.0
11
-61.060400
21
-77.188440
31
0.0
0
LINE
8
0
6
CONTINUOUS
10
-59.560400
20
-76.987440
30
0.0
11
-60.610400
21
-77.047740
31
0.0
0
LINE
8
0
6
CONTINUOUS
10
-58.510400
20
-77.047740
30
0.0
11
-58.510400
21
-75.761283
31
0.0
0
LINE
8
0
6
CONTINUOUS
10
-59.560400
20
-76.987440
30
0.0
11
-58.510400
21
-77.047740
31
0.0
0
LINE
8
0
6
CONTINUOUS
10
-59.560400
20
-75.697471
30
0.0
11
-59.560400
21
-76.987440
31
0.0
0
LINE
8
0
6
CONTINUOUS
10
-58.060400
20
-77.188440
30
0.0
11
-58.060400
21
-75.892717
31
0.0
0
LINE
8
0
6
CONTINUOUS
10
-58.510400
20
-77.047740
30
0.0
11
-58.060400
21
-77.188440
31
0.0
0
LINE
8
0
6
CONTINUOUS
10
-58.510400
20
-75.761283
30
0.0
11
-58.510400
21
-77.047740
31
0.0
0
LINE
8
0
6
CONTINUOUS
10
-58.060400
20
-77.188440
30
0.0
11
-58.510400
21
-77.329140
31
0.0
0
LINE
8
0
6
CONTINUOUS
10
-58.060400
20
-75.892717
30
0.0
11
-58.060400
21
-77.188440
31
0.0
0
LINE
8
0
6
CONTINUOUS
10
-58.510400
20
-77.329140
30
0.0
11
-59.560400
21
-77.389440
31
0.0
0
LINE
8
0
6
CONTINUOUS
10
-59.560400
20
-77.389440
30
0.0
11
-60.610400
21
-77.329140
31
0.0
0
LINE
8
0
6
CONTINUOUS
10
-61.060400
20
-77.188440
30
0.0
11
-61.060400
21
-75.866465
31
0.0
0
LINE
8
0
6
CONTINUOUS
10
-60.610400
20
-77.329140
30
0.0
11
-61.060400
21
-77.188440
31
0.0
0
LINE
8
0
6
CONTINUOUS
10
-60.610400
20
-77.047740
30
0.0
11
-60.610400
21
-75.742907
31
0.0
0
LINE
8
0
6
CONTINUOUS
10
-61.060400
20
-77.188440
30
0.0
11
-60.610400
21
-77.047740
31
0.0
0
LINE
8
0
6
CONTINUOUS
10
-61.060400
20
-75.866465
30
0.0
11
-61.060400
21
-77.188440
31
0.0
0
LINE
8
0
6
CONTINUOUS
10
-59.560400
20
-76.987440
30
0.0
11
-59.560400
21
-75.697471
31
0.0
0
LINE
8
0
6
CONTINUOUS
10
-60.610400
20
-77.047740
30
0.0
11
-59.560400
21
-76.987440
31
0.0
0
LINE
8
0
6
CONTINUOUS
10
-60.610400
20
-75.742907
30
0.0
11
-60.610400
21
-77.047740
31
0.0
0
LINE
8
0
6
CONTINUOUS
10
-73.934000
20
-78.720148
30
0.0
11
-74.984000
21
-78.684152
31
0.0
0
LINE
8
0
6
CONTINUOUS
10
-73.484000
20
-78.804137
30
0.0
11
-73.934000
21
-78.720148
31
0.0
0
LINE
8
0
6
CONTINUOUS
10
-73.934000
20
-78.888127
30
0.0
11
-73.484000
21
-78.804137
31
0.0
0
LINE
8
0
6
CONTINUOUS
10
-74.984000
20
-78.924123
30
0.0
11
-73.934000
21
-78.888127
31
0.0
0
LINE
8
0
6
CONTINUOUS
10
-76.034000
20
-78.888127
30
0.0
11
-74.984000
21
-78.924123
31
0.0
0
LINE
8
0
6
CONTINUOUS
10
-76.484000
20
-78.804137
30
0.0
11
-76.034000
21
-78.888127
31
0.0
0
LINE
8
0
6
CONTINUOUS
10
-76.034000
20
-78.720148
30
0.0
11
-76.484000
21
-78.804137
31
0.0
0
LINE
8
0
6
CONTINUOUS
10
-74.984000
20
-78.684152
30
0.0
11
-76.034000
21
-78.720148
31
0.0
0
LINE
8
0
6
CONTINUOUS
10
-73.934000
20
-78.720148
30
0.0
11
-73.934000
21
-77.486206
31
0.0
0
LINE
8
0
6
CONTINUOUS
10
-74.984000
20
-78.684152
30
0.0
11
-73.934000
21
-78.720148
31
0.0
0
LINE
8
0
6
CONTINUOUS
10
-74.984000
20
-77.389214
30
0.0
11
-74.984000
21
-78.684152
31
0.0
0
LINE
8
0
6
CONTINUOUS
10
-73.484000
20
-78.804137
30
0.0
11
-73.484000
21
-77.542310
31
0.0
0
LINE
8
0
6
CONTINUOUS
10
-73.934000
20
-78.720148
30
0.0
11
-73.484000
21
-78.804137
31
0.0
0
LINE
8
0
6
CONTINUOUS
10
-73.934000
20
-77.486206
30
0.0
11
-73.934000
21
-78.720148
31
0.0
0
LINE
8
0
6
CONTINUOUS
10
-73.484000
20
-78.804137
30
0.0
11
-73.934000
21
-78.888127
31
0.0
0
LINE
8
0
6
CONTINUOUS
10
-73.484000
20
-77.542310
30
0.0
11
-73.484000
21
-78.804137
31
0.0
0
LINE
8
0
6
CONTINUOUS
10
-73.934000
20
-78.888127
30
0.0
11
-74.984000
21
-78.924123
31
0.0
0
LINE
8
0
6
CONTINUOUS
10
-74.984000
20
-78.924123
30
0.0
11
-76.034000
21
-78.888127
31
0.0
0
LINE
8
0
6
CONTINUOUS
10
-76.484000
20
-78.804137
30
0.0
11
-76.484000
21
-77.400786
31
0.0
0
LINE
8
0
6
CONTINUOUS
10
-76.034000
20
-78.888127
30
0.0
11
-76.484000
21
-78.804137
31
0.0
0
LINE
8
0
6
CONTINUOUS
10
-76.034000
20
-78.720148
30
0.0
11
-76.034000
21
-77.362707
31
0.0
0
LINE
8
0
6
CONTINUOUS
10
-76.484000
20
-78.804137
30
0.0
11
-76.034000
21
-78.720148
31
0.0
0
LINE
8
0
6
CONTINUOUS
10
-76.484000
20
-77.400786
30
0.0
11
-76.484000
21
-78.804137
31
0.0
0
LINE
8
0
6
CONTINUOUS
10
-74.984000
20
-78.684152
30
0.0
11
-74.984000
21
-77.389214
31
0.0
0
LINE
8
0
6
CONTINUOUS
10
-76.034000
20
-78.720148
30
0.0
11
-74.984000
21
-78.684152
31
0.0
0
LINE
8
0
6
CONTINUOUS
10
-76.034000
20
-77.362707
30
0.0
11
-76.034000
21
-78.720148
31
0.0
0
LINE
8
0
6
CONTINUOUS
10
-74.090100
20
-76.802130
30
0.0
11
-75.140100
21
-76.741830
31
0.0
0
LINE
8
0
6
CONTINUOUS
10
-73.640100
20
-76.942830
30
0.0
11
-74.090100
21
-76.802130
31
0.0
0
LINE
8
0
6
CONTINUOUS
10
-74.090100
20
-77.083530
30
0.0
11
-73.640100
21
-76.942830
31
0.0
0
LINE
8
0
6
CONTINUOUS
10
-75.140100
20
-77.143830
30
0.0
11
-74.090100
21
-77.083530
31
0.0
0
LINE
8
0
6
CONTINUOUS
10
-76.190100
20
-77.083530
30
0.0
11
-75.140100
21
-77.143830
31
0.0
0
LINE
8
0
6
CONTINUOUS
10
-76.640100
20
-76.942830
30
0.0
11
-76.190100
21
-77.083530
31
0.0
0
LINE
8
0
6
CONTINUOUS
10
-76.190100
20
-76.802130
30
0.0
11
-76.640100
21
-76.942830
31
0.0
0
LINE
8
0
6
CONTINUOUS
10
-75.140100
20
-76.741830
30
0.0
11
-76.190100
21
-76.802130
31
0.0
0
LINE
8
0
6
CONTINUOUS
10
-74.090100
20
-76.802130
30
0.0
11
-74.090100
21
-75.740101
31
0.0
0
LINE
8
0
6
CONTINUOUS
10
-75.140100
20
-76.741830
30
0.0
11
-74.090100
21
-76.802130
31
0.0
0
LINE
8
0
6
CONTINUOUS
10
-75.140100
20
-75.669370
30
0.0
11
-75.140100
21
-76.741830
31
0.0
0
LINE
8
0
6
CONTINUOUS
10
-73.640100
20
-76.942830
30
0.0
11
-73.640100
21
-75.868220
31
0.0
0
LINE
8
0
6
CONTINUOUS
10
-74.090100
20
-76.802130
30
0.0
11
-73.640100
21
-76.942830
31
0.0
0
LINE
8
0
6
CONTINUOUS
10
-74.090100
20
-75.740101
30
0.0
11
-74.090100
21
-76.802130
31
0.0
0
LINE
8
0
6
CONTINUOUS
10
-73.640100
20
-76.942830
30
0.0
11
-74.090100
21
-77.083530
31
0.0
0
LINE
8
0
6
CONTINUOUS
10
-73.640100
20
-75.868220
30
0.0
11
-73.640100
21
-76.942830
31
0.0
0
LINE
8
0
6
CONTINUOUS
10
-74.090100
20
-77.083530
30
0.0
11
-75.140100
21
-77.143830
31
0.0
0
LINE
8
0
6
CONTINUOUS
10
-75.140100
20
-77.143830
30
0.0
11
-76.190100
21
-77.083530
31
0.0
0
LINE
8
0
6
CONTINUOUS
10
-76.640100
20
-76.942830
30
0.0
11
-76.640100
21
-75.812952
31
0.0
0
LINE
8
0
6
CONTINUOUS
10
-76.190100
20
-77.083530
30
0.0
11
-76.640100
21
-76.942830
31
0.0
0
LINE
8
0
6
CONTINUOUS
10
-76.190100
20
-76.802130
30
0.0
11
-76.190100
21
-75.701414
31
0.0
0
LINE
8
0
6
CONTINUOUS
10
-76.640100
20
-76.942830
30
0.0
11
-76.190100
21
-76.802130
31
0.0
0
LINE
8
0
6
CONTINUOUS
10
-76.640100
20
-75.812952
30
0.0
11
-76.640100
21
-76.942830
31
0.0
0
LINE
8
0
6
CONTINUOUS
10
-75.140100
20
-76.741830
30
0.0
11
-75.140100
21
-75.669370
31
0.0
0
LINE
8
0
6
CONTINUOUS
10
-76.190100
20
-76.802130
30
0.0
11
-75.140100
21
-76.741830
31
0.0
0
LINE
8
0
6
CONTINUOUS
10
-76.190100
20
-75.701414
30
0.0
11
-76.190100
21
-76.802130
31
0.0
0
LINE
8
0
6
CONTINUOUS
10
-50.387400
20
-79.956882
30
0.0
11
-49.937400
21
-79.956882
31
0.0
0
LINE
8
0
6
CONTINUOUS
10
-49.937400
20
-79.956882
30
0.0
11
-49.937400
21
-79.019400
31
0.0
0
LINE
8
0
6
CONTINUOUS
10
-49.937400
20
-79.956882
30
0.0
11
-50.387400
21
-79.956882
31
0.0
0
LINE
8
0
6
CONTINUOUS
10
-49.937400
20
-79.008224
30
0.0
11
-49.937400
21
-79.956882
31
0.0
0
LINE
8
0
6
CONTINUOUS
10
-53.520700
20
-79.775989
30
0.0
11
-53.070700
21
-79.775989
31
0.0
0
LINE
8
0
6
CONTINUOUS
10
-53.520700
20
-79.775989
30
0.0
11
-53.520700
21
-78.895838
31
0.0
0
LINE
8
0
6
CONTINUOUS
10
-53.070700
20
-79.775989
30
0.0
11
-53.520700
21
-79.775989
31
0.0
0
LINE
8
0
6
CONTINUOUS
10
-50.679100
20
-79.947092
30
0.0
11
-50.229100
21
-79.947092
31
0.0
0
LINE
8
0
6
CONTINUOUS
10
-51.729100
20
-79.947092
30
0.0
11
-50.679100
21
-79.947092
31
0.0
0
LINE
8
0
6
CONTINUOUS
10
-52.779100
20
-79.947092
30
0.0
11
-51.729100
21
-79.947092
31
0.0
0
LINE
8
0
6
CONTINUOUS
10
-53.229100
20
-79.947092
30
0.0
11
-52.779100
21
-79.947092
31
0.0
0
LINE
8
0
6
CONTINUOUS
10
-53.229100
20
-78.905893
30
0.0
11
-53.229100
21
-79.947092
31
0.0
0
LINE
8
0
6
CONTINUOUS
10
-50.229100
20
-79.947092
30
0.0
11
-50.229100
21
-78.917469
31
0.0
0
LINE
8
0
6
CONTINUOUS
10
-50.679100
20
-79.947092
30
0.0
11
-50.679100
21
-78.896257
31
0.0
0
LINE
8
0
6
CONTINUOUS
10
-50.229100
20
-79.947092
30
0.0
11
-50.679100
21
-79.947092
31
0.0
0
LINE
8
0
6
CONTINUOUS
10
-50.229100
20
-78.917469
30
0.0
11
-50.229100
21
-79.947092
31
0.0
0
LINE
8
0
6
CONTINUOUS
10
-51.729100
20
-79.947092
30
0.0
11
-51.729100
21
-78.957617
31
0.0
0
LINE
8
0
6
CONTINUOUS
10
-50.679100
20
-79.947092
30
0.0
11
-51.729100
21
-79.947092
31
0.0
0
LINE
8
0
6
CONTINUOUS
10
-50.679100
20
-78.896257
30
0.0
11
-50.679100
21
-79.947092
31
0.0
0
LINE
8
0
6
CONTINUOUS
10
-52.779100
20
-79.947092
30
0.0
11
-52.779100
21
-78.921410
31
0.0
0
LINE
8
0
6
CONTINUOUS
10
-51.729100
20
-79.947092
30
0.0
11
-52.779100
21
-79.947092
31
0.0
0
LINE
8
0
6
CONTINUOUS
10
-51.729100
20
-78.957617
30
0.0
11
-51.729100
21
-79.947092
31
0.0
0
LINE
8
0
6
CONTINUOUS
10
-53.229100
20
-79.947092
30
0.0
11
-53.229100
21
-78.905893
31
0.0
0
LINE
8
0
6
CONTINUOUS
10
-52.779100
20
-79.947092
30
0.0
11
-53.229100
21
-79.947092
31
0.0
0
LINE
8
0
6
CONTINUOUS
10
-52.779100
20
-78.921410
30
0.0
11
-52.779100
21
-79.947092
31
0.0
0
LINE
8
0
6
CONTINUOUS
10
-52.142600
20
-79.197715
30
0.0
11
-53.192600
21
-79.172535
31
0.0
0
LINE
8
0
6
CONTINUOUS
10
-51.692600
20
-79.256469
30
0.0
11
-52.142600
21
-79.197715
31
0.0
0
LINE
8
0
6
CONTINUOUS
10
-52.142600
20
-79.315223
30
0.0
11
-51.692600
21
-79.256469
31
0.0
0
LINE
8
0
6
CONTINUOUS
10
-53.192600
20
-79.340403
30
0.0
11
-52.142600
21
-79.315223
31
0.0
0
LINE
8
0
6
CONTINUOUS
10
-54.242600
20
-79.315223
30
0.0
11
-53.192600
21
-79.340403
31
0.0
0
LINE
8
0
6
CONTINUOUS
10
-54.692600
20
-79.256469
30
0.0
11
-54.242600
21
-79.315223
31
0.0
0
LINE
8
0
6
CONTINUOUS
10
-54.242600
20
-79.197715
30
0.0
11
-54.692600
21
-79.256469
31
0.0
0
LINE
8
0
6
CONTINUOUS
10
-53.192600
20
-79.172535
30
0.0
11
-54.242600
21
-79.197715
31
0.0
0
LINE
8
0
6
CONTINUOUS
10
-52.142600
20
-79.197715
30
0.0
11
-52.142600
21
-78.345067
31
0.0
0
LINE
8
0
6
CONTINUOUS
10
-53.192600
20
-79.172535
30
0.0
11
-52.142600
21
-79.197715
31
0.0
0
LINE
8
0
6
CONTINUOUS
10
-53.192600
20
-78.313427
30
0.0
11
-53.192600
21
-79.172535
31
0.0
0
LINE
8
0
6
CONTINUOUS
10
-51.692600
20
-79.256469
30
0.0
11
-51.692600
21
-78.402383
31
0.0
0
LINE
8
0
6
CONTINUOUS
10
-52.142600
20
-79.197715
30
0.0
11
-51.692600
21
-79.256469
31
0.0
0
LINE
8
0
6
CONTINUOUS
10
-52.142600
20
-78.345067
30
0.0
11
-52.142600
21
-79.197715
31
0.0
0
LINE
8
0
6
CONTINUOUS
10
-51.692600
20
-79.256469
30
0.0
11
-52.142600
21
-79.315223
31
0.0
0
LINE
8
0
6
CONTINUOUS
10
-51.692600
20
-78.402383
30
0.0
11
-51.692600
21
-79.256469
31
0.0
0
LINE
8
0
6
CONTINUOUS
10
-52.142600
20
-79.315223
30
0.0
11
-53.192600
21
-79.340403
31
0.0
0
LINE
8
0
6
CONTINUOUS
10
-53.192600
20
-79.340403
30
0.0
11
-54.242600
21
-79.315223
31
0.0
0
LINE
8
0
6
CONTINUOUS
10
-54.692600
20
-79.256469
30
0.0
11
-54.692600
21
-78.376039
31
0.0
0
LINE
8
0
6
CONTINUOUS
10
-54.242600
20
-79.315223
30
0.0
11
-54.692600
21
-79.256469
31
0.0
0
LINE
8
0
6
CONTINUOUS
10
-54.242600
20
-79.197715
30
0.0
11
-54.242600
21
-78.327659
31
0.0
0
LINE
8
0
6
CONTINUOUS
10
-54.692600
20
-79.256469
30
0.0
11
-54.242600
21
-79.197715
31
0.0
0
LINE
8
0
6
CONTINUOUS
10
-54.692600
20
-78.376039
30
0.0
11
-54.692600
21
-79.256469
31
0.0
0
LINE
8
0
6
CONTINUOUS
10
-53.192600
20
-79.172535
30
0.0
11
-53.192600
21
-78.313427
31
0.0
0
LINE
8
0
6
CONTINUOUS
10
-54.242600
20
-79.197715
30
0.0
11
-53.192600
21
-79.172535
31
0.0
0
LINE
8
0
6
CONTINUOUS
10
-54.242600
20
-78.327659
30
0.0
11
-54.242600
21
-79.197715
31
0.0
0
LINE
8
0
6
CONTINUOUS
10
-97.170100
20
-76.728490
30
0.0
11
-96.720100
21
-76.728490
31
0.0
0
LINE
8
0
6
CONTINUOUS
10
-97.170100
20
-75.657154
30
0.0
11
-97.170100
21
-76.728490
31
0.0
0
LINE
8
0
6
CONTINUOUS
10
-96.720100
20
-76.728490
30
0.0
11
-96.720100
21
-75.710640
31
0.0
0
LINE
8
0
6
CONTINUOUS
10
-97.170100
20
-76.728490
30
0.0
11
-97.170100
21
-75.657154
31
0.0
0
LINE
8
0
6
CONTINUOUS
10
-96.720100
20
-76.728490
30
0.0
11
-97.170100
21
-76.728490
31
0.0
0
LINE
8
0
6
CONTINUOUS
10
-96.720100
20
-75.710640
30
0.0
11
-96.720100
21
-76.728490
31
0.0
0
LINE
8
0
6
CONTINUOUS
10
-94.950000
20
-77.030080
30
0.0
11
-94.500000
21
-77.030080
31
0.0
0
LINE
8
0
6
CONTINUOUS
10
-96.000000
20
-77.030080
30
0.0
11
-94.950000
21
-77.030080
31
0.0
0
LINE
8
0
6
CONTINUOUS
10
-97.050000
20
-77.030080
30
0.0
11
-96.000000
21
-77.030080
31
0.0
0
LINE
8
0
6
CONTINUOUS
10
-97.500000
20
-77.030080
30
0.0
11
-97.050000
21
-77.030080
31
0.0
0
LINE
8
0
6
CONTINUOUS
10
-97.500000
20
-75.653410
30
0.0
11
-97.500000
21
-77.030080
31
0.0
0
LINE
8
0
6
CONTINUOUS
10
-94.500000
20
-77.030080
30
0.0
11
-94.950000
21
-77.030080
31
0.0
0
LINE
8
0
6
CONTINUOUS
10
-94.950000
20
-77.030080
30
0.0
11
-96.000000
21
-77.030080
31
0.0
0
LINE
8
0
6
CONTINUOUS
10
-96.000000
20
-77.030080
30
0.0
11
-97.050000
21
-77.030080
31
0.0
0
LINE
8
0
6
CONTINUOUS
10
-97.500000
20
-77.030080
30
0.0
11
-97.500000
21
-75.687500
31
0.0
0
LINE
8
0
6
CONTINUOUS
10
-97.050000
20
-77.030080
30
0.0
11
-97.500000
21
-77.030080
31
0.0
0
LINE
8
0
6
CONTINUOUS
10
-94.790400
20
-76.959940
30
0.0
11
-93.740400
21
-76.959940
31
0.0
0
LINE
8
0
6
CONTINUOUS
10
-95.840400
20
-76.959940
30
0.0
11
-94.790400
21
-76.959940
31
0.0
0
LINE
8
0
6
CONTINUOUS
10
-96.290400
20
-76.959940
30
0.0
11
-95.840400
21
-76.959940
31
0.0
0
LINE
8
0
6
CONTINUOUS
10
-96.290400
20
-75.689917
30
0.0
11
-96.290400
21
-76.959940
31
0.0
0
LINE
8
0
6
CONTINUOUS
10
-93.740400
20
-76.959940
30
0.0
11
-94.790400
21
-76.959940
31
0.0
0
LINE
8
0
6
CONTINUOUS
10
-95.840400
20
-76.959940
30
0.0
11
-95.840400
21
-75.736847
31
0.0
0
LINE
8
0
6
CONTINUOUS
10
-94.790400
20
-76.959940
30
0.0
11
-95.840400
21
-76.959940
31
0.0
0
LINE
8
0
6
CONTINUOUS
10
-96.290400
20
-76.959940
30
0.0
11
-96.290400
21
-75.689917
31
0.0
0
LINE
8
0
6
CONTINUOUS
10
-95.840400
20
-76.959940
30
0.0
11
-96.290400
21
-76.959940
31
0.0
0
LINE
8
0
6
CONTINUOUS
10
-95.840400
20
-75.736847
30
0.0
11
-95.840400
21
-76.959940
31
0.0
0
LINE
8
0
6
CONTINUOUS
10
-94.820600
20
-76.869640
30
0.0
11
-93.770600
21
-76.869640
31
0.0
0
LINE
8
0
6
CONTINUOUS
10
-95.270600
20
-76.869640
30
0.0
11
-94.820600
21
-76.869640
31
0.0
0
LINE
8
0
6
CONTINUOUS
10
-95.270600
20
-75.697134
30
0.0
11
-95.270600
21
-76.869640
31
0.0
0
LINE
8
0
6
CONTINUOUS
10
-94.820600
20
-76.869640
30
0.0
11
-94.820600
21
-75.742809
31
0.0
0
LINE
8
0
6
CONTINUOUS
10
-93.770600
20
-76.869640
30
0.0
11
-94.820600
21
-76.869640
31
0.0
0
LINE
8
0
6
CONTINUOUS
10
-95.270600
20
-76.869640
30
0.0
11
-95.270600
21
-75.697134
31
0.0
0
LINE
8
0
6
CONTINUOUS
10
-94.820600
20
-76.869640
30
0.0
11
-95.270600
21
-76.869640
31
0.0
0
LINE
8
0
6
CONTINUOUS
10
-94.820600
20
-75.742809
30
0.0
11
-94.820600
21
-76.869640
31
0.0
0
LINE
8
0
6
CONTINUOUS
10
-93.561400
20
-76.998690
30
0.0
11
-94.011400
21
-76.914700
31
0.0
0
LINE
8
0
6
CONTINUOUS
10
-92.511400
20
-77.034690
30
0.0
11
-93.561400
21
-76.998690
31
0.0
0
LINE
8
0
6
CONTINUOUS
10
-91.461400
20
-76.998690
30
0.0
11
-92.511400
21
-77.034690
31
0.0
0
LINE
8
0
6
CONTINUOUS
10
-91.011400
20
-76.914700
30
0.0
11
-91.461400
21
-76.998690
31
0.0
0
LINE
8
0
6
CONTINUOUS
10
-91.461400
20
-76.830710
30
0.0
11
-91.011400
21
-76.914700
31
0.0
0
LINE
8
0
6
CONTINUOUS
10
-92.511400
20
-76.794720
30
0.0
11
-91.461400
21
-76.830710
31
0.0
0
LINE
8
0
6
CONTINUOUS
10
-93.561400
20
-76.830710
30
0.0
11
-92.511400
21
-76.794720
31
0.0
0
LINE
8
0
6
CONTINUOUS
10
-94.011400
20
-76.914700
30
0.0
11
-93.561400
21
-76.830710
31
0.0
0
LINE
8
0
6
CONTINUOUS
10
-94.011400
20
-76.914700
30
0.0
11
-93.561400
21
-76.998690
31
0.0
0
LINE
8
0
6
CONTINUOUS
10
-94.011400
20
-75.668335
30
0.0
11
-94.011400
21
-76.914700
31
0.0
0
LINE
8
0
6
CONTINUOUS
10
-93.561400
20
-76.998690
30
0.0
11
-92.511400
21
-77.034690
31
0.0
0
LINE
8
0
6
CONTINUOUS
10
-92.511400
20
-77.034690
30
0.0
11
-91.461400
21
-76.998690
31
0.0
0
LINE
8
0
6
CONTINUOUS
10
-91.011400
20
-76.914700
30
0.0
11
-91.011400
21
-76.012522
31
0.0
0
LINE
8
0
6
CONTINUOUS
10
-91.461400
20
-76.998690
30
0.0
11
-91.011400
21
-76.914700
31
0.0
0
LINE
8
0
6
CONTINUOUS
10
-91.461400
20
-76.830710
30
0.0
11
-91.461400
21
-75.941203
31
0.0
0
LINE
8
0
6
CONTINUOUS
10
-91.011400
20
-76.914700
30
0.0
11
-91.461400
21
-76.830710
31
0.0
0
LINE
8
0
6
CONTINUOUS
10
-91.011400
20
-76.012522
30
0.0
11
-91.011400
21
-76.914700
31
0.0
0
LINE
8
0
6
CONTINUOUS
10
-92.511400
20
-76.794720
30
0.0
11
-92.511400
21
-75.812294
31
0.0
0
LINE
8
0
6
CONTINUOUS
10
-91.461400
20
-76.830710
30
0.0
11
-92.511400
21
-76.794720
31
0.0
0
LINE
8
0
6
CONTINUOUS
10
-91.461400
20
-75.941203
30
0.0
11
-91.461400
21
-76.830710
31
0.0
0
LINE
8
0
6
CONTINUOUS
10
-93.561400
20
-76.830710
30
0.0
11
-93.561400
21
-75.700273
31
0.0
0
LINE
8
0
6
CONTINUOUS
10
-92.511400
20
-76.794720
30
0.0
11
-93.561400
21
-76.830710
31
0.0
0
LINE
8
0
6
CONTINUOUS
10
-92.511400
20
-75.812294
30
0.0
11
-92.511400
21
-76.794720
31
0.0
0
LINE
8
0
6
CONTINUOUS
10
-94.011400
20
-76.914700
30
0.0
11
-94.011400
21
-75.668335
31
0.0
0
LINE
8
0
6
CONTINUOUS
10
-93.561400
20
-76.830710
30
0.0
11
-94.011400
21
-76.914700
31
0.0
0
LINE
8
0
6
CONTINUOUS
10
-93.561400
20
-75.700273
30
0.0
11
-93.561400
21
-76.830710
31
0.0
0
LINE
8
0
6
CONTINUOUS
10
-86.477400
20
-76.640270
30
0.0
11
-87.527400
21
-76.587280
31
0.0
0
LINE
8
0
6
CONTINUOUS
10
-86.027400
20
-76.763910
30
0.0
11
-86.477400
21
-76.640270
31
0.0
0
LINE
8
0
6
CONTINUOUS
10
-86.477400
20
-76.887550
30
0.0
11
-86.027400
21
-76.763910
31
0.0
0
LINE
8
0
6
CONTINUOUS
10
-87.527400
20
-76.940540
30
0.0
11
-86.477400
21
-76.887550
31
0.0
0
LINE
8
0
6
CONTINUOUS
10
-88.577400
20
-76.887550
30
0.0
11
-87.527400
21
-76.940540
31
0.0
0
LINE
8
0
6
CONTINUOUS
10
-89.027400
20
-76.763910
30
0.0
11
-88.577400
21
-76.887550
31
0.0
0
LINE
8
0
6
CONTINUOUS
10
-88.577400
20
-76.640270
30
0.0
11
-89.027400
21
-76.763910
31
0.0
0
LINE
8
0
6
CONTINUOUS
10
-87.527400
20
-76.587280
30
0.0
11
-88.577400
21
-76.640270
31
0.0
0
LINE
8
0
6
CONTINUOUS
10
-86.477400
20
-76.640270
30
0.0
11
-86.477400
21
-75.794302
31
0.0
0
LINE
8
0
6
CONTINUOUS
10
-87.527400
20
-76.587280
30
0.0
11
-86.477400
21
-76.640270
31
0.0
0
LINE
8
0
6
CONTINUOUS
10
-87.527400
20
-75.697490
30
0.0
11
-87.527400
21
-76.587280
31
0.0
0
LINE
8
0
6
CONTINUOUS
10
-86.027400
20
-76.763910
30
0.0
11
-86.027400
21
-75.902881
31
0.0
0
LINE
8
0
6
CONTINUOUS
10
-86.477400
20
-76.640270
30
0.0
11
-86.027400
21
-76.763910
31
0.0
0
LINE
8
0
6
CONTINUOUS
10
-86.477400
20
-75.794302
30
0.0
11
-86.477400
21
-76.640270
31
0.0
0
LINE
8
0
6
CONTINUOUS
10
-86.027400
20
-76.763910
30
0.0
11
-86.477400
21
-76.887550
31
0.0
0
LINE
8
0
6
CONTINUOUS
10
-86.027400
20
-75.902881
30
0.0
11
-86.027400
21
-76.763910
31
0.0
0
LINE
8
0
6
CONTINUOUS
10
-86.477400
20
-76.887550
30
0.0
11
-87.527400
21
-76.940540
31
0.0
0
LINE
8
0
6
CONTINUOUS
10
-87.527400
20
-76.940540
30
0.0
11
-88.577400
21
-76.887550
31
0.0
0
LINE
8
0
6
CONTINUOUS
10
-89.027400
20
-76.763910
30
0.0
11
-89.027400
21
-75.700797
31
0.0
0
LINE
8
0
6
CONTINUOUS
10
-88.577400
20
-76.887550
30
0.0
11
-89.027400
21
-76.763910
31
0.0
0
LINE
8
0
6
CONTINUOUS
10
-88.577400
20
-76.640270
30
0.0
11
-88.577400
21
-75.681598
31
0.0
0
LINE
8
0
6
CONTINUOUS
10
-89.027400
20
-76.763910
30
0.0
11
-88.577400
21
-76.640270
31
0.0
0
LINE
8
0
6
CONTINUOUS
10
-89.027400
20
-75.700797
30
0.0
11
-89.027400
21
-76.746575
31
0.0
0
LINE
8
0
6
CONTINUOUS
10
-87.527400
20
-76.587280
30
0.0
11
-87.527400
21
-75.697490
31
0.0
0
LINE
8
0
6
CONTINUOUS
10
-88.577400
20
-76.640270
30
0.0
11
-87.527400
21
-76.587280
31
0.0
0
LINE
8
0
6
CONTINUOUS
10
-88.577400
20
-75.671168
30
0.0
11
-88.577400
21
-76.640270
31
0.0
0
LINE
8
0
6
CONTINUOUS
10
-16.242000
20
-79.664837
30
0.0
11
-17.292000
21
-79.652943
31
0.0
0
LINE
8
0
6
CONTINUOUS
10
-15.792000
20
-79.692590
30
0.0
11
-16.242000
21
-79.664837
31
0.0
0
LINE
8
0
6
CONTINUOUS
10
-16.242000
20
-79.720342
30
0.0
11
-15.792000
21
-79.692590
31
0.0
0
LINE
8
0
6
CONTINUOUS
10
-17.292000
20
-79.732236
30
0.0
11
-16.242000
21
-79.720342
31
0.0
0
LINE
8
0
6
CONTINUOUS
10
-18.342000
20
-79.720342
30
0.0
11
-17.292000
21
-79.732236
31
0.0
0
LINE
8
0
6
CONTINUOUS
10
-18.792000
20
-79.692590
30
0.0
11
-18.342000
21
-79.720342
31
0.0
0
LINE
8
0
6
CONTINUOUS
10
-18.342000
20
-79.664837
30
0.0
11
-18.792000
21
-79.692590
31
0.0
0
LINE
8
0
6
CONTINUOUS
10
-17.292000
20
-79.652943
30
0.0
11
-18.342000
21
-79.664837
31
0.0
0
LINE
8
0
6
CONTINUOUS
10
-16.242000
20
-79.664837
30
0.0
11
-16.242000
21
-78.989616
31
0.0
0
LINE
8
0
6
CONTINUOUS
10
-17.292000
20
-79.652943
30
0.0
11
-16.242000
21
-79.664837
31
0.0
0
LINE
8
0
6
CONTINUOUS
10
-17.292000
20
-78.973380
30
0.0
11
-17.292000
21
-79.652943
31
0.0
0
LINE
8
0
6
CONTINUOUS
10
-15.792000
20
-79.692590
30
0.0
11
-15.792000
21
-79.026117
31
0.0
0
LINE
8
0
6
CONTINUOUS
10
-16.242000
20
-79.664837
30
0.0
11
-15.792000
21
-79.692590
31
0.0
0
LINE
8
0
6
CONTINUOUS
10
-16.242000
20
-78.989616
30
0.0
11
-16.242000
21
-79.664837
31
0.0
0
LINE
8
0
6
CONTINUOUS
10
-15.792000
20
-79.692590
30
0.0
11
-16.242000
21
-79.720342
31
0.0
0
LINE
8
0
6
CONTINUOUS
10
-15.792000
20
-79.026117
30
0.0
11
-15.792000
21
-79.692590
31
0.0
0
LINE
8
0
6
CONTINUOUS
10
-16.242000
20
-79.720342
30
0.0
11
-17.292000
21
-79.732236
31
0.0
0
LINE
8
0
6
CONTINUOUS
10
-17.292000
20
-79.732236
30
0.0
11
-18.342000
21
-79.720342
31
0.0
0
LINE
8
0
6
CONTINUOUS
10
-18.792000
20
-79.692590
30
0.0
11
-18.792000
21
-79.023965
31
0.0
0
LINE
8
0
6
CONTINUOUS
10
-18.342000
20
-79.720342
30
0.0
11
-18.792000
21
-79.692590
31
0.0
0
LINE
8
0
6
CONTINUOUS
10
-18.342000
20
-79.664837
30
0.0
11
-18.342000
21
-78.988109
31
0.0
0
LINE
8
0
6
CONTINUOUS
10
-18.792000
20
-79.692590
30
0.0
11
-18.342000
21
-79.664837
31
0.0
0
LINE
8
0
6
CONTINUOUS
10
-18.792000
20
-79.023965
30
0.0
11
-18.792000
21
-79.692590
31
0.0
0
LINE
8
0
6
CONTINUOUS
10
-17.292000
20
-79.652943
30
0.0
11
-17.292000
21
-78.973380
31
0.0
0
LINE
8
0
6
CONTINUOUS
10
-18.342000
20
-79.664837
30
0.0
11
-17.292000
21
-79.652943
31
0.0
0
LINE
8
0
6
CONTINUOUS
10
-18.342000
20
-78.988109
30
0.0
11
-18.342000
21
-79.664837
31
0.0
0
LINE
8
0
6
CONTINUOUS
10
10.000000
20
-80.500000
30
0.0
11
9.640000
21
-80.500000
31
0.0
0
LINE
8
0
6
CONTINUOUS
10
9.640000
20
-80.500000
30
0.0
11
8.680000
21
-80.500000
31
0.0
0
LINE
8
0
6
CONTINUOUS
10
8.680000
20
-80.500000
30
0.0
11
7.080000
21
-80.500000
31
0.0
0
LINE
8
0
6
CONTINUOUS
10
7.080000
20
-80.500000
30
0.0
11
4.960000
21
-80.500000
31
0.0
0
LINE
8
0
6
CONTINUOUS
10
4.960000
20
-80.500000
30
0.0
11
2.560000
21
-80.500000
31
0.0
0
LINE
8
0
6
CONTINUOUS
10
10.000000
20
-80.500000
30
0.0
11
10.000000
21
-79.500000
31
0.0
0
LINE
8
0
6
CONTINUOUS
10
9.640000
20
-80.500000
30
0.0
11
10.000000
21
-80.500000
31
0.0
0
LINE
8
0
6
CONTINUOUS
10
8.680000
20
-80.500000
30
0.0
11
9.640000
21
-80.500000
31
0.0
0
LINE
8
0
6
CONTINUOUS
10
7.080000
20
-80.500000
30
0.0
11
8.680000
21
-80.500000
31
0.0
0
LINE
8
0
6
CONTINUOUS
10
4.960000
20
-80.500000
30
0.0
11
7.080000
21
-80.500000
31
0.0
0
LINE
8
0
6
CONTINUOUS
10
2.560000
20
-80.500000
30
0.0
11
4.960000
21
-80.500000
31
0.0
0
LINE
8
0
6
CONTINUOUS
10
-9.640000
20
-80.500000
30
0.0
11
-10.000000
21
-80.500000
31
0.0
0
LINE
8
0
6
CONTINUOUS
10
-8.680000
20
-80.500000
30
0.0
11
-9.640000
21
-80.500000
31
0.0
0
LINE
8
0
6
CONTINUOUS
10
-7.080000
20
-80.500000
30
0.0
11
-8.680000
21
-80.500000
31
0.0
0
LINE
8
0
6
CONTINUOUS
10
-4.960000
20
-80.500000
30
0.0
11
-7.080000
21
-80.500000
31
0.0
0
LINE
8
0
6
CONTINUOUS
10
-2.560000
20
-80.500000
30
0.0
11
-4.960000
21
-80.500000
31
0.0
0
LINE
8
0
6
CONTINUOUS
10
-10.000000
20
-80.500000
30
0.0
11
-9.640000
21
-80.500000
31
0.0
0
LINE
8
0
6
CONTINUOUS
10
-9.640000
20
-80.500000
30
0.0
11
-8.680000
21
-80.500000
31
0.0
0
LINE
8
0
6
CONTINUOUS
10
-8.680000
20
-80.500000
30
0.0
11
-7.080000
21
-80.500000
31
0.0
0
LINE
8
0
6
CONTINUOUS
10
-7.080000
20
-80.500000
30
0.0
11
-4.960000
21
-80.500000
31
0.0
0
LINE
8
0
6
CONTINUOUS
10
-4.960000
20
-80.500000
30
0.0
11
-2.560000
21
-80.500000
31
0.0
0
LINE
8
0
6
CONTINUOUS
10
-10.000000
20
-80.500000
30
0.0
11
-10.000000
21
-79.500000
31
0.0
0
LINE
8
0
6
CONTINUOUS
10
75.140000
20
-75.669382
30
0.0
11
76.190000
21
-75.701428
31
0.0
0
LINE
8
0
6
CONTINUOUS
10
11.629000
20
-78.344340
30
0.0
11
12.679000
21
-78.318337
31
0.0
0
LINE
8
0
6
CONTINUOUS
10
89.027000
20
-75.700828
30
0.0
11
88.617064
21
-75.676191
31
0.0
0
LINE
8
0
6
CONTINUOUS
10
87.527000
20
-75.697513
30
0.0
11
88.577000
21
-75.671188
31
0.0
0
LINE
8
0
6
CONTINUOUS
10
0.000000
20
-75.689335
30
0.0
11
1.050000
21
-75.742830
31
0.0
0
LINE
8
0
6
CONTINUOUS
10
38.298000
20
-78.318677
30
0.0
11
39.348000
21
-78.290139
31
0.0
0
LINE
8
0
6
CONTINUOUS
10
30.458000
20
-78.863717
30
0.0
11
31.508000
21
-78.876308
31
0.0
0
LINE
8
0
6
CONTINUOUS
10
31.958000
20
-78.910592
30
0.0
11
31.508000
21
-78.876308
31
0.0
0
LINE
8
0
6
CONTINUOUS
10
29.408000
20
-78.881245
30
0.0
11
30.448818
21
-78.863866
31
0.0
0
LINE
8
0
6
CONTINUOUS
10
28.752000
20
-78.385735
30
0.0
11
28.302000
21
-78.330092
31
0.0
0
LINE
8
0
6
CONTINUOUS
10
27.252000
20
-78.309244
30
0.0
11
28.302000
21
-78.330092
31
0.0
0
LINE
8
0
6
CONTINUOUS
10
26.948199
20
-78.317399
30
0.0
11
27.252000
21
-78.309244
31
0.0
0
LINE
8
0
6
CONTINUOUS
10
26.202000
20
-78.336014
30
0.0
11
26.948199
21
-78.317399
31
0.0
0
LINE
8
0
6
CONTINUOUS
10
73.640000
20
-75.868232
30
0.0
11
74.090000
21
-75.740113
31
0.0
0
LINE
8
0
6
CONTINUOUS
10
-1.050000
20
-75.742813
30
0.0
11
0.000000
21
-75.689335
31
0.0
0
LINE
8
0
6
CONTINUOUS
10
0.000000
20
-78.363438
30
0.0
11
1.050000
21
-78.387326
31
0.0
0
LINE
8
0
6
CONTINUOUS
10
12.679000
20
-78.318337
30
0.0
11
13.729000
21
-78.342225
31
0.0
0
LINE
8
0
6
CONTINUOUS
10
1.500000
20
-78.445152
30
0.0
11
1.050000
21
-78.387326
31
0.0
0
LINE
8
0
6
CONTINUOUS
10
11.179000
20
-78.403017
30
0.0
11
11.629000
21
-78.344340
31
0.0
0
LINE
8
0
6
CONTINUOUS
10
14.179000
20
-78.399982
30
0.0
11
14.109939
21
-78.391131
31
0.0
0
LINE
8
0
6
CONTINUOUS
10
59.560000
20
-75.697468
30
0.0
11
60.610000
21
-75.742903
31
0.0
0
LINE
8
0
6
CONTINUOUS
10
-18.342000
20
-78.988109
30
0.0
11
-17.292000
21
-78.973380
31
0.0
0
LINE
8
0
6
CONTINUOUS
10
-18.792000
20
-79.023965
30
0.0
11
-18.342000
21
-78.988109
31
0.0
0
LINE
8
0
6
CONTINUOUS
10
-17.292000
20
-78.973380
30
0.0
11
-16.242000
21
-78.989616
31
0.0
0
LINE
8
0
6
CONTINUOUS
10
-88.577400
20
-75.671168
30
0.0
11
-87.527400
21
-75.697490
31
0.0
0
LINE
8
0
6
CONTINUOUS
10
-89.027400
20
-75.700797
30
0.0
11
-88.617228
21
-75.676115
31
0.0
0
LINE
8
0
6
CONTINUOUS
10
-88.617200
20
-75.676107
30
0.0
11
-88.577400
21
-75.671168
31
0.0
0
LINE
8
0
6
CONTINUOUS
10
-86.027400
20
-75.902881
30
0.0
11
-86.477400
21
-75.794302
31
0.0
0
LINE
8
0
6
CONTINUOUS
10
-87.527400
20
-75.697490
30
0.0
11
-86.477400
21
-75.794302
31
0.0
0
LINE
8
0
6
CONTINUOUS
10
-94.011400
20
-75.668335
30
0.0
11
-93.561400
21
-75.700273
31
0.0
0
LINE
8
0
6
CONTINUOUS
10
-93.561400
20
-75.700273
30
0.0
11
-92.511400
21
-75.812294
31
0.0
0
LINE
8
0
6
CONTINUOUS
10
-91.011400
20
-76.012522
30
0.0
11
-91.461400
21
-75.941203
31
0.0
0
LINE
8
0
6
CONTINUOUS
10
-95.270600
20
-75.697134
30
0.0
11
-94.820600
21
-75.742809
31
0.0
0
LINE
8
0
6
CONTINUOUS
10
-54.242600
20
-78.327659
30
0.0
11
-53.192600
21
-78.313427
31
0.0
0
LINE
8
0
6
CONTINUOUS
10
-54.692600
20
-78.376039
30
0.0
11
-54.557317
21
-78.362526
31
0.0
0
LINE
8
0
6
CONTINUOUS
10
-54.557317
20
-78.362526
30
0.0
11
-54.242600
21
-78.327659
31
0.0
0
LINE
8
0
6
CONTINUOUS
10
-53.192600
20
-78.313427
30
0.0
11
-52.142600
21
-78.345067
31
0.0
0
LINE
8
0
6
CONTINUOUS
10
-51.729100
20
-78.861652
30
0.0
11
-50.679100
21
-78.896257
31
0.0
0
LINE
8
0
6
CONTINUOUS
10
-50.229100
20
-78.917469
30
0.0
11
-50.679100
21
-78.896257
31
0.0
0
LINE
8
0
6
CONTINUOUS
10
-49.937400
20
-79.008224
30
0.0
11
-50.387400
21
-78.991961
31
0.0
0
LINE
8
0
6
CONTINUOUS
10
-76.190100
20
-75.701414
30
0.0
11
-75.140100
21
-75.669370
31
0.0
0
LINE
8
0
6
CONTINUOUS
10
-76.640100
20
-75.812952
30
0.0
11
-76.190100
21
-75.701414
31
0.0
0
LINE
8
0
6
CONTINUOUS
10
-73.640100
20
-75.868220
30
0.0
11
-74.090100
21
-75.740101
31
0.0
0
LINE
8
0
6
CONTINUOUS
10
-75.140100
20
-75.669370
30
0.0
11
-74.090100
21
-75.740101
31
0.0
0
LINE
8
0
6
CONTINUOUS
10
-76.034000
20
-77.362707
30
0.0
11
-74.984000
21
-77.389214
31
0.0
0
LINE
8
0
6
CONTINUOUS
10
-76.484000
20
-77.400786
30
0.0
11
-76.208338
21
-77.384294
31
0.0
0
LINE
8
0
6
CONTINUOUS
10
-76.208336
20
-77.384293
30
0.0
11
-76.034000
21
-77.362707
31
0.0
0
LINE
8
0
6
CONTINUOUS
10
-60.610400
20
-75.742907
30
0.0
11
-59.560400
21
-75.697471
31
0.0
0
LINE
8
0
6
CONTINUOUS
10
-61.060400
20
-75.866465
30
0.0
11
-60.610400
21
-75.742907
31
0.0
0
LINE
8
0
6
CONTINUOUS
10
-59.560400
20
-75.697471
30
0.0
11
-58.510400
21
-75.761283
31
0.0
0
LINE
8
0
6
CONTINUOUS
10
-64.083852
20
-77.347510
30
0.0
11
-63.820600
21
-77.337599
31
0.0
0
LINE
8
0
6
CONTINUOUS
10
-64.870600
20
-77.371456
30
0.0
11
-64.083852
21
-77.347510
31
0.0
0
LINE
8
0
6
CONTINUOUS
10
-81.409000
20
-77.325260
30
0.0
11
-81.244130
21
-77.339798
31
0.0
0
LINE
8
0
6
CONTINUOUS
10
-81.244130
20
-77.339798
30
0.0
11
-80.959000
21
-77.360061
31
0.0
0
LINE
8
0
6
CONTINUOUS
10
-80.959000
20
-77.360061
30
0.0
11
-79.909000
21
-77.472160
31
0.0
0
LINE
8
0
6
CONTINUOUS
10
-79.682276
20
-77.500000
30
0.0
11
-78.859000
21
-77.544959
31
0.0
0
LINE
8
0
6
CONTINUOUS
10
-79.909000
20
-77.472160
30
0.0
11
-79.682276
21
-77.500000
31
0.0
0
LINE
8
0
6
CONTINUOUS
10
-82.265000
20
-77.377113
30
0.0
11
-81.815000
21
-77.422780
31
0.0
0
LINE
8
0
6
CONTINUOUS
10
-81.815000
20
-77.422780
30
0.0
11
-81.162920
21
-77.500000
31
0.0
0
LINE
8
0
6
CONTINUOUS
10
-82.391900
20
-77.485971
30
0.0
11
-82.257368
21
-77.500000
31
0.0
0
LINE
8
0
6
CONTINUOUS
10
-66.119500
20
-78.272588
30
0.0
11
-66.004256
21
-78.276235
31
0.0
0
LINE
8
0
6
CONTINUOUS
10
-66.004256
20
-78.276235
30
0.0
11
-65.669500
21
-78.282919
31
0.0
0
LINE
8
0
6
CONTINUOUS
10
-67.869300
20
-78.257370
30
0.0
11
-67.419300
21
-78.277671
31
0.0
0
LINE
8
0
6
CONTINUOUS
10
-67.419300
20
-78.277671
30
0.0
11
-66.369300
21
-78.332947
31
0.0
0
LINE
8
0
6
CONTINUOUS
10
-28.302000
20
-78.330078
30
0.0
11
-27.252000
21
-78.309229
31
0.0
0
LINE
8
0
6
CONTINUOUS
10
-27.252000
20
-78.309229
30
0.0
11
-26.948155
21
-78.317400
31
0.0
0
LINE
8
0
6
CONTINUOUS
10
-40.398000
20
-78.310415
30
0.0
11
-39.348000
21
-78.290151
31
0.0
0
LINE
8
0
6
CONTINUOUS
10
-39.348000
20
-78.290151
30
0.0
11
-38.298000
21
-78.318688
31
0.0
0
LINE
8
0
6
CONTINUOUS
10
-35.591000
20
-77.575122
30
0.0
11
-35.141000
21
-77.519389
31
0.0
0
LINE
8
0
6
CONTINUOUS
10
-32.591000
20
-77.585643
30
0.0
11
-33.041000
21
-77.526754
31
0.0
0
LINE
8
0
6
CONTINUOUS
10
-46.379700
20
-75.739541
30
0.0
11
-45.329700
21
-75.692875
31
0.0
0
LINE
8
0
6
CONTINUOUS
10
-46.829700
20
-75.864084
30
0.0
11
-46.379700
21
-75.739541
31
0.0
0
LINE
8
0
6
CONTINUOUS
10
-45.329700
20
-75.692875
30
0.0
11
-44.279700
21
-75.755936
31
0.0
0
LINE
8
0
6
CONTINUOUS
10
-31.159900
20
-75.712989
30
0.0
11
-30.110000
21
-75.659884
31
0.0
0
LINE
8
0
6
CONTINUOUS
10
-31.609900
20
-75.841942
30
0.0
11
-31.159900
21
-75.712989
31
0.0
0
LINE
8
0
6
CONTINUOUS
10
-30.110000
20
-75.659884
30
0.0
11
-29.060000
21
-75.718368
31
0.0
0
LINE
8
0
6
CONTINUOUS
10
-23.337000
20
-77.531997
30
0.0
11
-22.287000
21
-77.508221
31
0.0
0
LINE
8
0
6
CONTINUOUS
10
-23.787000
20
-77.589797
30
0.0
11
-23.337000
21
-77.531997
31
0.0
0
LINE
8
0
6
CONTINUOUS
10
-22.287000
20
-77.508221
30
0.0
11
-21.237000
21
-77.534411
31
0.0
0
LINE
8
0
6
CONTINUOUS
10
-38.006300
20
-79.274257
30
0.0
11
-37.290491
21
-79.279295
31
0.0
0
LINE
8
0
6
CONTINUOUS
10
-37.290491
20
-79.279295
30
0.0
11
-36.956300
21
-79.280178
31
0.0
0
LINE
8
0
6
CONTINUOUS
10
-38.456300
20
-79.287516
30
0.0
11
-38.336739
21
-79.285555
31
0.0
0
LINE
8
0
6
CONTINUOUS
10
-38.336739
20
-79.285555
30
0.0
11
-38.006300
21
-79.274257
31
0.0
0
LINE
8
0
6
CONTINUOUS
10
-36.956300
20
-79.280178
30
0.0
11
-35.906300
21
-79.305106
31
0.0
0
LINE
8
0
6
CONTINUOUS
10
-35.456300
20
-79.336887
30
0.0
11
-35.906300
21
-79.305106
31
0.0
0
LINE
8
0
6
CONTINUOUS
10
-45.207200
20
-78.835726
30
0.0
11
-44.742241
21
-78.833252
31
0.0
0
LINE
8
0
6
CONTINUOUS
10
-44.742241
20
-78.833252
30
0.0
11
-44.157200
21
-78.828312
31
0.0
0
LINE
8
0
6
CONTINUOUS
10
-45.657200
20
-78.863628
30
0.0
11
-45.207200
21
-78.835726
31
0.0
0
LINE
8
0
6
CONTINUOUS
10
-42.657200
20
-78.883589
30
0.0
11
-43.107200
21
-78.847990
31
0.0
0
LINE
8
0
6
CONTINUOUS
10
-44.157200
20
-78.828312
30
0.0
11
-43.107200
21
-78.847990
31
0.0
0
LINE
8
0
6
CONTINUOUS
10
-31.508200
20
-78.876307
30
0.0
11
-30.458000
21
-78.863717
31
0.0
0
LINE
8
0
6
CONTINUOUS
10
-31.958200
20
-78.910592
30
0.0
11
-31.508200
21
-78.876307
31
0.0
0
LINE
8
0
6
CONTINUOUS
10
-28.958000
20
-78.917778
30
0.0
11
-29.408000
21
-78.881250
31
0.0
0
LINE
8
0
6
CONTINUOUS
10
-30.448733
20
-78.863867
30
0.0
11
-29.408000
21
-78.881250
31
0.0
0
LINE
8
0
6
CONTINUOUS
10
-49.500000
20
-79.034483
30
0.0
11
-49.950000
21
-79.018307
31
0.0
0
LINE
8
0
6
CONTINUOUS
10
-38.928795
20
-79.393845
30
0.0
11
-38.635100
21
-79.403475
31
0.0
0
LINE
8
0
6
CONTINUOUS
10
-39.085100
20
-79.388684
30
0.0
11
-38.928795
21
-79.393845
31
0.0
0
LINE
8
0
6
CONTINUOUS
10
1.500000
20
-78.445152
30
0.0
11
1.050000
21
-78.387326
31
0.0
0
LINE
8
0
6
CONTINUOUS
10
0.000000
20
-78.363438
30
0.0
11
1.050000
21
-78.387326
31
0.0
0
LINE
8
0
6
CONTINUOUS
10
-13.729000
20
-78.342226
30
0.0
11
-12.679000
21
-78.318338
31
0.0
0
LINE
8
0
6
CONTINUOUS
10
-14.109939
20
-78.391131
30
0.0
11
-13.729000
21
-78.342226
31
0.0
0
LINE
8
0
6
CONTINUOUS
10
-1.050000
20
-75.742813
30
0.0
11
0.000000
21
-75.689333
31
0.0
0
LINE
8
0
6
CONTINUOUS
10
0.000000
20
-75.689335
30
0.0
11
1.050000
21
-75.742830
31
0.0
0
LINE
8
0
6
CONTINUOUS
10
-16.050000
20
-75.709304
30
0.0
11
-15.000000
21
-75.655824
31
0.0
0
LINE
8
0
6
CONTINUOUS
10
-16.500000
20
-75.838475
30
0.0
11
-16.050000
21
-75.709304
31
0.0
0
LINE
8
0
6
CONTINUOUS
10
-15.000000
20
-75.655824
30
0.0
11
-13.950000
21
-75.713995
31
0.0
0
LINE
8
0
6
CONTINUOUS
10
-9.201000
20
-77.540014
30
0.0
11
-8.151000
21
-77.516070
31
0.0
0
LINE
8
0
6
CONTINUOUS
10
-9.651000
20
-77.597910
30
0.0
11
-9.201000
21
-77.540014
31
0.0
0
LINE
8
0
6
CONTINUOUS
10
-6.651000
20
-77.600921
30
0.0
11
-7.101000
21
-77.542121
31
0.0
0
LINE
8
0
6
CONTINUOUS
10
-8.151000
20
-77.516070
30
0.0
11
-7.101000
21
-77.542121
31
0.0
0
LINE
8
0
6
CONTINUOUS
10
66.369000
20
-78.332965
30
0.0
11
67.419000
21
-78.277689
31
0.0
0
LINE
8
0
6
CONTINUOUS
10
67.869000
20
-78.257389
30
0.0
11
67.419000
21
-78.277689
31
0.0
0
LINE
8
0
6
CONTINUOUS
10
49.937000
20
-79.008236
30
0.0
11
50.387000
21
-78.991973
31
0.0
0
LINE
8
0
6
CONTINUOUS
10
38.928696
20
-79.393846
30
0.0
11
38.635000
21
-79.403474
31
0.0
0
LINE
8
0
6
CONTINUOUS
10
66.004674
20
-78.276222
30
0.0
11
65.670000
21
-78.282907
31
0.0
0
LINE
8
0
6
CONTINUOUS
10
64.084217
20
-77.347508
30
0.0
11
64.871000
21
-77.371464
31
0.0
0
LINE
8
0
6
CONTINUOUS
10
65.321000
20
-77.482992
30
0.0
11
64.871000
21
-77.371464
31
0.0
0
LINE
8
0
6
CONTINUOUS
10
63.821000
20
-77.337588
30
0.0
11
64.084217
21
-77.347508
31
0.0
0
LINE
8
0
6
CONTINUOUS
10
62.771000
20
-77.404573
30
0.0
11
63.821000
21
-77.337588
31
0.0
0
LINE
8
0
6
CONTINUOUS
10
51.693000
20
-78.402370
30
0.0
11
52.143000
21
-78.345053
31
0.0
0
LINE
8
0
6
CONTINUOUS
10
52.143000
20
-78.345053
30
0.0
11
53.193000
21
-78.313413
31
0.0
0
LINE
8
0
6
CONTINUOUS
10
54.557746
20
-78.362529
30
0.0
11
54.243000
21
-78.327647
31
0.0
0
LINE
8
0
6
CONTINUOUS
10
53.193000
20
-78.313413
30
0.0
11
54.243000
21
-78.327647
31
0.0
0
LINE
8
0
6
CONTINUOUS
10
93.771000
20
-75.867110
30
0.0
11
94.821000
21
-75.742735
31
0.0
0
LINE
8
0
6
CONTINUOUS
10
95.271000
20
-75.697056
30
0.0
11
94.821000
21
-75.742735
31
0.0
0
LINE
8
0
6
CONTINUOUS
10
35.193423
20
-79.500000
30
0.0
11
35.514000
21
-79.487358
31
0.0
0
LINE
8
0
6
CONTINUOUS
10
50.679000
20
-78.896257
30
0.0
11
51.729000
21
-78.861652
31
0.0
0
LINE
8
0
6
CONTINUOUS
10
50.229000
20
-78.917470
30
0.0
11
50.679000
21
-78.896257
31
0.0
0
LINE
8
0
6
CONTINUOUS
10
81.409000
20
-77.325295
30
0.0
11
81.244198
21
-77.339824
31
0.0
0
LINE
8
0
6
CONTINUOUS
10
91.011000
20
-76.012585
30
0.0
11
91.461000
21
-75.941270
31
0.0
0
LINE
8
0
6
CONTINUOUS
10
94.011000
20
-75.668375
30
0.0
11
93.561000
21
-75.700323
31
0.0
0
LINE
8
0
6
CONTINUOUS
10
92.511000
20
-75.812355
30
0.0
11
93.561000
21
-75.700323
31
0.0
0
LINE
8
0
6
CONTINUOUS
10
91.461000
20
-75.941270
30
0.0
11
92.511000
21
-75.812355
31
0.0
0
LINE
8
0
6
CONTINUOUS
10
81.244198
20
-77.339824
30
0.0
11
80.959000
21
-77.360086
31
0.0
0
LINE
8
0
6
CONTINUOUS
10
35.906000
20
-79.305110
30
0.0
11
36.956000
21
-79.280179
31
0.0
0
LINE
8
0
6
CONTINUOUS
10
35.456000
20
-79.336888
30
0.0
11
35.906000
21
-79.305110
31
0.0
0
LINE
8
0
6
CONTINUOUS
10
36.956000
20
-79.280179
30
0.0
11
37.290119
21
-79.279293
31
0.0
0
LINE
8
0
6
CONTINUOUS
10
96.290000
20
-75.689911
30
0.0
11
95.840000
21
-75.736842
31
0.0
0
LINE
8
0
6
CONTINUOUS
10
94.790000
20
-75.862222
30
0.0
11
95.840000
21
-75.736842
31
0.0
0
LINE
8
0
6
CONTINUOUS
10
74.984000
20
-77.389226
30
0.0
11
76.034000
21
-77.362715
31
0.0
0
LINE
8
0
6
CONTINUOUS
10
76.208384
20
-77.384308
30
0.0
11
76.034000
21
-77.362715
31
0.0
0
LINE
8
0
6
CONTINUOUS
10
73.934000
20
-77.486220
30
0.0
11
74.984000
21
-77.389226
31
0.0
0
LINE
8
0
6
CONTINUOUS
10
73.876929
20
-77.500000
30
0.0
11
73.934000
21
-77.486220
31
0.0
0
LINE
8
0
6
CONTINUOUS
10
54.693000
20
-78.376034
30
0.0
11
54.557746
21
-78.362529
31
0.0
0
LINE
8
0
6
CONTINUOUS
10
34.165859
20
-77.500000
30
0.0
11
35.141000
21
-77.519403
31
0.0
0
LINE
8
0
6
CONTINUOUS
10
33.041000
20
-77.526768
30
0.0
11
34.035656
21
-77.500000
31
0.0
0
LINE
8
0
6
CONTINUOUS
10
17.292000
20
-78.973382
30
0.0
11
18.342000
21
-78.988111
31
0.0
0
LINE
8
0
6
CONTINUOUS
10
18.792000
20
-79.023967
30
0.0
11
18.342000
21
-78.988111
31
0.0
0
LINE
8
0
6
CONTINUOUS
10
16.242000
20
-78.989618
30
0.0
11
17.292000
21
-78.973382
31
0.0
0
LINE
8
0
6
CONTINUOUS
10
49.539000
20
-77.388624
30
0.0
11
50.589000
21
-77.434014
31
0.0
0
LINE
8
0
6
CONTINUOUS
10
50.829509
20
-77.500000
30
0.0
11
50.589000
21
-77.434014
31
0.0
0
LINE
8
0
6
CONTINUOUS
10
48.326058
20
-77.500000
30
0.0
11
48.489000
21
-77.452437
31
0.0
0
LINE
8
0
6
CONTINUOUS
10
48.489000
20
-77.452437
30
0.0
11
49.539000
21
-77.388624
31
0.0
0
LINE
8
0
6
CONTINUOUS
10
73.484000
20
-77.542304
30
0.0
11
73.876929
21
-77.500000
31
0.0
0
LINE
8
0
6
CONTINUOUS
10
39.085000
20
-79.388684
30
0.0
11
38.928696
21
-79.393846
31
0.0
0
LINE
8
0
6
CONTINUOUS
10
49.500000
20
-79.034483
30
0.0
11
49.950000
21
-79.018306
31
0.0
0
LINE
8
0
6
CONTINUOUS
10
76.484000
20
-77.400793
30
0.0
11
76.208402
21
-77.384314
31
0.0
0
LINE
8
0
6
CONTINUOUS
10
38.336600
20
-79.285569
30
0.0
11
38.006000
21
-79.274252
31
0.0
0
LINE
8
0
6
CONTINUOUS
10
37.290119
20
-79.279293
30
0.0
11
38.006000
21
-79.274252
31
0.0
0
LINE
8
0
6
CONTINUOUS
10
78.409000
20
-77.576697
30
0.0
11
78.859000
21
-77.544983
31
0.0
0
LINE
8
0
6
CONTINUOUS
10
66.120000
20
-78.272571
30
0.0
11
66.004674
21
-78.276222
31
0.0
0
LINE
8
0
6
CONTINUOUS
10
42.657000
20
-78.883610
30
0.0
11
43.107000
21
-78.848012
31
0.0
0
LINE
8
0
6
CONTINUOUS
10
43.107000
20
-78.848012
30
0.0
11
44.157000
21
-78.828333
31
0.0
0
LINE
8
0
6
CONTINUOUS
10
44.157000
20
-78.828333
30
0.0
11
44.742432
21
-78.833258
31
0.0
0
LINE
8
0
6
CONTINUOUS
10
45.657000
20
-78.863624
30
0.0
11
45.207000
21
-78.835722
31
0.0
0
LINE
8
0
6
CONTINUOUS
10
44.742432
20
-78.833258
30
0.0
11
45.207000
21
-78.835722
31
0.0
0
LINE
8
0
6
CONTINUOUS
10
34.091000
20
-77.496677
30
0.0
11
34.165859
21
-77.500000
31
0.0
0
LINE
8
0
6
CONTINUOUS
10
34.035656
20
-77.500000
30
0.0
11
34.091000
21
-77.496677
31
0.0
0
LINE
8
0
6
CONTINUOUS
10
38.456000
20
-79.287533
30
0.0
11
38.336600
21
-79.285569
31
0.0
0
LINE
8
0
6
CONTINUOUS
10
62.321000
20
-77.515555
30
0.0
11
62.441099
21
-77.500000
31
0.0
0
LINE
8
0
6
CONTINUOUS
10
97.500000
20
-75.653423
30
0.0
11
97.050000
21
-75.707287
31
0.0
0
LINE
8
0
6
CONTINUOUS
10
97.170000
20
-75.657180
30
0.0
11
96.720000
21
-75.710663
31
0.0
0
LINE
8
0
6
CONTINUOUS
10
40.848000
20
-78.365637
30
0.0
11
40.398000
21
-78.310403
31
0.0
0
LINE
8
0
6
CONTINUOUS
10
37.848000
20
-78.377457
30
0.0
11
38.298000
21
-78.318677
31
0.0
0
LINE
8
0
6
CONTINUOUS
10
39.348000
20
-78.290139
30
0.0
11
40.398000
21
-78.310403
31
0.0
0
LINE
8
0
6
CONTINUOUS
10
51.039000
20
-77.525734
30
0.0
11
50.829509
21
-77.500000
31
0.0
0
LINE
8
0
6
CONTINUOUS
10
48.039000
20
-77.537517
30
0.0
11
48.326058
21
-77.500000
31
0.0
0
ENDSEC
0
EOF
