999
Erzeugt mit innoplus bad 
0
SECTION
2
HEADER
9
$ACADVER
1
AC1009
9
$DWGCODEPAGE
3
ISO8859-1
0
ENDSEC
0
SECTION
2
TABLES
0
TABLE
2
LAYER
70
1
0
LAYER
2
0
70
0
62
7
6
CONTINUOUS
0
ENDTAB
0
ENDSEC
0
SECTION
2
ENTITIES
0
LINE
8
0
6
CONTINUOUS
10
-20.483970
20
91.003125
30
0.0
11
-14.895100
21
90.594285
31
0.0
0
LINE
8
0
6
CONTINUOUS
10
24.647780
20
100.420075
30
0.0
11
17.946530
21
104.586965
31
0.0
0
LINE
8
0
6
CONTINUOUS
10
-26.084990
20
90.873145
30
0.0
11
-20.483970
21
91.003125
31
0.0
0
LINE
8
0
6
CONTINUOUS
10
-74.505750
20
57.527055
30
0.0
11
-71.896270
21
62.484995
31
0.0
0
LINE
8
0
6
CONTINUOUS
10
26.604700
20
64.787565
30
0.0
11
29.443790
21
59.957845
31
0.0
0
LINE
8
0
6
CONTINUOUS
10
33.661320
20
49.590555
30
0.0
11
35.001540
21
44.150145
31
0.0
0
LINE
8
0
6
CONTINUOUS
10
-88.402900
20
35.598925
30
0.0
11
-86.133460
21
34.540655
31
0.0
0
LINE
8
0
6
CONTINUOUS
10
36.081720
20
33.010585
30
0.0
11
36.081197
21
-62.647065
31
0.0
0
LINE
8
0
6
CONTINUOUS
10
17.946530
20
104.586965
30
0.0
11
10.836480
21
108.110485
31
0.0
0
LINE
8
0
6
CONTINUOUS
10
-88.157430
20
81.254465
30
0.0
11
-92.501970
21
74.640205
31
0.0
0
LINE
8
0
6
CONTINUOUS
10
-50.911980
20
109.649985
30
0.0
11
-58.169270
21
106.496675
31
0.0
0
LINE
8
0
6
CONTINUOUS
10
-14.895100
20
90.594285
30
0.0
11
-9.373390
21
89.646835
31
0.0
0
LINE
8
0
6
CONTINUOUS
10
6.289230
20
83.695405
30
0.0
11
11.048030
21
80.736785
31
0.0
0
LINE
8
0
6
CONTINUOUS
10
19.598700
20
73.516085
30
0.0
11
23.311140
21
69.320895
31
0.0
0
LINE
8
0
6
CONTINUOUS
10
-68.819110
20
67.167165
30
0.0
11
-65.306340
21
71.531365
31
0.0
0
LINE
8
0
6
CONTINUOUS
10
-71.896270
20
62.484995
30
0.0
11
-68.819110
21
67.167165
31
0.0
0
LINE
8
0
6
CONTINUOUS
10
-65.306340
20
71.531365
30
0.0
11
-61.387160
21
75.535995
31
0.0
0
LINE
8
0
6
CONTINUOUS
10
-57.102130
20
79.143205
30
0.0
11
-52.487620
21
82.321415
31
0.0
0
LINE
8
0
6
CONTINUOUS
10
35.001540
20
44.150145
30
0.0
11
35.810010
21
38.606255
31
0.0
0
LINE
8
0
6
CONTINUOUS
10
29.443790
20
59.957845
30
0.0
11
31.801710
21
54.875775
31
0.0
0
LINE
8
0
6
CONTINUOUS
10
-37.118520
20
88.998295
30
0.0
11
-31.647480
21
90.201925
31
0.0
0
LINE
8
0
6
CONTINUOUS
10
1.267950
20
86.180935
30
0.0
11
6.289230
21
83.695405
31
0.0
0
LINE
8
0
6
CONTINUOUS
10
11.048030
20
80.736785
30
0.0
11
15.496690
21
77.332645
31
0.0
0
LINE
8
0
6
CONTINUOUS
10
-87.662470
20
56.969955
30
0.0
11
-83.537850
21
55.046705
31
0.0
0
LINE
8
0
6
CONTINUOUS
10
60.006210
20
33.010585
30
0.0
11
59.624620
21
40.914665
31
0.0
0
LINE
8
0
6
CONTINUOUS
10
23.311140
20
69.320895
30
0.0
11
26.604700
21
64.787565
31
0.0
0
LINE
8
0
6
CONTINUOUS
10
35.810010
20
38.606255
30
0.0
11
36.081720
21
33.010585
31
0.0
0
LINE
8
0
6
CONTINUOUS
10
31.801710
20
54.875775
30
0.0
11
33.661320
21
49.590555
31
0.0
0
LINE
8
0
6
CONTINUOUS
10
-42.450020
20
87.271095
30
0.0
11
-37.118520
21
88.998295
31
0.0
0
LINE
8
0
6
CONTINUOUS
10
-3.969660
20
88.171865
30
0.0
11
1.267950
21
86.180935
31
0.0
0
LINE
8
0
6
CONTINUOUS
10
-61.387160
20
75.535995
30
0.0
11
-57.102130
21
79.143205
31
0.0
0
LINE
8
0
6
CONTINUOUS
10
-52.487620
20
82.321415
30
0.0
11
-47.586840
21
85.039115
31
0.0
0
LINE
8
0
6
CONTINUOUS
10
-31.647480
20
90.201925
30
0.0
11
-26.084990
21
90.873145
31
0.0
0
LINE
8
0
6
CONTINUOUS
10
-85.386850
20
34.192525
30
0.0
11
-85.148410
21
34.703855
31
0.0
0
LINE
8
0
6
CONTINUOUS
10
-86.133460
20
34.540655
30
0.0
11
-85.386850
21
34.192525
31
0.0
0
LINE
8
0
6
CONTINUOUS
10
15.496690
20
77.332645
30
0.0
11
19.598700
21
73.516085
31
0.0
0
LINE
8
0
6
CONTINUOUS
10
-103.717200
20
42.740065
30
0.0
11
-100.152820
21
41.077975
31
0.0
0
LINE
8
0
6
CONTINUOUS
10
-107.070160
20
44.303635
30
0.0
11
-106.133690
21
43.866905
31
0.0
0
LINE
8
0
6
CONTINUOUS
10
-106.831720
20
44.814975
30
0.0
11
-107.070160
21
44.303635
31
0.0
0
LINE
8
0
6
CONTINUOUS
10
-47.586840
20
85.039115
30
0.0
11
-42.450020
21
87.271095
31
0.0
0
LINE
8
0
6
CONTINUOUS
10
60.006171
20
-62.647065
30
0.0
11
60.006210
21
33.010585
31
0.0
0
LINE
8
0
6
CONTINUOUS
10
-98.752250
20
62.141125
30
0.0
11
-97.815760
21
61.704425
31
0.0
0
LINE
8
0
6
CONTINUOUS
10
-98.312510
20
62.104585
30
0.0
11
-98.752250
21
62.141125
31
0.0
0
LINE
8
0
6
CONTINUOUS
10
-100.152820
20
41.077975
30
0.0
11
-95.980300
21
39.132315
31
0.0
0
LINE
8
0
6
CONTINUOUS
10
-9.373390
20
89.646835
30
0.0
11
-3.969660
21
88.171865
31
0.0
0
LINE
8
0
6
CONTINUOUS
10
-87.533380
20
57.246775
30
0.0
11
-83.408760
21
55.323535
31
0.0
0
LINE
8
0
6
CONTINUOUS
10
-83.408760
20
55.323535
30
0.0
11
-79.956100
21
53.713245
31
0.0
0
LINE
8
0
6
CONTINUOUS
10
-95.270250
20
60.854415
30
0.0
11
-97.686670
21
61.981245
31
0.0
0
LINE
8
0
6
CONTINUOUS
10
-98.623160
20
62.417945
30
0.0
11
-97.686670
21
61.981245
31
0.0
0
LINE
8
0
6
CONTINUOUS
10
-96.188810
20
67.638265
30
0.0
11
-98.623160
21
62.417945
31
0.0
0
LINE
8
0
6
CONTINUOUS
10
-98.752250
20
62.141125
30
0.0
11
-106.831720
21
44.814975
31
0.0
0
LINE
8
0
6
CONTINUOUS
10
-97.815760
20
61.704425
30
0.0
11
-98.752250
21
62.141125
31
0.0
0
LINE
8
0
6
CONTINUOUS
10
-91.855680
20
37.208995
30
0.0
11
-95.980300
21
39.132315
31
0.0
0
LINE
8
0
6
CONTINUOUS
10
-88.402900
20
35.598925
30
0.0
11
-91.855680
21
37.208995
31
0.0
0
LINE
8
0
6
CONTINUOUS
10
-77.069110
20
52.029935
30
0.0
11
-77.381420
21
52.344075
31
0.0
0
LINE
8
0
6
CONTINUOUS
10
-77.815780
20
52.378055
30
0.0
11
-77.069110
21
52.029935
31
0.0
0
LINE
8
0
6
CONTINUOUS
10
-77.686690
20
52.654875
30
0.0
11
-79.956100
21
53.713245
31
0.0
0
LINE
8
0
6
CONTINUOUS
10
-91.705950
20
59.192325
30
0.0
11
-95.270250
21
60.854415
31
0.0
0
LINE
8
0
6
CONTINUOUS
10
-95.399360
20
60.577585
30
0.0
11
-91.835060
21
58.915485
31
0.0
0
LINE
8
0
6
CONTINUOUS
10
-91.635230
20
58.990825
30
0.0
11
-95.075900
21
60.595285
31
0.0
0
LINE
8
0
6
CONTINUOUS
10
-77.381420
20
52.344075
30
0.0
11
-76.940020
21
52.306755
31
0.0
0
LINE
8
0
6
CONTINUOUS
10
-78.102190
20
52.680105
30
0.0
11
-77.381420
21
52.344075
31
0.0
0
LINE
8
0
6
CONTINUOUS
10
-76.940020
20
52.306755
30
0.0
11
-77.686690
21
52.654875
31
0.0
0
LINE
8
0
6
CONTINUOUS
10
-87.533380
20
57.246775
30
0.0
11
-91.705950
21
59.192325
31
0.0
0
LINE
8
0
6
CONTINUOUS
10
-79.956100
20
53.713245
30
0.0
11
-77.686690
21
52.654875
31
0.0
0
LINE
8
0
6
CONTINUOUS
10
-95.270250
20
60.854415
30
0.0
11
-91.705950
21
59.192325
31
0.0
0
LINE
8
0
6
CONTINUOUS
10
-87.607370
20
57.112765
30
0.0
11
-83.625780
21
55.256225
31
0.0
0
LINE
8
0
6
CONTINUOUS
10
-83.408760
20
55.323535
30
0.0
11
-87.533380
21
57.246775
31
0.0
0
LINE
8
0
6
CONTINUOUS
10
-79.956100
20
53.713245
30
0.0
11
-83.408760
21
55.323535
31
0.0
0
LINE
8
0
6
CONTINUOUS
10
-91.835060
20
58.915485
30
0.0
11
-87.662470
21
56.969955
31
0.0
0
LINE
8
0
6
CONTINUOUS
10
-87.607370
20
57.112765
30
0.0
11
-91.635230
21
58.990825
31
0.0
0
LINE
8
0
6
CONTINUOUS
10
-80.292880
20
53.701775
30
0.0
11
-83.625780
21
55.256225
31
0.0
0
LINE
8
0
6
CONTINUOUS
10
-83.537850
20
55.046705
30
0.0
11
-80.085180
21
53.436415
31
0.0
0
LINE
8
0
6
CONTINUOUS
10
-76.940020
20
52.306755
30
0.0
11
-74.505750
21
57.527055
31
0.0
0
LINE
8
0
6
CONTINUOUS
10
-77.686690
20
52.654875
30
0.0
11
-76.940020
21
52.306755
31
0.0
0
LINE
8
0
6
CONTINUOUS
10
-91.705950
20
59.192325
30
0.0
11
-87.533380
21
57.246775
31
0.0
0
LINE
8
0
6
CONTINUOUS
10
-80.085180
20
53.436415
30
0.0
11
-77.815780
21
52.378055
31
0.0
0
LINE
8
0
6
CONTINUOUS
10
-78.102190
20
52.680105
30
0.0
11
-80.292880
21
53.701775
31
0.0
0
LINE
8
0
6
CONTINUOUS
10
-87.662470
20
56.969955
30
0.0
11
-91.835060
21
58.915485
31
0.0
0
LINE
8
0
6
CONTINUOUS
10
-83.537850
20
55.046705
30
0.0
11
-87.662470
21
56.969955
31
0.0
0
LINE
8
0
6
CONTINUOUS
10
-80.085180
20
53.436415
30
0.0
11
-83.537850
21
55.046705
31
0.0
0
LINE
8
0
6
CONTINUOUS
10
-91.835060
20
58.915485
30
0.0
11
-95.399360
21
60.577585
31
0.0
0
LINE
8
0
6
CONTINUOUS
10
-85.148410
20
34.703855
30
0.0
11
-77.069110
21
52.029935
31
0.0
0
LINE
8
0
6
CONTINUOUS
10
-77.069110
20
52.029935
30
0.0
11
-77.815780
21
52.378055
31
0.0
0
LINE
8
0
6
CONTINUOUS
10
-77.815780
20
52.378055
30
0.0
11
-80.085180
21
53.436415
31
0.0
0
LINE
8
0
6
CONTINUOUS
10
-77.660530
20
93.073305
30
0.0
11
-83.195080
21
87.417885
31
0.0
0
LINE
8
0
6
CONTINUOUS
10
10.836480
20
108.110485
30
0.0
11
3.438560
21
110.920155
31
0.0
0
LINE
8
0
6
CONTINUOUS
10
-95.399360
20
60.577585
30
0.0
11
-97.815760
21
61.704425
31
0.0
0
LINE
8
0
6
CONTINUOUS
10
-97.686670
20
61.981245
30
0.0
11
-95.270250
21
60.854415
31
0.0
0
LINE
8
0
6
CONTINUOUS
10
-97.686670
20
61.981245
30
0.0
11
-98.623160
21
62.417945
31
0.0
0
LINE
8
0
6
CONTINUOUS
10
-98.312510
20
62.104585
30
0.0
11
-97.408510
21
61.683045
31
0.0
0
LINE
8
0
6
CONTINUOUS
10
-98.623160
20
62.417945
30
0.0
11
-98.312510
21
62.104585
31
0.0
0
LINE
8
0
6
CONTINUOUS
10
30.933530
20
95.613225
30
0.0
11
24.647780
21
100.420075
31
0.0
0
LINE
8
0
6
CONTINUOUS
10
-97.815760
20
61.704425
30
0.0
11
-95.399360
21
60.577585
31
0.0
0
LINE
8
0
6
CONTINUOUS
10
-95.075900
20
60.595285
30
0.0
11
-97.408510
21
61.683045
31
0.0
0
LINE
8
0
6
CONTINUOUS
10
-92.501970
20
74.640205
30
0.0
11
-96.188810
21
67.638265
31
0.0
0
LINE
8
0
6
CONTINUOUS
10
-106.133690
20
43.866905
30
0.0
11
-103.717200
21
42.740065
31
0.0
0
LINE
8
0
6
CONTINUOUS
10
-27.797600
20
114.736035
30
0.0
11
-35.655830
21
113.788625
31
0.0
0
LINE
8
0
6
CONTINUOUS
10
3.438560
20
110.920155
30
0.0
11
-4.195050
21
113.004145
31
0.0
0
LINE
8
0
6
CONTINUOUS
10
-71.606640
20
98.170225
30
0.0
11
-77.660530
21
93.073305
31
0.0
0
LINE
8
0
6
CONTINUOUS
10
58.481160
20
48.744975
30
0.0
11
56.588200
21
56.428365
31
0.0
0
LINE
8
0
6
CONTINUOUS
10
-83.195080
20
87.417885
30
0.0
11
-88.157430
21
81.254465
31
0.0
0
LINE
8
0
6
CONTINUOUS
10
-19.887520
20
114.921335
30
0.0
11
-27.797600
21
114.736035
31
0.0
0
LINE
8
0
6
CONTINUOUS
10
50.630220
20
71.070755
30
0.0
11
46.620380
21
77.892535
31
0.0
0
LINE
8
0
6
CONTINUOUS
10
41.971320
20
84.296755
30
0.0
11
36.725290
21
90.221285
31
0.0
0
LINE
8
0
6
CONTINUOUS
10
-11.995680
20
114.342195
30
0.0
11
-19.887520
21
114.921335
31
0.0
0
LINE
8
0
6
CONTINUOUS
10
53.963920
20
63.893655
30
0.0
11
50.630220
21
71.070755
31
0.0
0
LINE
8
0
6
CONTINUOUS
10
-58.169270
20
106.496675
30
0.0
11
-65.088560
21
102.658615
31
0.0
0
LINE
8
0
6
CONTINUOUS
10
36.725290
20
90.221285
30
0.0
11
30.933530
21
95.613225
31
0.0
0
LINE
8
0
6
CONTINUOUS
10
-4.195050
20
113.004145
30
0.0
11
-11.995680
21
114.342195
31
0.0
0
LINE
8
0
6
CONTINUOUS
10
-65.088560
20
102.658615
30
0.0
11
-71.606640
21
98.170225
31
0.0
0
LINE
8
0
6
CONTINUOUS
10
-35.655830
20
113.788625
30
0.0
11
-43.383020
21
112.087665
31
0.0
0
LINE
8
0
6
CONTINUOUS
10
46.620380
20
77.892535
30
0.0
11
41.971320
21
84.296755
31
0.0
0
LINE
8
0
6
CONTINUOUS
10
56.588200
20
56.428365
30
0.0
11
53.963920
21
63.893655
31
0.0
0
LINE
8
0
6
CONTINUOUS
10
59.624620
20
40.914665
30
0.0
11
58.481160
21
48.744975
31
0.0
0
LINE
8
0
6
CONTINUOUS
10
-43.383020
20
112.087665
30
0.0
11
-50.911980
21
109.649985
31
0.0
0
LINE
8
0
6
CONTINUOUS
10
30.560520
20
-62.619055
30
0.0
11
29.034560
21
-62.599055
31
0.0
0
LINE
8
0
6
CONTINUOUS
10
29.034560
20
-97.562605
30
0.0
11
30.560520
21
-97.582595
31
0.0
0
LINE
8
0
6
CONTINUOUS
10
16.592250
20
-97.463445
30
0.0
11
26.752290
21
-97.532965
31
0.0
0
LINE
8
0
6
CONTINUOUS
10
26.752300
20
-62.569425
30
0.0
11
16.592250
21
-62.499905
31
0.0
0
LINE
8
0
6
CONTINUOUS
10
16.170060
20
-74.233165
30
0.0
11
16.170060
21
-74.943801
31
0.0
0
LINE
8
0
6
CONTINUOUS
10
16.170060
20
-77.084904
30
0.0
11
16.170060
21
-79.498585
31
0.0
0
LINE
8
0
6
CONTINUOUS
10
16.170060
20
-69.481085
30
0.0
11
16.170060
21
-70.654312
31
0.0
0
LINE
8
0
6
CONTINUOUS
10
16.170060
20
-72.727441
30
0.0
11
16.170060
21
-74.233165
31
0.0
0
LINE
8
0
6
CONTINUOUS
10
16.170060
20
-93.978405
30
0.0
11
16.170060
21
-94.689947
31
0.0
0
LINE
8
0
6
CONTINUOUS
10
16.170060
20
-95.327071
30
0.0
11
16.170060
21
-96.547975
31
0.0
0
LINE
8
0
6
CONTINUOUS
10
16.170060
20
-97.447995
30
0.0
11
16.592250
21
-97.463445
31
0.0
0
LINE
8
0
6
CONTINUOUS
10
16.170060
20
-96.547975
30
0.0
11
16.170060
21
-96.711742
31
0.0
0
LINE
8
0
6
CONTINUOUS
10
16.170060
20
-96.711742
30
0.0
11
16.170060
21
-97.447995
31
0.0
0
LINE
8
0
6
CONTINUOUS
10
16.592250
20
-62.499905
30
0.0
11
16.170060
21
-62.484455
31
0.0
0
LINE
8
0
6
CONTINUOUS
10
16.170060
20
-62.484455
30
0.0
11
16.170060
21
-63.059740
31
0.0
0
LINE
8
0
6
CONTINUOUS
10
16.170060
20
-63.200434
30
0.0
11
16.170060
21
-63.315815
31
0.0
0
LINE
8
0
6
CONTINUOUS
10
16.170060
20
-63.315815
30
0.0
11
16.170060
21
-64.416397
31
0.0
0
LINE
8
0
6
CONTINUOUS
10
16.170060
20
-65.198823
30
0.0
11
16.170060
21
-65.725825
31
0.0
0
LINE
8
0
6
CONTINUOUS
10
16.170060
20
-65.725825
30
0.0
11
16.170060
21
-67.001718
31
0.0
0
LINE
8
0
6
CONTINUOUS
10
16.170060
20
-68.366505
30
0.0
11
16.170060
21
-69.481085
31
0.0
0
LINE
8
0
6
CONTINUOUS
10
16.170060
20
-79.498585
30
0.0
11
16.170060
21
-82.268913
31
0.0
0
LINE
8
0
6
CONTINUOUS
10
16.170060
20
-84.560844
30
0.0
11
16.170060
21
-84.991255
31
0.0
0
LINE
8
0
6
CONTINUOUS
10
16.170060
20
-84.991255
30
0.0
11
16.170060
21
-87.054080
31
0.0
0
LINE
8
0
6
CONTINUOUS
10
16.170060
20
-88.916995
30
0.0
11
16.170060
21
-89.999045
31
0.0
0
LINE
8
0
6
CONTINUOUS
10
16.170060
20
-89.999045
30
0.0
11
16.170060
21
-91.504990
31
0.0
0
LINE
8
0
6
CONTINUOUS
10
16.170060
20
-92.679555
30
0.0
11
16.170060
21
-93.978405
31
0.0
0
LINE
8
0
6
CONTINUOUS
10
29.034560
20
-62.599055
30
0.0
11
26.752300
21
-62.569425
31
0.0
0
LINE
8
0
6
CONTINUOUS
10
26.752290
20
-97.532965
30
0.0
11
29.034560
21
-97.562605
31
0.0
0
LINE
8
0
6
CONTINUOUS
10
63.570090
20
-90.161645
30
0.0
11
63.570090
21
-85.153865
31
0.0
0
LINE
8
0
6
CONTINUOUS
10
32.249610
20
-97.610605
30
0.0
11
34.543660
21
-97.610605
31
0.0
0
LINE
8
0
6
CONTINUOUS
10
34.543660
20
-62.647065
30
0.0
11
32.249610
21
-62.647065
31
0.0
0
LINE
8
0
6
CONTINUOUS
10
63.570090
20
-97.610605
30
0.0
11
63.570090
21
-96.710575
31
0.0
0
LINE
8
0
6
CONTINUOUS
10
61.768650
20
-97.610605
30
0.0
11
63.570090
21
-97.610605
31
0.0
0
LINE
8
0
6
CONTINUOUS
10
63.570090
20
-69.643695
30
0.0
11
63.570090
21
-65.888435
31
0.0
0
LINE
8
0
6
CONTINUOUS
10
63.570090
20
-62.647065
30
0.0
11
61.768650
21
-62.647065
31
0.0
0
LINE
8
0
6
CONTINUOUS
10
63.570090
20
-63.478425
30
0.0
11
63.570090
21
-62.647065
31
0.0
0
LINE
8
0
6
CONTINUOUS
10
63.570090
20
-85.153865
30
0.0
11
63.570090
21
-79.661185
31
0.0
0
LINE
8
0
6
CONTINUOUS
10
63.570090
20
-96.710575
30
0.0
11
63.570090
21
-94.141005
31
0.0
0
LINE
8
0
6
CONTINUOUS
10
63.570090
20
-65.888435
30
0.0
11
63.570090
21
-63.478425
31
0.0
0
LINE
8
0
6
CONTINUOUS
10
63.570090
20
-74.395765
30
0.0
11
63.570090
21
-69.643695
31
0.0
0
LINE
8
0
6
CONTINUOUS
10
63.570090
20
-79.661185
30
0.0
11
63.570090
21
-74.395765
31
0.0
0
LINE
8
0
6
CONTINUOUS
10
63.570090
20
-94.141005
30
0.0
11
63.570090
21
-90.161645
31
0.0
0
LINE
8
0
6
CONTINUOUS
10
30.560520
20
-97.582595
30
0.0
11
32.249610
21
-97.610605
31
0.0
0
LINE
8
0
6
CONTINUOUS
10
32.249610
20
-62.647065
30
0.0
11
30.560520
21
-62.619055
31
0.0
0
LINE
8
0
6
CONTINUOUS
10
61.768650
20
-62.647065
30
0.0
11
34.543660
21
-62.647065
31
0.0
0
LINE
8
0
6
CONTINUOUS
10
34.543660
20
-97.610605
30
0.0
11
61.768650
21
-97.610605
31
0.0
0
LINE
8
0
6
CONTINUOUS
10
16.170070
20
-88.620975
30
0.0
11
16.170070
21
-87.050580
31
0.0
0
LINE
8
0
6
CONTINUOUS
10
16.170070
20
-84.562712
30
0.0
11
16.170070
21
-84.433415
31
0.0
0
LINE
8
0
6
CONTINUOUS
10
16.170070
20
-84.433415
30
0.0
11
16.170070
21
-82.284968
31
0.0
0
LINE
8
0
6
CONTINUOUS
10
16.169510
20
-92.223735
30
0.0
11
16.169618
21
-91.505634
31
0.0
0
LINE
8
0
6
CONTINUOUS
10
16.170070
20
-95.327588
30
0.0
11
16.170070
21
-94.976175
31
0.0
0
LINE
8
0
6
CONTINUOUS
10
15.627040
20
-97.218355
30
0.0
11
16.170070
21
-97.302355
31
0.0
0
LINE
8
0
6
CONTINUOUS
10
16.170070
20
-94.976175
30
0.0
11
16.170010
21
-94.690009
31
0.0
0
LINE
8
0
6
CONTINUOUS
10
16.169599
20
-92.678818
30
0.0
11
16.169510
21
-92.223735
31
0.0
0
LINE
8
0
6
CONTINUOUS
10
16.170070
20
-75.445745
30
0.0
11
16.170070
21
-74.941703
31
0.0
0
LINE
8
0
6
CONTINUOUS
10
16.170070
20
-72.729226
30
0.0
11
16.170070
21
-71.258185
31
0.0
0
LINE
8
0
6
CONTINUOUS
10
16.170070
20
-77.082017
30
0.0
11
16.170070
21
-75.445745
31
0.0
0
LINE
8
0
6
CONTINUOUS
10
16.170070
20
-71.258185
30
0.0
11
16.169976
21
-70.654540
31
0.0
0
LINE
8
0
6
CONTINUOUS
10
16.169620
20
-68.365859
30
0.0
11
16.169510
21
-67.655425
31
0.0
0
LINE
8
0
6
CONTINUOUS
10
16.170070
20
-64.902985
30
0.0
11
16.170070
21
-64.415541
31
0.0
0
LINE
8
0
6
CONTINUOUS
10
16.170070
20
-62.576805
30
0.0
11
15.627040
21
-62.660805
31
0.0
0
LINE
8
0
6
CONTINUOUS
10
16.170070
20
-63.168435
30
0.0
11
16.170070
21
-63.060368
31
0.0
0
LINE
8
0
6
CONTINUOUS
10
16.169510
20
-67.655425
30
0.0
11
16.169638
21
-67.002545
31
0.0
0
LINE
8
0
6
CONTINUOUS
10
-7.159500
20
-49.216765
30
0.0
11
-7.386680
21
-49.216765
31
0.0
0
LINE
8
0
6
CONTINUOUS
10
-14.329890
20
-71.860635
30
0.0
11
-14.329890
21
-73.827025
31
0.0
0
LINE
8
0
6
CONTINUOUS
10
-14.329890
20
-50.670015
30
0.0
11
-14.329890
21
-52.749795
31
0.0
0
LINE
8
0
6
CONTINUOUS
10
-13.679680
20
-52.750265
30
0.0
11
-13.679790
21
-50.443445
31
0.0
0
LINE
8
0
6
CONTINUOUS
10
-14.329890
20
-50.253995
30
0.0
11
-14.329890
21
-50.670015
31
0.0
0
LINE
8
0
6
CONTINUOUS
10
-13.679790
20
-50.443445
30
0.0
11
-13.679850
21
-49.818145
31
0.0
0
LINE
8
0
6
CONTINUOUS
10
-13.679850
20
-49.818145
30
0.0
11
-12.878030
21
-49.784845
31
0.0
0
LINE
8
0
6
CONTINUOUS
10
-14.329890
20
-49.905675
30
0.0
11
-14.329890
21
-50.253995
31
0.0
0
LINE
8
0
6
CONTINUOUS
10
-13.679850
20
-49.818145
30
0.0
11
-13.679880
21
-49.363735
31
0.0
0
LINE
8
0
6
CONTINUOUS
10
-13.679880
20
-49.363735
30
0.0
11
-12.878090
21
-49.286885
31
0.0
0
LINE
8
0
6
CONTINUOUS
10
-12.877870
20
-49.216755
30
0.0
11
-13.679780
21
-49.297025
31
0.0
0
LINE
8
0
6
CONTINUOUS
10
-13.679880
20
-49.363735
30
0.0
11
-13.679780
21
-49.297025
31
0.0
0
LINE
8
0
6
CONTINUOUS
10
-13.679780
20
-49.297025
30
0.0
11
-14.329890
21
-49.866945
31
0.0
0
LINE
8
0
6
CONTINUOUS
10
-13.679740
20
-69.320125
30
0.0
11
-13.679890
21
-66.711305
31
0.0
0
LINE
8
0
6
CONTINUOUS
10
-14.329890
20
-66.713755
30
0.0
11
-14.329890
21
-69.331045
31
0.0
0
LINE
8
0
6
CONTINUOUS
10
-13.679720
20
-56.289335
30
0.0
11
-13.679680
21
-52.750265
31
0.0
0
LINE
8
0
6
CONTINUOUS
10
-14.329890
20
-52.749795
30
0.0
11
-14.329890
21
-56.288625
31
0.0
0
LINE
8
0
6
CONTINUOUS
10
-13.679730
20
-59.827835
30
0.0
11
-13.679720
21
-56.289335
31
0.0
0
LINE
8
0
6
CONTINUOUS
10
-14.329890
20
-56.288625
30
0.0
11
-14.329890
21
-59.826965
31
0.0
0
LINE
8
0
6
CONTINUOUS
10
-13.679690
20
-63.365815
30
0.0
11
-13.679730
21
-59.827835
31
0.0
0
LINE
8
0
6
CONTINUOUS
10
-14.329890
20
-59.826965
30
0.0
11
-14.329890
21
-63.365155
31
0.0
0
LINE
8
0
6
CONTINUOUS
10
-13.679890
20
-66.711305
30
0.0
11
-13.679690
21
-63.365815
31
0.0
0
LINE
8
0
6
CONTINUOUS
10
-14.329890
20
-63.365155
30
0.0
11
-14.329890
21
-66.713755
31
0.0
0
LINE
8
0
6
CONTINUOUS
10
-14.329890
20
-69.331045
30
0.0
11
-14.329890
21
-71.860635
31
0.0
0
LINE
8
0
6
CONTINUOUS
10
-5.736190
20
-50.481155
30
0.0
11
-5.882030
21
-49.782865
31
0.0
0
LINE
8
0
6
CONTINUOUS
10
-6.205690
20
-49.784815
30
0.0
11
-5.882030
21
-49.782865
31
0.0
0
LINE
8
0
6
CONTINUOUS
10
-5.882030
20
-49.782865
30
0.0
11
-6.440600
21
-49.286645
31
0.0
0
LINE
8
0
6
CONTINUOUS
10
-6.713450
20
-49.286885
30
0.0
11
-6.440600
21
-49.286645
31
0.0
0
LINE
8
0
6
CONTINUOUS
10
-7.159500
20
-49.216765
30
0.0
11
-7.386670
21
-49.216765
31
0.0
0
LINE
8
0
6
CONTINUOUS
10
-6.440600
20
-49.286645
30
0.0
11
-7.159500
21
-49.216765
31
0.0
0
LINE
8
0
6
CONTINUOUS
10
-8.764360
20
-49.785385
30
0.0
11
-7.216420
21
-49.785195
31
0.0
0
LINE
8
0
6
CONTINUOUS
10
-8.980930
20
-49.286965
30
0.0
11
-7.604580
21
-49.286935
31
0.0
0
LINE
8
0
6
CONTINUOUS
10
-8.119390
20
-49.216755
30
0.0
11
-9.267230
21
-49.216775
31
0.0
0
LINE
8
0
6
CONTINUOUS
10
-12.449800
20
-49.784945
30
0.0
11
-10.584620
21
-49.785425
31
0.0
0
LINE
8
0
6
CONTINUOUS
10
-12.494590
20
-49.286895
30
0.0
11
-10.683690
21
-49.286935
31
0.0
0
LINE
8
0
6
CONTINUOUS
10
-10.808970
20
-49.216705
30
0.0
11
-12.551590
21
-49.216755
31
0.0
0
LINE
8
0
6
CONTINUOUS
10
-10.584620
20
-49.785425
30
0.0
11
-8.764360
21
-49.785385
31
0.0
0
LINE
8
0
6
CONTINUOUS
10
-10.683690
20
-49.286935
30
0.0
11
-8.980930
21
-49.286965
31
0.0
0
LINE
8
0
6
CONTINUOUS
10
-9.267230
20
-49.216775
30
0.0
11
-10.808970
21
-49.216705
31
0.0
0
LINE
8
0
6
CONTINUOUS
10
-12.551590
20
-49.216755
30
0.0
11
-12.877870
21
-49.216755
31
0.0
0
LINE
8
0
6
CONTINUOUS
10
-12.494590
20
-49.286895
30
0.0
11
-12.878090
21
-49.286885
31
0.0
0
LINE
8
0
6
CONTINUOUS
10
-7.216420
20
-49.785195
30
0.0
11
-6.205690
21
-49.784815
31
0.0
0
LINE
8
0
6
CONTINUOUS
10
-7.604580
20
-49.286935
30
0.0
11
-6.713450
21
-49.286885
31
0.0
0
LINE
8
0
6
CONTINUOUS
10
-7.386670
20
-49.216765
30
0.0
11
-8.119390
21
-49.216755
31
0.0
0
LINE
8
0
6
CONTINUOUS
10
-12.449800
20
-49.784945
30
0.0
11
-12.878030
21
-49.784845
31
0.0
0
LINE
8
0
6
CONTINUOUS
10
-5.573980
20
-51.998835
30
0.0
11
-5.736190
21
-50.481155
31
0.0
0
LINE
8
0
6
CONTINUOUS
10
13.067240
20
-63.056815
30
0.0
11
10.318260
21
-63.574635
31
0.0
0
LINE
8
0
6
CONTINUOUS
10
-5.312380
20
-54.789135
30
0.0
11
-5.573980
21
-51.998835
31
0.0
0
LINE
8
0
6
CONTINUOUS
10
-4.846730
20
-57.552755
30
0.0
11
-5.312380
21
-54.789135
31
0.0
0
LINE
8
0
6
CONTINUOUS
10
-4.387790
20
-60.317475
30
0.0
11
-4.846730
21
-57.552755
31
0.0
0
LINE
8
0
6
CONTINUOUS
10
-3.000390
20
-62.731235
30
0.0
11
-4.387790
21
-60.317475
31
0.0
0
LINE
8
0
6
CONTINUOUS
10
-0.712090
20
-64.322695
30
0.0
11
-3.000390
21
-62.731235
31
0.0
0
LINE
8
0
6
CONTINUOUS
10
-3.000390
20
-62.731235
30
0.0
11
-3.499890
21
-64.332545
31
0.0
0
LINE
8
0
6
CONTINUOUS
10
2.033780
20
-64.830425
30
0.0
11
-0.712090
21
-64.322695
31
0.0
0
LINE
8
0
6
CONTINUOUS
10
4.820010
20
-64.611285
30
0.0
11
2.033780
21
-64.830425
31
0.0
0
LINE
8
0
6
CONTINUOUS
10
7.574050
20
-64.117815
30
0.0
11
4.820010
21
-64.611285
31
0.0
0
LINE
8
0
6
CONTINUOUS
10
10.318260
20
-63.574635
30
0.0
11
7.574050
21
-64.117815
31
0.0
0
LINE
8
0
6
CONTINUOUS
10
-3.499890
20
-64.332545
30
0.0
11
-3.513620
21
-67.475705
31
0.0
0
LINE
8
0
6
CONTINUOUS
10
15.627040
20
-62.660805
30
0.0
11
13.067240
21
-63.056815
31
0.0
0
LINE
8
0
6
CONTINUOUS
10
-13.679690
20
-79.939575
30
0.0
11
-13.679780
21
-76.049655
31
0.0
0
LINE
8
0
6
CONTINUOUS
10
-14.329890
20
-76.062775
30
0.0
11
-14.329890
21
-79.939575
31
0.0
0
LINE
8
0
6
CONTINUOUS
10
-12.877890
20
-74.853515
30
0.0
11
-13.679790
21
-74.920995
31
0.0
0
LINE
8
0
6
CONTINUOUS
10
-13.679790
20
-74.920995
30
0.0
11
-14.329890
21
-75.473785
31
0.0
0
LINE
8
0
6
CONTINUOUS
10
-12.878030
20
-74.891895
30
0.0
11
-13.679850
21
-74.952185
31
0.0
0
LINE
8
0
6
CONTINUOUS
10
-13.679880
20
-75.384755
30
0.0
11
-13.679850
21
-74.952185
31
0.0
0
LINE
8
0
6
CONTINUOUS
10
-14.329890
20
-75.473785
30
0.0
11
-14.329890
21
-75.649625
31
0.0
0
LINE
8
0
6
CONTINUOUS
10
-12.878090
20
-75.368275
30
0.0
11
-13.679880
21
-75.384755
31
0.0
0
LINE
8
0
6
CONTINUOUS
10
-13.679780
20
-76.049655
30
0.0
11
-13.679880
21
-75.384755
31
0.0
0
LINE
8
0
6
CONTINUOUS
10
-14.329890
20
-75.649625
30
0.0
11
-14.329890
21
-76.062775
31
0.0
0
LINE
8
0
6
CONTINUOUS
10
-13.679890
20
-74.436535
30
0.0
11
-13.679740
21
-73.237445
31
0.0
0
LINE
8
0
6
CONTINUOUS
10
-14.329890
20
-73.827025
30
0.0
11
-14.329890
21
-75.050765
31
0.0
0
LINE
8
0
6
CONTINUOUS
10
-13.679690
20
-74.951555
30
0.0
11
-13.679890
21
-74.436535
31
0.0
0
LINE
8
0
6
CONTINUOUS
10
-14.329890
20
-75.050765
30
0.0
11
-14.329890
21
-75.550585
31
0.0
0
LINE
8
0
6
CONTINUOUS
10
-5.882030
20
-79.939575
30
0.0
11
-6.205690
21
-78.117985
31
0.0
0
LINE
8
0
6
CONTINUOUS
10
-6.440610
20
-79.939575
30
0.0
11
-6.713460
21
-78.301935
31
0.0
0
LINE
8
0
6
CONTINUOUS
10
-7.216420
20
-76.581265
30
0.0
11
-8.764360
21
-75.545005
31
0.0
0
LINE
8
0
6
CONTINUOUS
10
-7.604580
20
-76.935995
30
0.0
11
-8.980930
21
-76.001355
31
0.0
0
LINE
8
0
6
CONTINUOUS
10
-10.556540
20
-75.064295
30
0.0
11
-12.437480
21
-74.861605
31
0.0
0
LINE
8
0
6
CONTINUOUS
10
-10.584620
20
-75.129865
30
0.0
11
-12.449800
21
-74.901795
31
0.0
0
LINE
8
0
6
CONTINUOUS
10
-10.683700
20
-75.618765
30
0.0
11
-12.494590
21
-75.378435
31
0.0
0
LINE
8
0
6
CONTINUOUS
10
-8.764360
20
-75.545005
30
0.0
11
-10.584620
21
-75.129865
31
0.0
0
LINE
8
0
6
CONTINUOUS
10
-8.980930
20
-76.001355
30
0.0
11
-10.683700
21
-75.618765
31
0.0
0
LINE
8
0
6
CONTINUOUS
10
-12.878090
20
-75.368275
30
0.0
11
-12.494590
21
-75.378435
31
0.0
0
LINE
8
0
6
CONTINUOUS
10
-6.205690
20
-78.117985
30
0.0
11
-7.216420
21
-76.581265
31
0.0
0
LINE
8
0
6
CONTINUOUS
10
-6.713460
20
-78.301935
30
0.0
11
-7.604580
21
-76.935995
31
0.0
0
LINE
8
0
6
CONTINUOUS
10
-12.437480
20
-74.861605
30
0.0
11
-12.877890
21
-74.853515
31
0.0
0
LINE
8
0
6
CONTINUOUS
10
-12.878030
20
-74.891895
30
0.0
11
-12.449800
21
-74.901795
31
0.0
0
LINE
8
0
6
CONTINUOUS
10
-10.505550
20
-75.076125
30
0.0
11
-10.556540
21
-75.064295
31
0.0
0
LINE
8
0
6
CONTINUOUS
10
-8.715370
20
-75.492845
30
0.0
11
-10.505550
21
-75.076125
31
0.0
0
LINE
8
0
6
CONTINUOUS
10
-3.499890
20
-76.102585
30
0.0
11
-3.000390
21
-79.939575
31
0.0
0
LINE
8
0
6
CONTINUOUS
10
-3.513620
20
-73.340265
30
0.0
11
-3.499890
21
-76.102585
31
0.0
0
LINE
8
0
6
CONTINUOUS
10
-14.329890
20
-86.052125
30
0.0
11
-14.329890
21
-88.018525
31
0.0
0
LINE
8
0
6
CONTINUOUS
10
-13.679790
20
-109.435715
30
0.0
11
-13.679690
21
-107.128895
31
0.0
0
LINE
8
0
6
CONTINUOUS
10
-14.329890
20
-107.129355
30
0.0
11
-14.329890
21
-109.209145
31
0.0
0
LINE
8
0
6
CONTINUOUS
10
-13.679860
20
-110.061005
30
0.0
11
-13.679790
21
-109.435715
31
0.0
0
LINE
8
0
6
CONTINUOUS
10
-14.329890
20
-109.209145
30
0.0
11
-14.329890
21
-109.625165
31
0.0
0
LINE
8
0
6
CONTINUOUS
10
-12.878030
20
-110.094305
30
0.0
11
-13.679860
21
-110.061005
31
0.0
0
LINE
8
0
6
CONTINUOUS
10
-13.679890
20
-110.515425
30
0.0
11
-13.679860
21
-110.061005
31
0.0
0
LINE
8
0
6
CONTINUOUS
10
-14.329890
20
-109.625165
30
0.0
11
-14.329890
21
-109.973475
31
0.0
0
LINE
8
0
6
CONTINUOUS
10
-12.878100
20
-110.592265
30
0.0
11
-13.679890
21
-110.515425
31
0.0
0
LINE
8
0
6
CONTINUOUS
10
-13.679780
20
-110.582135
30
0.0
11
-12.877880
21
-110.662395
31
0.0
0
LINE
8
0
6
CONTINUOUS
10
-13.679780
20
-110.582135
30
0.0
11
-13.679890
21
-110.515425
31
0.0
0
LINE
8
0
6
CONTINUOUS
10
-14.329890
20
-110.012205
30
0.0
11
-13.679780
21
-110.582135
31
0.0
0
LINE
8
0
6
CONTINUOUS
10
-13.679890
20
-93.167855
30
0.0
11
-13.679740
21
-90.559025
31
0.0
0
LINE
8
0
6
CONTINUOUS
10
-14.329890
20
-90.548115
30
0.0
11
-14.329890
21
-93.165405
31
0.0
0
LINE
8
0
6
CONTINUOUS
10
-13.679690
20
-107.128895
30
0.0
11
-13.679720
21
-103.589825
31
0.0
0
LINE
8
0
6
CONTINUOUS
10
-14.329890
20
-103.590535
30
0.0
11
-14.329890
21
-107.129355
31
0.0
0
LINE
8
0
6
CONTINUOUS
10
-13.679720
20
-103.589825
30
0.0
11
-13.679730
21
-100.051315
31
0.0
0
LINE
8
0
6
CONTINUOUS
10
-14.329890
20
-100.052195
30
0.0
11
-14.329890
21
-103.590535
31
0.0
0
LINE
8
0
6
CONTINUOUS
10
-13.679730
20
-100.051315
30
0.0
11
-13.679690
21
-96.513335
31
0.0
0
LINE
8
0
6
CONTINUOUS
10
-14.329890
20
-96.514005
30
0.0
11
-14.329890
21
-100.052195
31
0.0
0
LINE
8
0
6
CONTINUOUS
10
-13.679690
20
-96.513335
30
0.0
11
-13.679890
21
-93.167855
31
0.0
0
LINE
8
0
6
CONTINUOUS
10
-14.329890
20
-93.165405
30
0.0
11
-14.329890
21
-96.514005
31
0.0
0
LINE
8
0
6
CONTINUOUS
10
-14.329890
20
-88.018525
30
0.0
11
-14.329890
21
-90.548115
31
0.0
0
LINE
8
0
6
CONTINUOUS
10
-5.882040
20
-110.096295
30
0.0
11
-5.736200
21
-109.398005
31
0.0
0
LINE
8
0
6
CONTINUOUS
10
-5.882040
20
-110.096295
30
0.0
11
-6.205690
21
-110.094335
31
0.0
0
LINE
8
0
6
CONTINUOUS
10
-6.440610
20
-110.592505
30
0.0
11
-5.882040
21
-110.096295
31
0.0
0
LINE
8
0
6
CONTINUOUS
10
-6.440610
20
-110.592505
30
0.0
11
-6.713460
21
-110.592265
31
0.0
0
LINE
8
0
6
CONTINUOUS
10
-7.159510
20
-110.662395
30
0.0
11
-6.440610
21
-110.592505
31
0.0
0
LINE
8
0
6
CONTINUOUS
10
-7.386680
20
-110.662385
30
0.0
11
-7.159510
21
-110.662395
31
0.0
0
LINE
8
0
6
CONTINUOUS
10
-7.216420
20
-110.093965
30
0.0
11
-8.764360
21
-110.093775
31
0.0
0
LINE
8
0
6
CONTINUOUS
10
-7.604590
20
-110.592225
30
0.0
11
-8.980930
21
-110.592195
31
0.0
0
LINE
8
0
6
CONTINUOUS
10
-10.584630
20
-110.093735
30
0.0
11
-12.449800
21
-110.094215
31
0.0
0
LINE
8
0
6
CONTINUOUS
10
-10.683700
20
-110.592215
30
0.0
11
-12.494590
21
-110.592255
31
0.0
0
LINE
8
0
6
CONTINUOUS
10
-12.551590
20
-110.662395
30
0.0
11
-10.808980
21
-110.662445
31
0.0
0
LINE
8
0
6
CONTINUOUS
10
-8.764360
20
-110.093775
30
0.0
11
-10.584630
21
-110.093735
31
0.0
0
LINE
8
0
6
CONTINUOUS
10
-8.980930
20
-110.592195
30
0.0
11
-10.683700
21
-110.592215
31
0.0
0
LINE
8
0
6
CONTINUOUS
10
-10.808980
20
-110.662445
30
0.0
11
-9.267240
21
-110.662375
31
0.0
0
LINE
8
0
6
CONTINUOUS
10
-12.877880
20
-110.662395
30
0.0
11
-12.551590
21
-110.662395
31
0.0
0
LINE
8
0
6
CONTINUOUS
10
-12.878100
20
-110.592265
30
0.0
11
-12.494590
21
-110.592255
31
0.0
0
LINE
8
0
6
CONTINUOUS
10
-6.205690
20
-110.094335
30
0.0
11
-7.216420
21
-110.093965
31
0.0
0
LINE
8
0
6
CONTINUOUS
10
-6.713460
20
-110.592265
30
0.0
11
-7.604590
21
-110.592225
31
0.0
0
LINE
8
0
6
CONTINUOUS
10
-8.119400
20
-110.662405
30
0.0
11
-7.386680
21
-110.662385
31
0.0
0
LINE
8
0
6
CONTINUOUS
10
-12.878030
20
-110.094305
30
0.0
11
-12.449800
21
-110.094215
31
0.0
0
LINE
8
0
6
CONTINUOUS
10
-5.736200
20
-109.398005
30
0.0
11
-5.573980
21
-107.880325
31
0.0
0
LINE
8
0
6
CONTINUOUS
10
10.318260
20
-96.304525
30
0.0
11
13.067240
21
-96.822345
31
0.0
0
LINE
8
0
6
CONTINUOUS
10
-5.573980
20
-107.880325
30
0.0
11
-5.312390
21
-105.090015
31
0.0
0
LINE
8
0
6
CONTINUOUS
10
-5.312390
20
-105.090015
30
0.0
11
-4.846730
21
-102.326405
31
0.0
0
LINE
8
0
6
CONTINUOUS
10
-4.846730
20
-102.326405
30
0.0
11
-4.387800
21
-99.561685
31
0.0
0
LINE
8
0
6
CONTINUOUS
10
-4.387800
20
-99.561685
30
0.0
11
-3.000390
21
-97.147925
31
0.0
0
LINE
8
0
6
CONTINUOUS
10
-3.499890
20
-95.546605
30
0.0
11
-3.000390
21
-97.147925
31
0.0
0
LINE
8
0
6
CONTINUOUS
10
-3.000390
20
-97.147925
30
0.0
11
-0.712090
21
-95.556465
31
0.0
0
LINE
8
0
6
CONTINUOUS
10
-0.712090
20
-95.556465
30
0.0
11
2.033780
21
-95.048735
31
0.0
0
LINE
8
0
6
CONTINUOUS
10
2.033780
20
-95.048735
30
0.0
11
4.820010
21
-95.267875
31
0.0
0
LINE
8
0
6
CONTINUOUS
10
4.820010
20
-95.267875
30
0.0
11
7.574050
21
-95.761345
31
0.0
0
LINE
8
0
6
CONTINUOUS
10
7.574050
20
-95.761345
30
0.0
11
10.318260
21
-96.304525
31
0.0
0
LINE
8
0
6
CONTINUOUS
10
-3.513620
20
-92.403445
30
0.0
11
-3.499890
21
-95.546605
31
0.0
0
LINE
8
0
6
CONTINUOUS
10
13.067240
20
-96.822345
30
0.0
11
15.627040
21
-97.218355
31
0.0
0
LINE
8
0
6
CONTINUOUS
10
-13.679780
20
-83.829505
30
0.0
11
-13.679690
21
-79.939575
31
0.0
0
LINE
8
0
6
CONTINUOUS
10
-14.329890
20
-79.939575
30
0.0
11
-14.329890
21
-83.816385
31
0.0
0
LINE
8
0
6
CONTINUOUS
10
-13.679790
20
-84.958155
30
0.0
11
-12.877890
21
-85.025645
31
0.0
0
LINE
8
0
6
CONTINUOUS
10
-14.329890
20
-84.405365
30
0.0
11
-13.679790
21
-84.958155
31
0.0
0
LINE
8
0
6
CONTINUOUS
10
-13.679860
20
-84.926965
30
0.0
11
-12.878030
21
-84.987265
31
0.0
0
LINE
8
0
6
CONTINUOUS
10
-14.329890
20
-84.229525
30
0.0
11
-14.329890
21
-84.405365
31
0.0
0
LINE
8
0
6
CONTINUOUS
10
-13.679860
20
-84.926965
30
0.0
11
-13.679880
21
-84.494405
31
0.0
0
LINE
8
0
6
CONTINUOUS
10
-13.679880
20
-84.494405
30
0.0
11
-12.878090
21
-84.510885
31
0.0
0
LINE
8
0
6
CONTINUOUS
10
-13.679880
20
-84.494405
30
0.0
11
-13.679780
21
-83.829505
31
0.0
0
LINE
8
0
6
CONTINUOUS
10
-14.329890
20
-83.816385
30
0.0
11
-14.329890
21
-84.229525
31
0.0
0
LINE
8
0
6
CONTINUOUS
10
-13.679740
20
-86.641715
30
0.0
11
-13.679890
21
-85.442625
31
0.0
0
LINE
8
0
6
CONTINUOUS
10
-14.329890
20
-84.828395
30
0.0
11
-14.329890
21
-86.052125
31
0.0
0
LINE
8
0
6
CONTINUOUS
10
-13.679890
20
-85.442625
30
0.0
11
-13.679690
21
-84.927595
31
0.0
0
LINE
8
0
6
CONTINUOUS
10
-14.329890
20
-84.328565
30
0.0
11
-14.329890
21
-84.828395
31
0.0
0
LINE
8
0
6
CONTINUOUS
10
-6.205690
20
-81.761165
30
0.0
11
-5.882030
21
-79.939575
31
0.0
0
LINE
8
0
6
CONTINUOUS
10
-6.713460
20
-81.577215
30
0.0
11
-6.440610
21
-79.939575
31
0.0
0
LINE
8
0
6
CONTINUOUS
10
-8.764360
20
-84.334155
30
0.0
11
-7.216420
21
-83.297895
31
0.0
0
LINE
8
0
6
CONTINUOUS
10
-8.980930
20
-83.877795
30
0.0
11
-7.604580
21
-82.943155
31
0.0
0
LINE
8
0
6
CONTINUOUS
10
-12.437480
20
-85.017555
30
0.0
11
-10.556540
21
-84.814865
31
0.0
0
LINE
8
0
6
CONTINUOUS
10
-12.449800
20
-84.977365
30
0.0
11
-10.584630
21
-84.749295
31
0.0
0
LINE
8
0
6
CONTINUOUS
10
-12.494590
20
-84.500715
30
0.0
11
-10.683700
21
-84.260395
31
0.0
0
LINE
8
0
6
CONTINUOUS
10
-10.584630
20
-84.749295
30
0.0
11
-8.764360
21
-84.334155
31
0.0
0
LINE
8
0
6
CONTINUOUS
10
-10.683700
20
-84.260395
30
0.0
11
-8.980930
21
-83.877795
31
0.0
0
LINE
8
0
6
CONTINUOUS
10
-12.494590
20
-84.500715
30
0.0
11
-12.878090
21
-84.510885
31
0.0
0
LINE
8
0
6
CONTINUOUS
10
-7.216420
20
-83.297895
30
0.0
11
-6.205690
21
-81.761165
31
0.0
0
LINE
8
0
6
CONTINUOUS
10
-7.604580
20
-82.943155
30
0.0
11
-6.713460
21
-81.577215
31
0.0
0
LINE
8
0
6
CONTINUOUS
10
-12.877890
20
-85.025645
30
0.0
11
-12.437480
21
-85.017555
31
0.0
0
LINE
8
0
6
CONTINUOUS
10
-12.449800
20
-84.977365
30
0.0
11
-12.878030
21
-84.987265
31
0.0
0
LINE
8
0
6
CONTINUOUS
10
-10.505550
20
-84.803025
30
0.0
11
-8.715370
21
-84.386315
31
0.0
0
LINE
8
0
6
CONTINUOUS
10
-10.556540
20
-84.814865
30
0.0
11
-10.505550
21
-84.803025
31
0.0
0
LINE
8
0
6
CONTINUOUS
10
-3.000390
20
-79.939575
30
0.0
11
-4.387800
21
-79.939575
31
0.0
0
LINE
8
0
6
CONTINUOUS
10
-3.000390
20
-79.939575
30
0.0
11
-3.499890
21
-83.776565
31
0.0
0
LINE
8
0
6
CONTINUOUS
10
-3.499890
20
-83.776565
30
0.0
11
-3.513620
21
-86.538885
31
0.0
0
LINE
8
0
6
CONTINUOUS
10
-7.159500
20
-49.216765
30
0.0
11
-7.386680
21
-49.216765
31
0.0
0
LINE
8
0
6
CONTINUOUS
10
-7.159500
20
-49.216765
30
0.0
11
-7.386670
21
-49.216765
31
0.0
0
LINE
8
0
6
CONTINUOUS
10
7.574050
20
-64.117815
30
0.0
11
4.820010
21
-64.611285
31
0.0
0
LINE
8
0
6
CONTINUOUS
10
10.318260
20
-63.574635
30
0.0
11
7.574050
21
-64.117815
31
0.0
0
LINE
8
0
6
CONTINUOUS
10
4.820010
20
-95.267875
30
0.0
11
7.574050
21
-95.761345
31
0.0
0
LINE
8
0
6
CONTINUOUS
10
7.574050
20
-95.761345
30
0.0
11
10.318260
21
-96.304525
31
0.0
0
LINE
8
0
6
CONTINUOUS
10
64.574083
20
-70.088265
30
0.0
11
63.570090
21
-70.088265
31
0.0
0
LINE
8
0
6
CONTINUOUS
10
101.661130
20
-114.921335
30
0.0
11
102.048880
21
-114.921335
31
0.0
0
LINE
8
0
6
CONTINUOUS
10
100.523760
20
-45.454925
30
0.0
11
100.200930
21
-45.803045
31
0.0
0
LINE
8
0
6
CONTINUOUS
10
100.200960
20
-114.075815
30
0.0
11
100.523780
21
-114.423935
31
0.0
0
LINE
8
0
6
CONTINUOUS
10
102.048860
20
-44.957515
30
0.0
11
101.661100
21
-44.957515
31
0.0
0
LINE
8
0
6
CONTINUOUS
10
106.634850
20
-44.957515
30
0.0
11
102.048860
21
-44.957515
31
0.0
0
LINE
8
0
6
CONTINUOUS
10
102.048880
20
-114.921335
30
0.0
11
106.634880
21
-114.921335
31
0.0
0
LINE
8
0
6
CONTINUOUS
10
107.070040
20
-44.957515
30
0.0
11
106.634850
21
-44.957515
31
0.0
0
LINE
8
0
6
CONTINUOUS
10
107.070020
20
-52.589475
30
0.0
11
107.070020
21
-48.421825
31
0.0
0
LINE
8
0
6
CONTINUOUS
10
107.070010
20
-58.128575
30
0.0
11
107.070020
21
-52.589475
31
0.0
0
LINE
8
0
6
CONTINUOUS
10
107.070020
20
-64.761365
30
0.0
11
107.070010
21
-58.128575
31
0.0
0
LINE
8
0
6
CONTINUOUS
10
107.070010
20
-72.155245
30
0.0
11
107.070020
21
-64.761365
31
0.0
0
LINE
8
0
6
CONTINUOUS
10
107.070020
20
-79.939455
30
0.0
11
107.070010
21
-72.155245
31
0.0
0
LINE
8
0
6
CONTINUOUS
10
107.070020
20
-87.723665
30
0.0
11
107.070020
21
-79.939455
31
0.0
0
LINE
8
0
6
CONTINUOUS
10
107.070020
20
-95.117545
30
0.0
11
107.070020
21
-87.723665
31
0.0
0
LINE
8
0
6
CONTINUOUS
10
107.070030
20
-101.750325
30
0.0
11
107.070020
21
-95.117545
31
0.0
0
LINE
8
0
6
CONTINUOUS
10
107.070040
20
-107.289405
30
0.0
11
107.070030
21
-101.750325
31
0.0
0
LINE
8
0
6
CONTINUOUS
10
107.070040
20
-111.457055
30
0.0
11
107.070040
21
-107.289405
31
0.0
0
LINE
8
0
6
CONTINUOUS
10
106.634880
20
-114.921335
30
0.0
11
107.070060
21
-114.921335
31
0.0
0
LINE
8
0
6
CONTINUOUS
10
101.661100
20
-44.957515
30
0.0
11
101.047940
21
-45.104495
31
0.0
0
LINE
8
0
6
CONTINUOUS
10
101.047940
20
-45.104495
30
0.0
11
100.523760
21
-45.454925
31
0.0
0
LINE
8
0
6
CONTINUOUS
10
101.047970
20
-114.774365
30
0.0
11
101.661130
21
-114.921335
31
0.0
0
LINE
8
0
6
CONTINUOUS
10
100.523780
20
-114.423935
30
0.0
11
101.047970
21
-114.774365
31
0.0
0
LINE
8
0
6
CONTINUOUS
10
100.200930
20
-45.803045
30
0.0
11
82.408070
21
-64.990155
31
0.0
0
LINE
8
0
6
CONTINUOUS
10
82.506072
20
-94.994395
30
0.0
11
100.200960
21
-114.075815
31
0.0
0
LINE
8
0
6
CONTINUOUS
10
82.182940
20
-65.232925
30
0.0
11
82.182940
21
-65.601645
31
0.0
0
LINE
8
0
6
CONTINUOUS
10
82.408070
20
-64.990155
30
0.0
11
82.182940
21
-65.232925
31
0.0
0
LINE
8
0
6
CONTINUOUS
10
82.182940
20
-65.601645
30
0.0
11
82.182940
21
-66.689335
31
0.0
0
LINE
8
0
6
CONTINUOUS
10
82.182940
20
-66.689335
30
0.0
11
82.182940
21
-68.441435
31
0.0
0
LINE
8
0
6
CONTINUOUS
10
82.182940
20
-68.441435
30
0.0
11
82.182930
21
-70.770085
31
0.0
0
LINE
8
0
6
CONTINUOUS
10
82.182940
20
-73.558535
30
0.0
11
82.182930
21
-76.666945
31
0.0
0
LINE
8
0
6
CONTINUOUS
10
82.182930
20
-76.666945
30
0.0
11
82.182930
21
-79.939455
31
0.0
0
LINE
8
0
6
CONTINUOUS
10
82.182930
20
-79.939455
30
0.0
11
82.182940
21
-83.211955
31
0.0
0
LINE
8
0
6
CONTINUOUS
10
82.182940
20
-83.211955
30
0.0
11
82.182940
21
-86.320375
31
0.0
0
LINE
8
0
6
CONTINUOUS
10
82.182940
20
-86.320375
30
0.0
11
82.182940
21
-89.108815
31
0.0
0
LINE
8
0
6
CONTINUOUS
10
82.182940
20
-89.108815
30
0.0
11
82.182940
21
-89.541849
31
0.0
0
LINE
8
0
6
CONTINUOUS
10
82.182940
20
-89.567953
30
0.0
11
82.182940
21
-91.437465
31
0.0
0
LINE
8
0
6
CONTINUOUS
10
82.182940
20
-91.437465
30
0.0
11
82.182940
21
-93.162741
31
0.0
0
LINE
8
0
6
CONTINUOUS
10
82.182950
20
-94.277235
30
0.0
11
82.182950
21
-94.331881
31
0.0
0
LINE
8
0
6
CONTINUOUS
10
82.182940
20
-93.189565
30
0.0
11
82.182950
21
-94.277235
31
0.0
0
LINE
8
0
6
CONTINUOUS
10
64.574083
20
-70.088265
30
0.0
11
63.570090
21
-70.088265
31
0.0
0
LINE
8
0
6
CONTINUOUS
10
63.570090
20
-89.790595
30
0.0
11
64.573990
21
-89.790595
31
0.0
0
LINE
8
0
6
CONTINUOUS
10
107.070040
20
-44.957515
30
0.0
11
107.070030
21
-45.834575
31
0.0
0
LINE
8
0
6
CONTINUOUS
10
107.070030
20
-45.834575
30
0.0
11
107.070020
21
-48.421825
31
0.0
0
LINE
8
0
6
CONTINUOUS
10
107.070040
20
-111.457055
30
0.0
11
107.070050
21
-114.044285
31
0.0
0
LINE
8
0
6
CONTINUOUS
10
107.070050
20
-114.044285
30
0.0
11
107.070060
21
-114.921335
31
0.0
0
LINE
8
0
6
CONTINUOUS
10
82.182940
20
-73.558535
30
0.0
11
82.182930
21
-70.770085
31
0.0
0
LINE
8
0
6
CONTINUOUS
10
82.520220
20
-74.077105
30
0.0
11
79.989150
21
-79.771975
31
0.0
0
LINE
8
0
6
CONTINUOUS
10
79.989160
20
-66.049545
30
0.0
11
82.520220
21
-71.744415
31
0.0
0
LINE
8
0
6
CONTINUOUS
10
64.573970
20
-71.744415
30
0.0
11
64.573970
21
-74.077105
31
0.0
0
LINE
8
0
6
CONTINUOUS
10
64.573980
20
-86.466845
30
0.0
11
64.573990
21
-88.799535
31
0.0
0
LINE
8
0
6
CONTINUOUS
10
64.573990
20
-88.799535
30
0.0
11
64.573990
21
-94.994395
31
0.0
0
LINE
8
0
6
CONTINUOUS
10
64.573990
20
-94.994395
30
0.0
11
67.134820
21
-94.994395
31
0.0
0
LINE
8
0
6
CONTINUOUS
10
67.105040
20
-94.494395
30
0.0
11
64.574090
21
-88.799760
31
0.0
0
LINE
8
0
6
CONTINUOUS
10
64.573980
20
-86.466845
30
0.0
11
67.134800
21
-80.704985
31
0.0
0
LINE
8
0
6
CONTINUOUS
10
67.105040
20
-79.771975
30
0.0
11
64.574080
21
-74.077352
31
0.0
0
LINE
8
0
6
CONTINUOUS
10
64.573970
20
-74.077105
30
0.0
11
64.573980
21
-86.466845
31
0.0
0
LINE
8
0
6
CONTINUOUS
10
67.134800
20
-65.549555
30
0.0
11
64.574090
21
-65.549555
31
0.0
0
LINE
8
0
6
CONTINUOUS
10
64.573970
20
-71.744415
30
0.0
11
67.105040
21
-66.049545
31
0.0
0
LINE
8
0
6
CONTINUOUS
10
64.573990
20
-65.549555
30
0.0
11
64.573970
21
-71.744415
31
0.0
0
LINE
8
0
6
CONTINUOUS
10
79.989160
20
-94.494395
30
0.0
11
82.185772
21
-89.552019
31
0.0
0
LINE
8
0
6
CONTINUOUS
10
79.959390
20
-80.704985
30
0.0
11
82.520210
21
-86.466845
31
0.0
0
LINE
8
0
6
CONTINUOUS
10
82.520230
20
-94.994395
30
0.0
11
82.520230
21
-94.906456
31
0.0
0
LINE
8
0
6
CONTINUOUS
10
79.959380
20
-94.994395
30
0.0
11
82.506072
21
-94.994395
31
0.0
0
LINE
8
0
6
CONTINUOUS
10
82.520220
20
-65.549555
30
0.0
11
79.959400
21
-65.549555
31
0.0
0
LINE
8
0
6
CONTINUOUS
10
67.134820
20
-94.994395
30
0.0
11
79.959380
21
-94.994395
31
0.0
0
LINE
8
0
6
CONTINUOUS
10
67.105040
20
-94.494395
30
0.0
11
67.134820
21
-94.994395
31
0.0
0
LINE
8
0
6
CONTINUOUS
10
79.959380
20
-94.994395
30
0.0
11
79.989160
21
-94.494395
31
0.0
0
LINE
8
0
6
CONTINUOUS
10
67.105040
20
-79.771975
30
0.0
11
67.134800
21
-80.704985
31
0.0
0
LINE
8
0
6
CONTINUOUS
10
79.959390
20
-80.704985
30
0.0
11
79.989150
21
-79.771975
31
0.0
0
LINE
8
0
6
CONTINUOUS
10
67.134800
20
-65.549555
30
0.0
11
67.105040
21
-66.049545
31
0.0
0
LINE
8
0
6
CONTINUOUS
10
79.959400
20
-65.549555
30
0.0
11
67.134800
21
-65.549555
31
0.0
0
LINE
8
0
6
CONTINUOUS
10
79.989160
20
-66.049545
30
0.0
11
79.959400
21
-65.549555
31
0.0
0
ENDSEC
0
EOF
