999
Erzeugt mit innoplus bad 
0
SECTION
2
HEADER
9
$ACADVER
1
AC1009
9
$DWGCODEPAGE
3
ISO8859-1
0
ENDSEC
0
SECTION
2
TABLES
0
TABLE
2
LAYER
70
1
0
LAYER
2
0
70
0
62
7
6
CONTINUOUS
0
ENDTAB
0
ENDSEC
0
SECTION
2
ENTITIES
0
LINE
8
0
6
CONTINUOUS
10
19.395380
20
-47.245210
30
0.0
11
20.465060
21
10.178280
31
0.0
0
LINE
8
0
6
CONTINUOUS
10
11.955920
20
-74.089950
30
0.0
11
14.909490
21
-70.927610
31
0.0
0
LINE
8
0
6
CONTINUOUS
10
8.355940
20
-76.473350
30
0.0
11
11.955920
21
-74.089950
31
0.0
0
LINE
8
0
6
CONTINUOUS
10
0.000000
20
-78.500000
30
0.0
11
4.304900
21
-77.993220
31
0.0
0
LINE
8
0
6
CONTINUOUS
10
14.909490
20
-70.927610
30
0.0
11
17.037870
21
-67.161640
31
0.0
0
LINE
8
0
6
CONTINUOUS
10
4.304900
20
-77.993220
30
0.0
11
8.355940
21
-76.473350
31
0.0
0
LINE
8
0
6
CONTINUOUS
10
18.968240
20
-58.765800
30
0.0
11
19.395380
21
-47.245210
31
0.0
0
LINE
8
0
6
CONTINUOUS
10
18.363070
20
-63.046540
30
0.0
11
18.968240
21
-58.765800
31
0.0
0
LINE
8
0
6
CONTINUOUS
10
17.037870
20
-67.161640
30
0.0
11
18.363070
21
-63.046540
31
0.0
0
LINE
8
0
6
CONTINUOUS
10
-20.465060
20
10.178280
30
0.0
11
-19.395380
21
-47.245210
31
0.0
0
LINE
8
0
6
CONTINUOUS
10
-14.909490
20
-70.927610
30
0.0
11
-11.955920
21
-74.089950
31
0.0
0
LINE
8
0
6
CONTINUOUS
10
-11.955920
20
-74.089950
30
0.0
11
-8.355940
21
-76.473350
31
0.0
0
LINE
8
0
6
CONTINUOUS
10
-4.304900
20
-77.993220
30
0.0
11
0.000000
21
-78.500000
31
0.0
0
LINE
8
0
6
CONTINUOUS
10
-17.037870
20
-67.161640
30
0.0
11
-14.909490
21
-70.927610
31
0.0
0
LINE
8
0
6
CONTINUOUS
10
-8.355940
20
-76.473350
30
0.0
11
-4.304900
21
-77.993220
31
0.0
0
LINE
8
0
6
CONTINUOUS
10
-19.395380
20
-47.245210
30
0.0
11
-18.968240
21
-58.765800
31
0.0
0
LINE
8
0
6
CONTINUOUS
10
-18.968240
20
-58.765800
30
0.0
11
-18.363070
21
-63.046540
31
0.0
0
LINE
8
0
6
CONTINUOUS
10
-18.363070
20
-63.046540
30
0.0
11
-17.037870
21
-67.161640
31
0.0
0
LINE
8
0
6
CONTINUOUS
10
-20.479210
20
7.661350
30
0.0
11
-20.232540
21
-2.304063
31
0.0
0
LINE
8
0
6
CONTINUOUS
10
-21.686340
20
53.125380
30
0.0
11
-21.459210
21
41.726340
31
0.0
0
LINE
8
0
6
CONTINUOUS
10
-20.757640
20
19.052520
30
0.0
11
-20.479210
21
7.661350
31
0.0
0
LINE
8
0
6
CONTINUOUS
10
-20.979710
20
30.324090
30
0.0
11
-20.757640
21
19.052520
31
0.0
0
LINE
8
0
6
CONTINUOUS
10
-21.459210
20
41.726340
30
0.0
11
-20.979710
21
30.324090
31
0.0
0
LINE
8
0
6
CONTINUOUS
10
20.232540
20
-2.304063
30
0.0
11
20.479210
21
7.661350
31
0.0
0
LINE
8
0
6
CONTINUOUS
10
21.459210
20
41.726340
30
0.0
11
21.686340
21
53.125380
31
0.0
0
LINE
8
0
6
CONTINUOUS
10
20.479210
20
7.661350
30
0.0
11
20.757640
21
19.052520
31
0.0
0
LINE
8
0
6
CONTINUOUS
10
20.757640
20
19.052520
30
0.0
11
20.979710
21
30.324090
31
0.0
0
LINE
8
0
6
CONTINUOUS
10
20.979710
20
30.324090
30
0.0
11
21.459210
21
41.726340
31
0.0
0
LINE
8
0
6
CONTINUOUS
10
-6.232210
20
77.664840
30
0.0
11
-12.028020
21
75.226460
31
0.0
0
LINE
8
0
6
CONTINUOUS
10
-12.028020
20
75.226460
30
0.0
11
-16.993040
21
71.368220
31
0.0
0
LINE
8
0
6
CONTINUOUS
10
0.000000
20
78.500000
30
0.0
11
-6.232210
21
77.664840
31
0.0
0
LINE
8
0
6
CONTINUOUS
10
-23.074390
20
48.050220
30
0.0
11
-21.506916
21
44.120586
31
0.0
0
LINE
8
0
6
CONTINUOUS
10
-24.000000
20
54.261000
30
0.0
11
-23.074390
21
48.050220
31
0.0
0
LINE
8
0
6
CONTINUOUS
10
12.028020
20
75.226460
30
0.0
11
6.232210
21
77.664840
31
0.0
0
LINE
8
0
6
CONTINUOUS
10
16.993040
20
71.368220
30
0.0
11
12.028020
21
75.226460
31
0.0
0
LINE
8
0
6
CONTINUOUS
10
6.232210
20
77.664840
30
0.0
11
0.000000
21
78.500000
31
0.0
0
LINE
8
0
6
CONTINUOUS
10
21.506916
20
44.120586
30
0.0
11
23.074390
21
48.050220
31
0.0
0
LINE
8
0
6
CONTINUOUS
10
23.074390
20
48.050220
30
0.0
11
24.000000
21
54.261000
31
0.0
0
LINE
8
0
6
CONTINUOUS
10
20.996260
20
42.260160
30
0.0
11
20.913480
21
31.565620
31
0.0
0
LINE
8
0
6
CONTINUOUS
10
21.587616
20
48.170685
30
0.0
11
22.326210
21
53.504010
31
0.0
0
LINE
8
0
6
CONTINUOUS
10
21.335646
20
43.691215
30
0.0
11
21.983580
21
53.416020
31
0.0
0
LINE
8
0
6
CONTINUOUS
10
20.913480
20
31.565620
30
0.0
11
20.723760
21
20.871220
31
0.0
0
LINE
8
0
6
CONTINUOUS
10
20.723760
20
20.871220
30
0.0
11
20.465060
21
10.178280
31
0.0
0
LINE
8
0
6
CONTINUOUS
10
21.102144
20
46.515166
30
0.0
11
20.996260
21
42.260160
31
0.0
0
LINE
8
0
6
CONTINUOUS
10
20.739510
20
66.318610
30
0.0
11
16.993040
21
71.368220
31
0.0
0
LINE
8
0
6
CONTINUOUS
10
24.000000
20
54.261000
30
0.0
11
23.072210
21
60.479800
31
0.0
0
LINE
8
0
6
CONTINUOUS
10
23.072210
20
60.479800
30
0.0
11
20.739510
21
66.318610
31
0.0
0
LINE
8
0
6
CONTINUOUS
10
-20.913480
20
31.565620
30
0.0
11
-20.996260
21
42.260160
31
0.0
0
LINE
8
0
6
CONTINUOUS
10
-22.326210
20
53.504010
30
0.0
11
-21.587616
21
48.170685
31
0.0
0
LINE
8
0
6
CONTINUOUS
10
-21.983580
20
53.416020
30
0.0
11
-21.335646
21
43.691215
31
0.0
0
LINE
8
0
6
CONTINUOUS
10
-20.723760
20
20.871220
30
0.0
11
-20.913480
21
31.565620
31
0.0
0
LINE
8
0
6
CONTINUOUS
10
-20.465060
20
10.178280
30
0.0
11
-20.723760
21
20.871220
31
0.0
0
LINE
8
0
6
CONTINUOUS
10
-20.996260
20
42.260160
30
0.0
11
-21.102144
21
46.515166
31
0.0
0
LINE
8
0
6
CONTINUOUS
10
-16.993040
20
71.368220
30
0.0
11
-20.739510
21
66.318610
31
0.0
0
LINE
8
0
6
CONTINUOUS
10
-23.072210
20
60.479800
30
0.0
11
-24.000000
21
54.261000
31
0.0
0
LINE
8
0
6
CONTINUOUS
10
-20.739510
20
66.318610
30
0.0
11
-23.072210
21
60.479800
31
0.0
0
LINE
8
0
6
CONTINUOUS
10
8.530650
20
74.322630
30
0.0
11
4.366170
21
75.628480
31
0.0
0
LINE
8
0
6
CONTINUOUS
10
12.353790
20
72.269060
30
0.0
11
8.530650
21
74.322630
31
0.0
0
LINE
8
0
6
CONTINUOUS
10
20.319830
20
62.433470
30
0.0
11
18.342140
21
66.183750
31
0.0
0
LINE
8
0
6
CONTINUOUS
10
21.671780
20
58.433750
30
0.0
11
20.319830
21
62.433470
31
0.0
0
LINE
8
0
6
CONTINUOUS
10
4.366170
20
75.628480
30
0.0
11
-0.000000
21
76.066220
31
0.0
0
LINE
8
0
6
CONTINUOUS
10
18.342140
20
66.183750
30
0.0
11
15.655950
21
69.504080
31
0.0
0
LINE
8
0
6
CONTINUOUS
10
15.655950
20
69.504080
30
0.0
11
12.353790
21
72.269060
31
0.0
0
LINE
8
0
6
CONTINUOUS
10
21.968200
20
54.253750
30
0.0
11
21.671780
21
58.433750
31
0.0
0
LINE
8
0
6
CONTINUOUS
10
-0.000000
20
-24.540160
30
0.0
11
3.831910
21
-24.028990
31
0.0
0
LINE
8
0
6
CONTINUOUS
10
7.446660
20
-22.734010
30
0.0
11
10.670080
21
-20.690160
31
0.0
0
LINE
8
0
6
CONTINUOUS
10
20.832029
20
47.768583
30
0.0
11
21.043230
21
48.270160
31
0.0
0
LINE
8
0
6
CONTINUOUS
10
21.043230
20
48.270160
30
0.0
11
21.968200
21
54.253750
31
0.0
0
LINE
8
0
6
CONTINUOUS
10
19.714590
20
31.484770
30
0.0
11
20.059690
21
36.508520
31
0.0
0
LINE
8
0
6
CONTINUOUS
10
10.670080
20
-20.690160
30
0.0
11
13.343300
21
-17.995860
31
0.0
0
LINE
8
0
6
CONTINUOUS
10
13.343300
20
-17.995860
30
0.0
11
15.344620
21
-14.806120
31
0.0
0
LINE
8
0
6
CONTINUOUS
10
15.344620
20
-14.806120
30
0.0
11
16.685050
21
-11.295760
31
0.0
0
LINE
8
0
6
CONTINUOUS
10
16.685050
20
-11.295760
30
0.0
11
17.454050
21
-7.624000
31
0.0
0
LINE
8
0
6
CONTINUOUS
10
17.454050
20
-7.624000
30
0.0
11
17.781330
21
-3.889050
31
0.0
0
LINE
8
0
6
CONTINUOUS
10
20.748230
20
57.931850
30
0.0
11
19.648530
21
61.945680
31
0.0
0
LINE
8
0
6
CONTINUOUS
10
17.781330
20
-3.889050
30
0.0
11
18.695590
21
16.385030
31
0.0
0
LINE
8
0
6
CONTINUOUS
10
18.695590
20
16.385030
30
0.0
11
19.014280
21
21.414310
31
0.0
0
LINE
8
0
6
CONTINUOUS
10
3.831910
20
-24.028990
30
0.0
11
7.446660
21
-22.734010
31
0.0
0
LINE
8
0
6
CONTINUOUS
10
19.014280
20
21.414310
30
0.0
11
19.368560
21
26.451340
31
0.0
0
LINE
8
0
6
CONTINUOUS
10
19.368560
20
26.451340
30
0.0
11
19.714590
21
31.484770
31
0.0
0
LINE
8
0
6
CONTINUOUS
10
20.849420
20
48.037500
30
0.0
11
21.119210
21
53.848730
31
0.0
0
LINE
8
0
6
CONTINUOUS
10
21.069270
20
53.848340
30
0.0
11
20.748230
21
57.845030
31
0.0
0
LINE
8
0
6
CONTINUOUS
10
-0.000000
20
-24.078260
30
0.0
11
3.829740
21
-23.582620
31
0.0
0
LINE
8
0
6
CONTINUOUS
10
20.748230
20
57.845030
30
0.0
11
19.648530
21
61.945680
31
0.0
0
LINE
8
0
6
CONTINUOUS
10
8.275760
20
73.708480
30
0.0
11
4.221170
21
74.985140
31
0.0
0
LINE
8
0
6
CONTINUOUS
10
15.185200
20
68.956650
30
0.0
11
11.985160
21
71.684940
31
0.0
0
LINE
8
0
6
CONTINUOUS
10
4.221170
20
74.985140
30
0.0
11
-0.000000
21
75.439510
31
0.0
0
LINE
8
0
6
CONTINUOUS
10
19.648530
20
61.945680
30
0.0
11
17.769560
21
65.667090
31
0.0
0
LINE
8
0
6
CONTINUOUS
10
11.985160
20
71.684940
30
0.0
11
8.275760
21
73.708480
31
0.0
0
LINE
8
0
6
CONTINUOUS
10
17.769560
20
65.667090
30
0.0
11
15.185200
21
68.956650
31
0.0
0
LINE
8
0
6
CONTINUOUS
10
15.406040
20
-14.404630
30
0.0
11
16.714350
21
-10.870620
31
0.0
0
LINE
8
0
6
CONTINUOUS
10
16.714350
20
-10.870620
30
0.0
11
17.445430
21
-7.185130
31
0.0
0
LINE
8
0
6
CONTINUOUS
10
10.714200
20
-20.311600
30
0.0
11
13.400300
21
-17.613950
31
0.0
0
LINE
8
0
6
CONTINUOUS
10
17.781330
20
-3.444460
30
0.0
11
18.695590
21
16.850780
31
0.0
0
LINE
8
0
6
CONTINUOUS
10
17.445430
20
-7.185130
30
0.0
11
17.781330
21
-3.444460
31
0.0
0
LINE
8
0
6
CONTINUOUS
10
13.400300
20
-17.613950
30
0.0
11
15.406040
21
-14.404630
31
0.0
0
LINE
8
0
6
CONTINUOUS
10
7.467590
20
-22.345090
30
0.0
11
10.714200
21
-20.311600
31
0.0
0
LINE
8
0
6
CONTINUOUS
10
20.849420
20
48.077120
30
0.0
11
21.069270
21
53.848340
31
0.0
0
LINE
8
0
6
CONTINUOUS
10
19.014280
20
21.795050
30
0.0
11
19.368560
21
26.739320
31
0.0
0
LINE
8
0
6
CONTINUOUS
10
18.695590
20
16.850780
30
0.0
11
19.014280
21
21.795050
31
0.0
0
LINE
8
0
6
CONTINUOUS
10
19.368560
20
26.739320
30
0.0
11
19.714590
21
31.683600
31
0.0
0
LINE
8
0
6
CONTINUOUS
10
19.714590
20
31.683600
30
0.0
11
20.059690
21
36.627880
31
0.0
0
LINE
8
0
6
CONTINUOUS
10
20.059690
20
36.627880
30
0.0
11
20.476390
21
42.352500
31
0.0
0
LINE
8
0
6
CONTINUOUS
10
20.476390
20
42.352500
30
0.0
11
20.849420
21
48.077120
31
0.0
0
LINE
8
0
6
CONTINUOUS
10
3.829740
20
-23.582620
30
0.0
11
7.467590
21
-22.345090
31
0.0
0
LINE
8
0
6
CONTINUOUS
10
-4.366160
20
75.628480
30
0.0
11
-8.530640
21
74.322630
31
0.0
0
LINE
8
0
6
CONTINUOUS
10
-8.530640
20
74.322630
30
0.0
11
-12.353780
21
72.269060
31
0.0
0
LINE
8
0
6
CONTINUOUS
10
-18.342130
20
66.183750
30
0.0
11
-20.319820
21
62.433470
31
0.0
0
LINE
8
0
6
CONTINUOUS
10
-20.319820
20
62.433470
30
0.0
11
-21.671780
21
58.433750
31
0.0
0
LINE
8
0
6
CONTINUOUS
10
-0.000000
20
76.066220
30
0.0
11
-4.366160
21
75.628480
31
0.0
0
LINE
8
0
6
CONTINUOUS
10
-15.655950
20
69.504080
30
0.0
11
-18.342130
21
66.183750
31
0.0
0
LINE
8
0
6
CONTINUOUS
10
-12.353780
20
72.269060
30
0.0
11
-15.655950
21
69.504080
31
0.0
0
LINE
8
0
6
CONTINUOUS
10
-21.671780
20
58.433750
30
0.0
11
-21.968200
21
54.253750
31
0.0
0
LINE
8
0
6
CONTINUOUS
10
-3.831900
20
-24.028990
30
0.0
11
-0.000000
21
-24.540160
31
0.0
0
LINE
8
0
6
CONTINUOUS
10
-10.670070
20
-20.690160
30
0.0
11
-7.446660
21
-22.734010
31
0.0
0
LINE
8
0
6
CONTINUOUS
10
-21.043220
20
48.270160
30
0.0
11
-20.832019
21
47.768580
31
0.0
0
LINE
8
0
6
CONTINUOUS
10
-21.968200
20
54.253750
30
0.0
11
-21.043220
21
48.270160
31
0.0
0
LINE
8
0
6
CONTINUOUS
10
-20.059690
20
36.508520
30
0.0
11
-19.714590
21
31.484770
31
0.0
0
LINE
8
0
6
CONTINUOUS
10
-13.343290
20
-17.995860
30
0.0
11
-10.670070
21
-20.690160
31
0.0
0
LINE
8
0
6
CONTINUOUS
10
-15.344620
20
-14.806120
30
0.0
11
-13.343290
21
-17.995860
31
0.0
0
LINE
8
0
6
CONTINUOUS
10
-16.685050
20
-11.295760
30
0.0
11
-15.344620
21
-14.806120
31
0.0
0
LINE
8
0
6
CONTINUOUS
10
-17.454040
20
-7.624000
30
0.0
11
-16.685050
21
-11.295760
31
0.0
0
LINE
8
0
6
CONTINUOUS
10
-17.781330
20
-3.889050
30
0.0
11
-17.454040
21
-7.624000
31
0.0
0
LINE
8
0
6
CONTINUOUS
10
-19.648530
20
61.945680
30
0.0
11
-20.748220
21
57.931850
31
0.0
0
LINE
8
0
6
CONTINUOUS
10
-18.695590
20
16.385030
30
0.0
11
-17.781330
21
-3.889050
31
0.0
0
LINE
8
0
6
CONTINUOUS
10
-19.014270
20
21.414310
30
0.0
11
-18.695590
21
16.385030
31
0.0
0
LINE
8
0
6
CONTINUOUS
10
-7.446660
20
-22.734010
30
0.0
11
-3.831900
21
-24.028990
31
0.0
0
LINE
8
0
6
CONTINUOUS
10
-19.368560
20
26.451340
30
0.0
11
-19.014270
21
21.414310
31
0.0
0
LINE
8
0
6
CONTINUOUS
10
-19.714590
20
31.484770
30
0.0
11
-19.368560
21
26.451340
31
0.0
0
LINE
8
0
6
CONTINUOUS
10
-21.119210
20
53.848730
30
0.0
11
-20.849410
21
48.037500
31
0.0
0
LINE
8
0
6
CONTINUOUS
10
-20.748220
20
57.845030
30
0.0
11
-21.069260
21
53.848340
31
0.0
0
LINE
8
0
6
CONTINUOUS
10
-3.829740
20
-23.582620
30
0.0
11
-0.000000
21
-24.078260
31
0.0
0
LINE
8
0
6
CONTINUOUS
10
-19.648530
20
61.945680
30
0.0
11
-20.748220
21
57.845030
31
0.0
0
LINE
8
0
6
CONTINUOUS
10
-4.221170
20
74.985140
30
0.0
11
-8.275760
21
73.708480
31
0.0
0
LINE
8
0
6
CONTINUOUS
10
-11.985160
20
71.684940
30
0.0
11
-15.185190
21
68.956650
31
0.0
0
LINE
8
0
6
CONTINUOUS
10
-0.000000
20
75.439510
30
0.0
11
-4.221170
21
74.985140
31
0.0
0
LINE
8
0
6
CONTINUOUS
10
-17.769550
20
65.667090
30
0.0
11
-19.648530
21
61.945680
31
0.0
0
LINE
8
0
6
CONTINUOUS
10
-8.275760
20
73.708480
30
0.0
11
-11.985160
21
71.684940
31
0.0
0
LINE
8
0
6
CONTINUOUS
10
-15.185190
20
68.956650
30
0.0
11
-17.769550
21
65.667090
31
0.0
0
LINE
8
0
6
CONTINUOUS
10
-16.714340
20
-10.870620
30
0.0
11
-15.406030
21
-14.404630
31
0.0
0
LINE
8
0
6
CONTINUOUS
10
-17.445430
20
-7.185130
30
0.0
11
-16.714340
21
-10.870620
31
0.0
0
LINE
8
0
6
CONTINUOUS
10
-13.400290
20
-17.613950
30
0.0
11
-10.714200
21
-20.311600
31
0.0
0
LINE
8
0
6
CONTINUOUS
10
-18.695590
20
16.850780
30
0.0
11
-17.781330
21
-3.444460
31
0.0
0
LINE
8
0
6
CONTINUOUS
10
-17.781330
20
-3.444460
30
0.0
11
-17.445430
21
-7.185130
31
0.0
0
LINE
8
0
6
CONTINUOUS
10
-15.406030
20
-14.404630
30
0.0
11
-13.400290
21
-17.613950
31
0.0
0
LINE
8
0
6
CONTINUOUS
10
-10.714200
20
-20.311600
30
0.0
11
-7.467580
21
-22.345090
31
0.0
0
LINE
8
0
6
CONTINUOUS
10
-21.069260
20
53.848340
30
0.0
11
-20.849410
21
48.077120
31
0.0
0
LINE
8
0
6
CONTINUOUS
10
-19.368560
20
26.739320
30
0.0
11
-19.014270
21
21.795050
31
0.0
0
LINE
8
0
6
CONTINUOUS
10
-19.014270
20
21.795050
30
0.0
11
-18.695590
21
16.850780
31
0.0
0
LINE
8
0
6
CONTINUOUS
10
-19.714590
20
31.683600
30
0.0
11
-19.368560
21
26.739320
31
0.0
0
LINE
8
0
6
CONTINUOUS
10
-20.059690
20
36.627880
30
0.0
11
-19.714590
21
31.683600
31
0.0
0
LINE
8
0
6
CONTINUOUS
10
-20.476380
20
42.352500
30
0.0
11
-20.059690
21
36.627880
31
0.0
0
LINE
8
0
6
CONTINUOUS
10
-20.849410
20
48.077120
30
0.0
11
-20.476380
21
42.352500
31
0.0
0
LINE
8
0
6
CONTINUOUS
10
-7.467580
20
-22.345090
30
0.0
11
-3.829740
21
-23.582620
31
0.0
0
ENDSEC
0
EOF
