999
Erzeugt mit innoplus bad 
0
SECTION
2
HEADER
9
$ACADVER
1
AC1009
9
$DWGCODEPAGE
3
ISO8859-1
0
ENDSEC
0
SECTION
2
TABLES
0
TABLE
2
LAYER
70
1
0
LAYER
2
0
70
0
62
7
6
CONTINUOUS
0
ENDTAB
0
ENDSEC
0
SECTION
2
ENTITIES
0
LINE
8
0
6
CONTINUOUS
10
-71.871550
20
14.883516
30
0.0
11
-69.645850
21
13.643096
31
0.0
0
LINE
8
0
6
CONTINUOUS
10
-52.589700
20
4.139501
30
0.0
11
-51.751110
21
3.672270
31
0.0
0
LINE
8
0
6
CONTINUOUS
10
-51.751110
20
3.672270
30
0.0
11
-49.747466
21
7.276219
31
0.0
0
LINE
8
0
6
CONTINUOUS
10
-66.357600
20
11.811023
30
0.0
11
-62.230800
21
9.511408
31
0.0
0
LINE
8
0
6
CONTINUOUS
10
-54.815700
20
5.379411
30
0.0
11
-52.589700
21
4.139501
31
0.0
0
LINE
8
0
6
CONTINUOUS
10
-72.710050
20
15.351037
30
0.0
11
-71.871550
21
14.883516
31
0.0
0
LINE
8
0
6
CONTINUOUS
10
-71.577395
20
17.388419
30
0.0
11
-72.710050
21
15.351037
31
0.0
0
LINE
8
0
6
CONTINUOUS
10
-62.230800
20
9.511408
30
0.0
11
-58.103800
21
7.211794
31
0.0
0
LINE
8
0
6
CONTINUOUS
10
-54.815700
20
5.379411
30
0.0
11
-58.103800
21
7.211794
31
0.0
0
LINE
8
0
6
CONTINUOUS
10
-66.357600
20
11.811023
30
0.0
11
-69.645850
21
13.643096
31
0.0
0
LINE
8
0
6
CONTINUOUS
10
-75.010840
20
20.624713
30
0.0
11
-73.387920
21
18.297477
31
0.0
0
LINE
8
0
6
CONTINUOUS
10
-73.387920
20
18.297477
30
0.0
11
-72.698320
21
17.941983
31
0.0
0
LINE
8
0
6
CONTINUOUS
10
-72.698320
20
17.941983
30
0.0
11
-71.580930
21
17.382060
31
0.0
0
LINE
8
0
6
CONTINUOUS
10
-76.481400
20
23.052443
30
0.0
11
-75.010840
21
20.624713
31
0.0
0
LINE
8
0
6
CONTINUOUS
10
75.037380
20
29.059633
30
0.0
11
72.694440
21
29.059633
31
0.0
0
LINE
8
0
6
CONTINUOUS
10
64.275360
20
29.059633
30
0.0
11
58.752200
21
29.059633
31
0.0
0
LINE
8
0
6
CONTINUOUS
10
76.061880
20
27.788047
30
0.0
11
76.037000
21
29.059633
31
0.0
0
LINE
8
0
6
CONTINUOUS
10
76.037000
20
29.059633
30
0.0
11
75.037380
21
29.059633
31
0.0
0
LINE
8
0
6
CONTINUOUS
10
72.694440
20
29.059633
30
0.0
11
69.044880
21
29.059633
31
0.0
0
LINE
8
0
6
CONTINUOUS
10
-78.500000
20
29.059633
30
0.0
11
-78.327530
21
28.397730
31
0.0
0
LINE
8
0
6
CONTINUOUS
10
-77.993220
20
29.059633
30
0.0
11
-78.500000
21
29.059633
31
0.0
0
LINE
8
0
6
CONTINUOUS
10
75.226460
20
-88.500000
30
0.0
11
77.664840
21
-88.499990
31
0.0
0
LINE
8
0
6
CONTINUOUS
10
71.368220
20
-88.500000
30
0.0
11
75.226460
21
-88.500000
31
0.0
0
LINE
8
0
6
CONTINUOUS
10
78.500000
20
-88.499970
30
0.0
11
78.465210
21
-86.846790
31
0.0
0
LINE
8
0
6
CONTINUOUS
10
77.664840
20
-88.499990
30
0.0
11
78.500000
21
-88.499970
31
0.0
0
LINE
8
0
6
CONTINUOUS
10
42.220100
20
-88.499980
30
0.0
11
48.050220
21
-88.499970
31
0.0
0
LINE
8
0
6
CONTINUOUS
10
37.169670
20
-88.500000
30
0.0
11
42.220100
21
-88.499980
31
0.0
0
LINE
8
0
6
CONTINUOUS
10
30.859750
20
-88.499990
30
0.0
11
33.303870
21
-88.500000
31
0.0
0
LINE
8
0
6
CONTINUOUS
10
30.022000
20
-88.499970
30
0.0
11
30.859750
21
-88.499990
31
0.0
0
LINE
8
0
6
CONTINUOUS
10
30.056780
20
-86.847521
30
0.0
11
30.022000
21
-88.499970
31
0.0
0
LINE
8
0
6
CONTINUOUS
10
33.303870
20
-88.500000
30
0.0
11
37.169670
21
-88.500000
31
0.0
0
LINE
8
0
6
CONTINUOUS
10
48.050220
20
-88.499970
30
0.0
11
54.261000
21
-88.499970
31
0.0
0
LINE
8
0
6
CONTINUOUS
10
-71.085360
20
17.168464
30
0.0
11
-69.278290
21
16.369706
31
0.0
0
LINE
8
0
6
CONTINUOUS
10
-69.278290
20
16.369706
30
0.0
11
-67.454280
21
15.709345
31
0.0
0
LINE
8
0
6
CONTINUOUS
10
-49.747466
20
7.276219
30
0.0
11
-45.070200
21
5.959160
31
0.0
0
LINE
8
0
6
CONTINUOUS
10
-47.245210
20
29.059633
30
0.0
11
-58.765800
21
29.059633
31
0.0
0
LINE
8
0
6
CONTINUOUS
10
-58.765800
20
29.059633
30
0.0
11
-63.046540
21
29.059633
31
0.0
0
LINE
8
0
6
CONTINUOUS
10
-63.046540
20
29.059633
30
0.0
11
-67.161640
21
29.059633
31
0.0
0
LINE
8
0
6
CONTINUOUS
10
-67.161640
20
29.059633
30
0.0
11
-70.927610
21
29.059633
31
0.0
0
LINE
8
0
6
CONTINUOUS
10
-70.927610
20
29.059633
30
0.0
11
-74.089950
21
29.059633
31
0.0
0
LINE
8
0
6
CONTINUOUS
10
-74.089950
20
29.059633
30
0.0
11
-76.473350
21
29.059633
31
0.0
0
LINE
8
0
6
CONTINUOUS
10
-76.473350
20
29.059633
30
0.0
11
-77.993220
21
29.059633
31
0.0
0
LINE
8
0
6
CONTINUOUS
10
-78.327530
20
28.397730
30
0.0
11
-77.631830
21
25.644040
31
0.0
0
LINE
8
0
6
CONTINUOUS
10
42.260160
20
29.059633
30
0.0
11
31.565620
21
29.059633
31
0.0
0
LINE
8
0
6
CONTINUOUS
10
-77.631830
20
25.644040
30
0.0
11
-76.481400
21
23.052443
31
0.0
0
LINE
8
0
6
CONTINUOUS
10
4.944400
20
0.625326
30
0.0
11
13.161720
21
-1.323660
31
0.0
0
LINE
8
0
6
CONTINUOUS
10
77.196660
20
-26.554475
30
0.0
11
77.006370
21
-17.510723
31
0.0
0
LINE
8
0
6
CONTINUOUS
10
77.006370
20
-17.510723
30
0.0
11
76.816090
21
-8.466951
31
0.0
0
LINE
8
0
6
CONTINUOUS
10
76.816090
20
-8.466951
30
0.0
11
76.625810
21
0.576801
31
0.0
0
LINE
8
0
6
CONTINUOUS
10
76.625810
20
0.576801
30
0.0
11
76.475990
21
7.697436
31
0.0
0
LINE
8
0
6
CONTINUOUS
10
76.475990
20
7.697436
30
0.0
11
76.326170
21
14.818112
31
0.0
0
LINE
8
0
6
CONTINUOUS
10
13.161720
20
-1.323660
30
0.0
11
20.707750
21
-5.057735
31
0.0
0
LINE
8
0
6
CONTINUOUS
10
20.707750
20
-5.057735
30
0.0
11
26.621880
21
-10.885551
31
0.0
0
LINE
8
0
6
CONTINUOUS
10
26.621880
20
-10.885551
30
0.0
11
30.197690
21
-18.943141
31
0.0
0
LINE
8
0
6
CONTINUOUS
10
30.197690
20
-18.943141
30
0.0
11
31.153750
21
-27.195083
31
0.0
0
LINE
8
0
6
CONTINUOUS
10
31.153750
20
-27.195083
30
0.0
11
31.134880
21
-35.621613
31
0.0
0
LINE
8
0
6
CONTINUOUS
10
31.565620
20
29.059633
30
0.0
11
20.871220
21
29.059633
31
0.0
0
LINE
8
0
6
CONTINUOUS
10
20.871220
20
29.059633
30
0.0
11
10.178280
21
29.059633
31
0.0
0
LINE
8
0
6
CONTINUOUS
10
52.953520
20
29.059633
30
0.0
11
42.260160
21
29.059633
31
0.0
0
LINE
8
0
6
CONTINUOUS
10
76.326170
20
14.818112
30
0.0
11
76.176350
21
21.938747
31
0.0
0
LINE
8
0
6
CONTINUOUS
10
58.752200
20
29.059633
30
0.0
11
52.953520
21
29.059633
31
0.0
0
LINE
8
0
6
CONTINUOUS
10
76.176350
20
21.938747
30
0.0
11
76.061880
21
27.788047
31
0.0
0
LINE
8
0
6
CONTINUOUS
10
69.044880
20
29.059633
30
0.0
11
64.275360
21
29.059633
31
0.0
0
LINE
8
0
6
CONTINUOUS
10
-3.381300
20
1.652273
30
0.0
11
4.944400
21
0.625326
31
0.0
0
LINE
8
0
6
CONTINUOUS
10
31.134880
20
-35.621613
30
0.0
11
30.056780
21
-86.847521
31
0.0
0
LINE
8
0
6
CONTINUOUS
10
10.178280
20
29.059633
30
0.0
11
-47.245210
21
29.059633
31
0.0
0
LINE
8
0
6
CONTINUOUS
10
78.465210
20
-86.846790
30
0.0
11
77.386940
21
-35.598246
31
0.0
0
LINE
8
0
6
CONTINUOUS
10
-45.070200
20
5.959160
30
0.0
11
-3.381300
21
1.652273
31
0.0
0
LINE
8
0
6
CONTINUOUS
10
77.386940
20
-35.598246
30
0.0
11
77.196660
21
-26.554475
31
0.0
0
LINE
8
0
6
CONTINUOUS
10
66.318610
20
-88.499980
30
0.0
11
71.368220
21
-88.500000
31
0.0
0
LINE
8
0
6
CONTINUOUS
10
54.261000
20
-88.499970
30
0.0
11
60.479800
21
-88.499970
31
0.0
0
LINE
8
0
6
CONTINUOUS
10
60.479800
20
-88.499970
30
0.0
11
66.318610
21
-88.499980
31
0.0
0
LINE
8
0
6
CONTINUOUS
10
73.023410
20
35.699291
30
0.0
11
72.245410
21
37.378489
31
0.0
0
LINE
8
0
6
CONTINUOUS
10
34.185500
20
30.664908
30
0.0
11
34.048082
21
29.059633
31
0.0
0
LINE
8
0
6
CONTINUOUS
10
74.543960
20
28.066313
30
0.0
11
74.321930
21
30.664808
31
0.0
0
LINE
8
0
6
CONTINUOUS
10
34.426267
20
31.979975
30
0.0
11
34.185500
21
30.664908
31
0.0
0
LINE
8
0
6
CONTINUOUS
10
73.853400
20
33.227231
30
0.0
11
73.023410
21
35.699291
31
0.0
0
LINE
8
0
6
CONTINUOUS
10
74.321930
20
30.664808
30
0.0
11
73.853400
21
33.227231
31
0.0
0
LINE
8
0
6
CONTINUOUS
10
76.066220
20
38.528488
30
0.0
11
76.055430
21
38.939545
31
0.0
0
LINE
8
0
6
CONTINUOUS
10
-24.078260
20
88.500000
30
0.0
11
-24.540160
21
86.711316
31
0.0
0
LINE
8
0
6
CONTINUOUS
10
-24.540160
20
86.711316
30
0.0
11
-23.747480
21
84.580924
31
0.0
0
LINE
8
0
6
CONTINUOUS
10
-24.028990
20
86.586715
30
0.0
11
-24.540160
21
86.711316
31
0.0
0
LINE
8
0
6
CONTINUOUS
10
-23.747480
20
84.580924
30
0.0
11
-22.299950
21
82.820613
31
0.0
0
LINE
8
0
6
CONTINUOUS
10
-22.299950
20
82.820613
30
0.0
11
-20.345230
21
81.664439
31
0.0
0
LINE
8
0
6
CONTINUOUS
10
-18.179060
20
80.931385
30
0.0
11
-14.783730
21
80.014363
31
0.0
0
LINE
8
0
6
CONTINUOUS
10
-4.563340
20
77.385013
30
0.0
11
16.373090
21
72.019283
31
0.0
0
LINE
8
0
6
CONTINUOUS
10
15.970358
20
72.122498
30
0.0
11
19.702790
21
70.535246
31
0.0
0
LINE
8
0
6
CONTINUOUS
10
19.702790
20
70.535246
30
0.0
11
23.210930
21
68.330620
31
0.0
0
LINE
8
0
6
CONTINUOUS
10
23.210930
20
68.330620
30
0.0
11
26.309140
21
65.583386
31
0.0
0
LINE
8
0
6
CONTINUOUS
10
28.762620
20
62.237943
30
0.0
11
30.467330
21
58.429223
31
0.0
0
LINE
8
0
6
CONTINUOUS
10
30.467330
20
58.429223
30
0.0
11
31.420670
21
54.555509
31
0.0
0
LINE
8
0
6
CONTINUOUS
10
31.420670
20
54.555509
30
0.0
11
31.917610
21
49.636887
31
0.0
0
LINE
8
0
6
CONTINUOUS
10
31.917610
20
49.636887
30
0.0
11
32.056540
21
44.690053
31
0.0
0
LINE
8
0
6
CONTINUOUS
10
32.056540
20
44.690053
30
0.0
11
32.266490
21
32.607747
31
0.0
0
LINE
8
0
6
CONTINUOUS
10
75.850280
20
46.749774
30
0.0
11
75.760000
21
50.195882
31
0.0
0
LINE
8
0
6
CONTINUOUS
10
32.703240
20
31.971834
30
0.0
11
34.116940
21
31.971834
31
0.0
0
LINE
8
0
6
CONTINUOUS
10
34.116940
20
31.971834
30
0.0
11
36.202600
21
31.971834
31
0.0
0
LINE
8
0
6
CONTINUOUS
10
38.746510
20
31.971834
30
0.0
11
42.700520
21
31.971834
31
0.0
0
LINE
8
0
6
CONTINUOUS
10
42.700520
20
31.971834
30
0.0
11
48.270160
21
31.971834
31
0.0
0
LINE
8
0
6
CONTINUOUS
10
75.760000
20
50.195882
30
0.0
11
75.669720
21
53.642000
31
0.0
0
LINE
8
0
6
CONTINUOUS
10
75.669720
20
53.642000
30
0.0
11
75.583060
21
56.950281
31
0.0
0
LINE
8
0
6
CONTINUOUS
10
75.583060
20
56.950281
30
0.0
11
75.539450
21
58.614754
31
0.0
0
LINE
8
0
6
CONTINUOUS
10
75.480140
20
60.878848
30
0.0
11
75.439510
21
62.429601
31
0.0
0
LINE
8
0
6
CONTINUOUS
10
26.309140
20
65.583386
30
0.0
11
28.762620
21
62.237943
31
0.0
0
LINE
8
0
6
CONTINUOUS
10
-20.345230
20
81.664439
30
0.0
11
-18.179060
21
80.931385
31
0.0
0
LINE
8
0
6
CONTINUOUS
10
31.986420
20
74.623254
30
0.0
11
26.973540
21
75.863734
31
0.0
0
LINE
8
0
6
CONTINUOUS
10
-17.613950
20
86.897378
30
0.0
11
-20.311600
21
87.561703
31
0.0
0
LINE
8
0
6
CONTINUOUS
10
-14.404630
20
86.109012
30
0.0
11
-17.613950
21
86.897378
31
0.0
0
LINE
8
0
6
CONTINUOUS
10
-10.870620
20
85.237621
30
0.0
11
-14.404630
21
86.109012
31
0.0
0
LINE
8
0
6
CONTINUOUS
10
-7.185130
20
84.323762
30
0.0
11
-10.870620
21
85.237621
31
0.0
0
LINE
8
0
6
CONTINUOUS
10
-3.444460
20
83.395186
30
0.0
11
-7.185130
21
84.323762
31
0.0
0
LINE
8
0
6
CONTINUOUS
10
-7.973140
20
78.249086
30
0.0
11
-4.563340
21
77.385013
31
0.0
0
LINE
8
0
6
CONTINUOUS
10
-11.382110
20
79.117113
30
0.0
11
-7.973140
21
78.249086
31
0.0
0
LINE
8
0
6
CONTINUOUS
10
-14.783730
20
80.014363
30
0.0
11
-11.382110
21
79.117113
31
0.0
0
LINE
8
0
6
CONTINUOUS
10
73.708480
20
64.381310
30
0.0
11
71.684940
21
64.881929
31
0.0
0
LINE
8
0
6
CONTINUOUS
10
65.667090
20
66.350969
30
0.0
11
61.945680
21
67.252123
31
0.0
0
LINE
8
0
6
CONTINUOUS
10
61.945680
20
67.252123
30
0.0
11
57.845030
21
68.207730
31
0.0
0
LINE
8
0
6
CONTINUOUS
10
75.439510
20
62.429601
30
0.0
11
75.439510
21
63.971113
31
0.0
0
LINE
8
0
6
CONTINUOUS
10
75.439510
20
63.971113
30
0.0
11
74.985140
21
64.083341
31
0.0
0
LINE
8
0
6
CONTINUOUS
10
68.956650
20
65.548186
30
0.0
11
65.667090
21
66.350969
31
0.0
0
LINE
8
0
6
CONTINUOUS
10
71.684940
20
64.881929
30
0.0
11
68.956650
21
65.548186
31
0.0
0
LINE
8
0
6
CONTINUOUS
10
27.342720
20
75.775654
30
0.0
11
22.324530
21
77.017406
31
0.0
0
LINE
8
0
6
CONTINUOUS
10
-3.889050
20
81.594149
30
0.0
11
16.385030
21
75.885999
31
0.0
0
LINE
8
0
6
CONTINUOUS
10
17.306340
20
78.259187
30
0.0
11
-1.775190
21
82.981016
31
0.0
0
LINE
8
0
6
CONTINUOUS
10
21.960660
20
77.104234
30
0.0
11
16.947780
21
78.344715
31
0.0
0
LINE
8
0
6
CONTINUOUS
10
22.324530
20
77.017406
30
0.0
11
17.306340
21
78.259187
31
0.0
0
LINE
8
0
6
CONTINUOUS
10
26.973540
20
75.863734
30
0.0
11
21.960660
21
77.104234
31
0.0
0
LINE
8
0
6
CONTINUOUS
10
55.221570
20
68.876891
30
0.0
11
49.274080
21
70.348624
31
0.0
0
LINE
8
0
6
CONTINUOUS
10
54.214310
20
69.122730
30
0.0
11
48.475970
21
70.542745
31
0.0
0
LINE
8
0
6
CONTINUOUS
10
48.475970
20
70.542745
30
0.0
11
42.737630
21
71.962759
31
0.0
0
LINE
8
0
6
CONTINUOUS
10
42.737630
20
71.962759
30
0.0
11
36.999300
21
73.382773
31
0.0
0
LINE
8
0
6
CONTINUOUS
10
36.999300
20
73.382773
30
0.0
11
31.986420
21
74.623254
31
0.0
0
LINE
8
0
6
CONTINUOUS
10
32.360920
20
74.533852
30
0.0
11
27.342720
21
75.775654
31
0.0
0
LINE
8
0
6
CONTINUOUS
10
37.379110
20
73.292090
30
0.0
11
32.360920
21
74.533852
31
0.0
0
LINE
8
0
6
CONTINUOUS
10
43.326600
20
71.820347
30
0.0
11
37.379110
21
73.292090
31
0.0
0
LINE
8
0
6
CONTINUOUS
10
49.274080
20
70.348624
30
0.0
11
43.326600
21
71.820347
31
0.0
0
LINE
8
0
6
CONTINUOUS
10
36.202600
20
31.971834
30
0.0
11
38.746510
21
31.971834
31
0.0
0
LINE
8
0
6
CONTINUOUS
10
75.539450
20
58.614754
30
0.0
11
75.480140
21
60.878848
31
0.0
0
LINE
8
0
6
CONTINUOUS
10
-24.028990
20
86.586715
30
0.0
11
-22.734010
21
86.296815
31
0.0
0
LINE
8
0
6
CONTINUOUS
10
-16.272180
20
86.568344
30
0.0
11
-22.750120
21
88.171356
31
0.0
0
LINE
8
0
6
CONTINUOUS
10
61.169060
20
67.405157
30
0.0
11
55.221570
21
68.876891
31
0.0
0
LINE
8
0
6
CONTINUOUS
10
58.547780
20
68.050361
30
0.0
11
54.214310
21
69.122730
31
0.0
0
LINE
8
0
6
CONTINUOUS
10
53.848340
20
69.200949
30
0.0
11
57.845030
21
68.207730
31
0.0
0
LINE
8
0
6
CONTINUOUS
10
-24.078260
20
88.500000
30
0.0
11
-23.582620
21
88.375579
31
0.0
0
LINE
8
0
6
CONTINUOUS
10
73.708480
20
64.381310
30
0.0
11
74.985140
21
64.083341
31
0.0
0
LINE
8
0
6
CONTINUOUS
10
-3.444460
20
83.395186
30
0.0
11
16.850780
21
78.362975
31
0.0
0
LINE
8
0
6
CONTINUOUS
10
-22.345090
20
88.065927
30
0.0
11
-20.311600
21
87.561703
31
0.0
0
LINE
8
0
6
CONTINUOUS
10
48.077120
20
70.620373
30
0.0
11
53.848340
21
69.200949
31
0.0
0
LINE
8
0
6
CONTINUOUS
10
21.795050
20
77.137042
30
0.0
11
26.739320
21
75.911108
31
0.0
0
LINE
8
0
6
CONTINUOUS
10
16.850780
20
78.362975
30
0.0
11
21.795050
21
77.137042
31
0.0
0
LINE
8
0
6
CONTINUOUS
10
26.739320
20
75.911108
30
0.0
11
31.683600
21
74.685164
31
0.0
0
LINE
8
0
6
CONTINUOUS
10
31.683600
20
74.685164
30
0.0
11
36.627880
21
73.459230
31
0.0
0
LINE
8
0
6
CONTINUOUS
10
36.627880
20
73.459230
30
0.0
11
42.352500
21
72.039807
31
0.0
0
LINE
8
0
6
CONTINUOUS
10
42.352500
20
72.039807
30
0.0
11
48.077120
21
70.620373
31
0.0
0
LINE
8
0
6
CONTINUOUS
10
-23.582620
20
88.375579
30
0.0
11
-22.345090
21
88.065927
31
0.0
0
LINE
8
0
6
CONTINUOUS
10
72.245410
20
37.378489
30
0.0
11
75.200100
21
38.269553
31
0.0
0
LINE
8
0
6
CONTINUOUS
10
62.433470
20
34.489296
30
0.0
11
58.433750
21
33.304248
31
0.0
0
LINE
8
0
6
CONTINUOUS
10
75.628480
20
38.398790
30
0.0
11
74.322630
21
38.011880
31
0.0
0
LINE
8
0
6
CONTINUOUS
10
72.269060
20
37.403439
30
0.0
11
69.504080
21
36.584217
31
0.0
0
LINE
8
0
6
CONTINUOUS
10
76.066220
20
38.528488
30
0.0
11
75.628480
21
38.398790
31
0.0
0
LINE
8
0
6
CONTINUOUS
10
66.183750
20
35.600459
30
0.0
11
62.433470
21
34.489296
31
0.0
0
LINE
8
0
6
CONTINUOUS
10
74.322630
20
38.011880
30
0.0
11
72.269060
21
37.403439
31
0.0
0
LINE
8
0
6
CONTINUOUS
10
69.504080
20
36.584217
30
0.0
11
66.183750
21
35.600459
31
0.0
0
LINE
8
0
6
CONTINUOUS
10
54.253750
20
31.971834
30
0.0
11
48.270160
21
31.971834
31
0.0
0
LINE
8
0
6
CONTINUOUS
10
54.293790
20
31.964705
30
0.0
11
58.433750
21
33.304248
31
0.0
0
LINE
8
0
6
CONTINUOUS
10
58.433750
20
33.304248
30
0.0
11
54.253750
21
31.971834
31
0.0
0
LINE
8
0
6
CONTINUOUS
10
76.055430
20
38.939545
30
0.0
11
75.850280
21
46.749774
31
0.0
0
LINE
8
0
6
CONTINUOUS
10
32.266490
20
32.607747
30
0.0
11
32.277540
21
31.971834
31
0.0
0
LINE
8
0
6
CONTINUOUS
10
32.277540
20
31.971834
30
0.0
11
32.703240
21
31.971834
31
0.0
0
ENDSEC
0
EOF
