999
unknown String-ID: 20550
0
SECTION
2
HEADER
9
$ACADVER
1
AC1009
9
$DWGCODEPAGE
3
unknown String-ID: 20561
0
ENDSEC
0
SECTION
2
TABLES
0
TABLE
2
LAYER
70
1
0
LAYER
2
0
70
0
62
7
6
CONTINUOUS
0
ENDTAB
0
ENDSEC
0
SECTION
2
ENTITIES
0
LINE
8
0
6
CONTINUOUS
10
1.171019
20
1.086304
30
0.0
11
1.396549
21
1.912064
31
0.0
0
LINE
8
0
6
CONTINUOUS
10
0.857704
20
0.874260
30
0.0
11
1.171019
21
1.086304
31
0.0
0
LINE
8
0
6
CONTINUOUS
10
1.396549
20
1.912064
30
0.0
11
1.768111
21
2.651879
31
0.0
0
LINE
8
0
6
CONTINUOUS
10
2.821138
20
3.437203
30
0.0
11
3.328464
21
3.732956
31
0.0
0
LINE
8
0
6
CONTINUOUS
10
0.428936
20
0.776116
30
0.0
11
0.857704
21
0.874260
31
0.0
0
LINE
8
0
6
CONTINUOUS
10
0.004798
20
0.748017
30
0.0
11
0.428936
21
0.776116
31
0.0
0
LINE
8
0
6
CONTINUOUS
10
1.768111
20
2.651879
30
0.0
11
2.043279
21
2.966957
31
0.0
0
LINE
8
0
6
CONTINUOUS
10
2.593610
20
8.669541
30
0.0
11
1.320664
21
8.953881
31
0.0
0
LINE
8
0
6
CONTINUOUS
10
-1.153278
20
1.011109
30
0.0
11
-0.842610
21
0.867039
31
0.0
0
LINE
8
0
6
CONTINUOUS
10
-1.363507
20
1.939862
30
0.0
11
-1.153278
21
1.011109
31
0.0
0
LINE
8
0
6
CONTINUOUS
10
-1.712673
20
2.661804
30
0.0
11
-1.363507
21
1.939862
31
0.0
0
LINE
8
0
6
CONTINUOUS
10
-0.842610
20
0.867039
30
0.0
11
-0.420601
21
0.769131
31
0.0
0
LINE
8
0
6
CONTINUOUS
10
-0.420601
20
0.769131
30
0.0
11
0.004798
21
0.748017
31
0.0
0
LINE
8
0
6
CONTINUOUS
10
-2.010798
20
2.946243
30
0.0
11
-1.712673
21
2.661804
31
0.0
0
LINE
8
0
6
CONTINUOUS
10
5.142663
20
6.510575
30
0.0
11
4.789276
21
7.286202
31
0.0
0
LINE
8
0
6
CONTINUOUS
10
4.789276
20
7.286202
30
0.0
11
4.326708
21
7.761612
31
0.0
0
LINE
8
0
6
CONTINUOUS
10
4.326708
20
7.761612
30
0.0
11
3.712116
21
8.176766
31
0.0
0
LINE
8
0
6
CONTINUOUS
10
3.712116
20
8.176766
30
0.0
11
2.593610
21
8.669541
31
0.0
0
LINE
8
0
6
CONTINUOUS
10
1.320664
20
8.953881
30
0.0
11
-0.000006
21
9.047135
31
0.0
0
LINE
8
0
6
CONTINUOUS
10
5.169097
20
5.734368
30
0.0
11
5.142663
21
6.510575
31
0.0
0
LINE
8
0
6
CONTINUOUS
10
4.846481
20
4.972641
30
0.0
11
5.169096
21
5.734368
31
0.0
0
LINE
8
0
6
CONTINUOUS
10
4.199075
20
4.295761
30
0.0
11
4.846481
21
4.972641
31
0.0
0
LINE
8
0
6
CONTINUOUS
10
3.787308
20
4.003227
30
0.0
11
4.199075
21
4.295761
31
0.0
0
LINE
8
0
6
CONTINUOUS
10
3.328464
20
3.732956
30
0.0
11
3.787308
21
4.003227
31
0.0
0
LINE
8
0
6
CONTINUOUS
10
-3.328450
20
3.732941
30
0.0
11
-2.821123
21
3.437195
31
0.0
0
LINE
8
0
6
CONTINUOUS
10
-2.821123
20
3.437195
30
0.0
11
-2.303159
21
3.118584
31
0.0
0
LINE
8
0
6
CONTINUOUS
10
-4.789280
20
7.286186
30
0.0
11
-5.142664
21
6.510559
31
0.0
0
LINE
8
0
6
CONTINUOUS
10
-3.712123
20
8.176750
30
0.0
11
-4.326713
21
7.761597
31
0.0
0
LINE
8
0
6
CONTINUOUS
10
-4.326713
20
7.761597
30
0.0
11
-4.789280
21
7.286186
31
0.0
0
LINE
8
0
6
CONTINUOUS
10
-2.593619
20
8.669533
30
0.0
11
-3.712123
21
8.176750
31
0.0
0
LINE
8
0
6
CONTINUOUS
10
-1.320676
20
8.953873
30
0.0
11
-2.593619
21
8.669533
31
0.0
0
LINE
8
0
6
CONTINUOUS
10
-0.000006
20
9.047135
30
0.0
11
-1.320676
21
8.953873
31
0.0
0
LINE
8
0
6
CONTINUOUS
10
-5.142664
20
6.510559
30
0.0
11
-5.169093
21
5.734352
31
0.0
0
LINE
8
0
6
CONTINUOUS
10
-5.169093
20
5.734352
30
0.0
11
-4.846474
21
4.972626
31
0.0
0
LINE
8
0
6
CONTINUOUS
10
-4.846474
20
4.972626
30
0.0
11
-4.199065
21
4.295754
31
0.0
0
LINE
8
0
6
CONTINUOUS
10
-4.199065
20
4.295754
30
0.0
11
-3.787295
21
4.003212
31
0.0
0
LINE
8
0
6
CONTINUOUS
10
-3.787295
20
4.003212
30
0.0
11
-3.328450
21
3.732941
31
0.0
0
LINE
8
0
6
CONTINUOUS
10
2.043279
20
2.966957
30
0.0
11
2.311122
21
3.117951
31
0.0
0
LINE
8
0
6
CONTINUOUS
10
-2.303159
20
3.118584
30
0.0
11
-2.010798
21
2.946243
31
0.0
0
LINE
8
0
6
CONTINUOUS
10
2.311122
20
3.117951
30
0.0
11
2.821138
21
3.437203
31
0.0
0
LINE
8
0
6
CONTINUOUS
10
5.250757
20
5.737816
30
0.0
11
5.287278
21
5.854767
31
0.0
0
LINE
8
0
6
CONTINUOUS
10
1.353694
20
-5.697338
30
0.0
11
1.514846
21
-2.674358
31
0.0
0
LINE
8
0
6
CONTINUOUS
10
1.514846
20
-2.674358
30
0.0
11
1.640279
21
-0.334469
31
0.0
0
LINE
8
0
6
CONTINUOUS
10
1.640279
20
-0.334469
30
0.0
11
1.741465
21
1.560139
31
0.0
0
LINE
8
0
6
CONTINUOUS
10
1.725683
20
2.145096
30
0.0
11
1.996046
21
2.696022
31
0.0
0
LINE
8
0
6
CONTINUOUS
10
5.289650
20
5.873780
30
0.0
11
5.353927
21
6.389023
31
0.0
0
LINE
8
0
6
CONTINUOUS
10
5.387280
20
6.982537
30
0.0
11
5.378971
21
7.807503
31
0.0
0
LINE
8
0
6
CONTINUOUS
10
5.384477
20
6.932640
30
0.0
11
5.387280
21
6.982537
31
0.0
0
LINE
8
0
6
CONTINUOUS
10
1.306239
20
10.457489
30
0.0
11
-0.000008
21
10.541603
31
0.0
0
LINE
8
0
6
CONTINUOUS
10
2.543144
20
10.189850
30
0.0
11
1.306239
21
10.457489
31
0.0
0
LINE
8
0
6
CONTINUOUS
10
3.666377
20
9.728401
30
0.0
11
2.543144
21
10.189850
31
0.0
0
LINE
8
0
6
CONTINUOUS
10
4.909724
20
8.705719
30
0.0
11
4.500733
21
9.129547
31
0.0
0
LINE
8
0
6
CONTINUOUS
10
5.001446
20
8.596970
30
0.0
11
4.909724
21
8.705719
31
0.0
0
LINE
8
0
6
CONTINUOUS
10
4.393442
20
9.238770
30
0.0
11
3.666377
21
9.728401
31
0.0
0
LINE
8
0
6
CONTINUOUS
10
4.500733
20
9.129547
30
0.0
11
4.393442
21
9.238770
31
0.0
0
LINE
8
0
6
CONTINUOUS
10
1.667971
20
2.039696
30
0.0
11
1.996046
21
2.696022
31
0.0
0
LINE
8
0
6
CONTINUOUS
10
1.996046
20
2.696022
30
0.0
11
2.403621
21
3.104912
31
0.0
0
LINE
8
0
6
CONTINUOUS
10
3.837449
20
4.004379
30
0.0
11
4.258724
21
4.296250
31
0.0
0
LINE
8
0
6
CONTINUOUS
10
4.199075
20
4.295761
30
0.0
11
3.787308
21
4.003227
31
0.0
0
LINE
8
0
6
CONTINUOUS
10
3.372641
20
3.736565
30
0.0
11
3.837449
21
4.004379
31
0.0
0
LINE
8
0
6
CONTINUOUS
10
3.787308
20
4.003227
30
0.0
11
3.328464
21
3.732956
31
0.0
0
LINE
8
0
6
CONTINUOUS
10
1.320665
20
8.953881
30
0.0
11
2.593610
21
8.669541
31
0.0
0
LINE
8
0
6
CONTINUOUS
10
2.595690
20
8.721070
30
0.0
11
1.320736
21
9.009155
31
0.0
0
LINE
8
0
6
CONTINUOUS
10
3.328464
20
3.732956
30
0.0
11
2.821138
21
3.437203
31
0.0
0
LINE
8
0
6
CONTINUOUS
10
2.856405
20
3.445824
30
0.0
11
3.372641
21
3.736565
31
0.0
0
LINE
8
0
6
CONTINUOUS
10
4.258724
20
4.296250
30
0.0
11
4.923189
21
4.977577
31
0.0
0
LINE
8
0
6
CONTINUOUS
10
4.846482
20
4.972641
30
0.0
11
4.199075
21
4.295761
31
0.0
0
LINE
8
0
6
CONTINUOUS
10
2.403621
20
3.104912
30
0.0
11
2.856405
21
3.445824
31
0.0
0
LINE
8
0
6
CONTINUOUS
10
1.728475
20
1.341042
30
0.0
11
1.809734
21
2.307702
31
0.0
0
LINE
8
0
6
CONTINUOUS
10
5.353927
20
6.389023
30
0.0
11
5.384477
21
6.932640
31
0.0
0
LINE
8
0
6
CONTINUOUS
10
5.378971
20
7.807503
30
0.0
11
5.001446
21
8.596970
31
0.0
0
LINE
8
0
6
CONTINUOUS
10
1.280590
20
-7.106048
30
0.0
11
1.353694
21
-5.697338
31
0.0
0
LINE
8
0
6
CONTINUOUS
10
1.783514
20
2.250710
30
0.0
11
1.809734
21
2.307702
31
0.0
0
LINE
8
0
6
CONTINUOUS
10
5.287278
20
5.854767
30
0.0
11
5.289650
21
5.873780
31
0.0
0
LINE
8
0
6
CONTINUOUS
10
0.000030
20
-7.967331
30
0.0
11
0.306369
21
-7.947449
31
0.0
0
LINE
8
0
6
CONTINUOUS
10
0.306369
20
-7.947449
30
0.0
11
0.588193
21
-7.889190
31
0.0
0
LINE
8
0
6
CONTINUOUS
10
0.588193
20
-7.889190
30
0.0
11
0.828920
21
-7.796528
31
0.0
0
LINE
8
0
6
CONTINUOUS
10
1.168410
20
-7.510284
30
0.0
11
1.213261
21
-7.425697
31
0.0
0
LINE
8
0
6
CONTINUOUS
10
0.604637
20
-7.876102
30
0.0
11
0.852410
21
-7.781017
31
0.0
0
LINE
8
0
6
CONTINUOUS
10
1.105377
20
-7.583690
30
0.0
11
1.168410
21
-7.510284
31
0.0
0
LINE
8
0
6
CONTINUOUS
10
0.000030
20
-7.956192
30
0.0
11
0.314780
21
-7.935840
31
0.0
0
LINE
8
0
6
CONTINUOUS
10
1.213261
20
-7.425697
30
0.0
11
1.259814
21
-7.337906
31
0.0
0
LINE
8
0
6
CONTINUOUS
10
0.852410
20
-7.781017
30
0.0
11
1.042472
21
-7.656944
31
0.0
0
LINE
8
0
6
CONTINUOUS
10
1.042472
20
-7.656944
30
0.0
11
1.105377
21
-7.583690
31
0.0
0
LINE
8
0
6
CONTINUOUS
10
1.259814
20
-7.337906
30
0.0
11
1.279930
21
-7.118782
31
0.0
0
LINE
8
0
6
CONTINUOUS
10
1.279930
20
-7.118782
30
0.0
11
1.280590
21
-7.106048
31
0.0
0
LINE
8
0
6
CONTINUOUS
10
0.314780
20
-7.935840
30
0.0
11
0.604637
21
-7.876102
31
0.0
0
LINE
8
0
6
CONTINUOUS
10
-5.287275
20
5.854752
30
0.0
11
-5.250755
21
5.737793
31
0.0
0
LINE
8
0
6
CONTINUOUS
10
-1.514806
20
-2.674362
30
0.0
11
-1.353643
21
-5.697342
31
0.0
0
LINE
8
0
6
CONTINUOUS
10
-1.640248
20
-0.334472
30
0.0
11
-1.514806
21
-2.674362
31
0.0
0
LINE
8
0
6
CONTINUOUS
10
-1.741441
20
1.560135
30
0.0
11
-1.640248
21
-0.334472
31
0.0
0
LINE
8
0
6
CONTINUOUS
10
-1.527351
20
0.910614
30
0.0
11
-1.400122
21
-0.959808
31
0.0
0
LINE
8
0
6
CONTINUOUS
10
-1.996028
20
2.696015
30
0.0
11
-1.725662
21
2.145088
31
0.0
0
LINE
8
0
6
CONTINUOUS
10
-5.353927
20
6.389000
30
0.0
11
-5.289648
21
5.873764
31
0.0
0
LINE
8
0
6
CONTINUOUS
10
-5.387280
20
6.982521
30
0.0
11
-5.384476
21
6.932625
31
0.0
0
LINE
8
0
6
CONTINUOUS
10
-5.378975
20
7.807488
30
0.0
11
-5.387280
21
6.982521
31
0.0
0
LINE
8
0
6
CONTINUOUS
10
-0.000008
20
10.541603
30
0.0
11
-1.306253
21
10.457489
31
0.0
0
LINE
8
0
6
CONTINUOUS
10
-1.306253
20
10.457489
30
0.0
11
-2.543157
21
10.189842
31
0.0
0
LINE
8
0
6
CONTINUOUS
10
-2.543157
20
10.189842
30
0.0
11
-3.666390
21
9.728394
31
0.0
0
LINE
8
0
6
CONTINUOUS
10
-4.500743
20
9.129532
30
0.0
11
-4.909732
21
8.705704
31
0.0
0
LINE
8
0
6
CONTINUOUS
10
-4.909732
20
8.705704
30
0.0
11
-5.001454
21
8.596955
31
0.0
0
LINE
8
0
6
CONTINUOUS
10
-4.393453
20
9.238754
30
0.0
11
-4.500743
21
9.129532
31
0.0
0
LINE
8
0
6
CONTINUOUS
10
-3.666390
20
9.728394
30
0.0
11
-4.393453
21
9.238754
31
0.0
0
LINE
8
0
6
CONTINUOUS
10
-1.996028
20
2.696015
30
0.0
11
-1.667950
21
2.039696
31
0.0
0
LINE
8
0
6
CONTINUOUS
10
-2.403606
20
3.104904
30
0.0
11
-1.996028
21
2.696015
31
0.0
0
LINE
8
0
6
CONTINUOUS
10
-1.527351
20
0.910614
30
0.0
11
-1.667950
21
2.039696
31
0.0
0
LINE
8
0
6
CONTINUOUS
10
-3.328450
20
3.732941
30
0.0
11
-3.787295
21
4.003212
31
0.0
0
LINE
8
0
6
CONTINUOUS
10
-3.837436
20
4.004364
30
0.0
11
-3.372628
21
3.736550
31
0.0
0
LINE
8
0
6
CONTINUOUS
10
-3.372628
20
3.736550
30
0.0
11
-2.856390
21
3.445816
31
0.0
0
LINE
8
0
6
CONTINUOUS
10
-2.821124
20
3.437195
30
0.0
11
-3.328450
21
3.732941
31
0.0
0
LINE
8
0
6
CONTINUOUS
10
-5.169093
20
5.734352
30
0.0
11
-5.142664
21
6.510559
31
0.0
0
LINE
8
0
6
CONTINUOUS
10
-5.223147
20
6.510079
30
0.0
11
-5.250755
21
5.737793
31
0.0
0
LINE
8
0
6
CONTINUOUS
10
-4.846475
20
4.972626
30
0.0
11
-5.169093
21
5.734352
31
0.0
0
LINE
8
0
6
CONTINUOUS
10
-5.250755
20
5.737793
30
0.0
11
-4.923182
21
4.977555
31
0.0
0
LINE
8
0
6
CONTINUOUS
10
-2.856390
20
3.445816
30
0.0
11
-2.403606
21
3.104904
31
0.0
0
LINE
8
0
6
CONTINUOUS
10
-1.809714
20
2.307693
30
0.0
11
-1.728450
21
1.341034
31
0.0
0
LINE
8
0
6
CONTINUOUS
10
-5.384476
20
6.932625
30
0.0
11
-5.353927
21
6.389000
31
0.0
0
LINE
8
0
6
CONTINUOUS
10
-5.001454
20
8.596955
30
0.0
11
-5.378975
21
7.807488
31
0.0
0
LINE
8
0
6
CONTINUOUS
10
-1.353643
20
-5.697342
30
0.0
11
-1.280533
21
-7.106052
31
0.0
0
LINE
8
0
6
CONTINUOUS
10
-1.809714
20
2.307693
30
0.0
11
-1.783493
21
2.250702
31
0.0
0
LINE
8
0
6
CONTINUOUS
10
-5.289648
20
5.873764
30
0.0
11
-5.287275
21
5.854752
31
0.0
0
LINE
8
0
6
CONTINUOUS
10
-0.306310
20
-7.947449
30
0.0
11
0.000030
21
-7.967331
31
0.0
0
LINE
8
0
6
CONTINUOUS
10
-0.588133
20
-7.889194
30
0.0
11
-0.306310
21
-7.947449
31
0.0
0
LINE
8
0
6
CONTINUOUS
10
-1.213202
20
-7.425701
30
0.0
11
-1.168353
21
-7.510288
31
0.0
0
LINE
8
0
6
CONTINUOUS
10
-0.852352
20
-7.781017
30
0.0
11
-0.604578
21
-7.876106
31
0.0
0
LINE
8
0
6
CONTINUOUS
10
-1.168353
20
-7.510288
30
0.0
11
-1.105318
21
-7.583694
31
0.0
0
LINE
8
0
6
CONTINUOUS
10
-0.314720
20
-7.935844
30
0.0
11
0.000030
21
-7.956192
31
0.0
0
LINE
8
0
6
CONTINUOUS
10
-1.259757
20
-7.337909
30
0.0
11
-1.213202
21
-7.425701
31
0.0
0
LINE
8
0
6
CONTINUOUS
10
-1.042413
20
-7.656944
30
0.0
11
-0.852352
21
-7.781017
31
0.0
0
LINE
8
0
6
CONTINUOUS
10
-1.105318
20
-7.583694
30
0.0
11
-1.042413
21
-7.656944
31
0.0
0
LINE
8
0
6
CONTINUOUS
10
-1.280533
20
-7.106052
30
0.0
11
-1.279871
21
-7.118786
31
0.0
0
LINE
8
0
6
CONTINUOUS
10
-1.279871
20
-7.118786
30
0.0
11
-1.259757
21
-7.337909
31
0.0
0
LINE
8
0
6
CONTINUOUS
10
-0.604578
20
-7.876106
30
0.0
11
-0.314720
21
-7.935844
31
0.0
0
LINE
8
0
6
CONTINUOUS
10
1.027085
20
-9.988758
30
0.0
11
1.179031
21
-7.565670
31
0.0
0
LINE
8
0
6
CONTINUOUS
10
-1.165143
20
-7.565677
30
0.0
11
-1.013188
21
-9.988762
31
0.0
0
LINE
8
0
6
CONTINUOUS
10
0.888109
20
-10.286392
30
0.0
11
0.989756
21
-10.163288
31
0.0
0
LINE
8
0
6
CONTINUOUS
10
0.006949
20
-10.541603
30
0.0
11
0.270291
21
-10.524212
31
0.0
0
LINE
8
0
6
CONTINUOUS
10
-0.874211
20
-10.286396
30
0.0
11
-0.712515
21
-10.392105
31
0.0
0
LINE
8
0
6
CONTINUOUS
10
1.024426
20
-10.031181
30
0.0
11
1.027085
21
-9.988758
31
0.0
0
LINE
8
0
6
CONTINUOUS
10
0.989756
20
-10.163288
30
0.0
11
1.024426
21
-10.031181
31
0.0
0
LINE
8
0
6
CONTINUOUS
10
0.270291
20
-10.524212
30
0.0
11
0.515687
21
-10.473221
31
0.0
0
LINE
8
0
6
CONTINUOUS
10
-0.712515
20
-10.392105
30
0.0
11
-0.501789
21
-10.473221
31
0.0
0
LINE
8
0
6
CONTINUOUS
10
-1.013188
20
-9.988762
30
0.0
11
-1.010527
21
-10.031185
31
0.0
0
LINE
8
0
6
CONTINUOUS
10
-1.010527
20
-10.031185
30
0.0
11
-0.975857
21
-10.163292
31
0.0
0
LINE
8
0
6
CONTINUOUS
10
0.515687
20
-10.473221
30
0.0
11
0.726414
21
-10.392105
31
0.0
0
LINE
8
0
6
CONTINUOUS
10
-0.501789
20
-10.473221
30
0.0
11
-0.256393
21
-10.524212
31
0.0
0
LINE
8
0
6
CONTINUOUS
10
-0.256393
20
-10.524212
30
0.0
11
0.006949
21
-10.541603
31
0.0
0
LINE
8
0
6
CONTINUOUS
10
-0.975857
20
-10.163292
30
0.0
11
-0.874211
21
-10.286396
31
0.0
0
LINE
8
0
6
CONTINUOUS
10
0.726414
20
-10.392105
30
0.0
11
0.888109
21
-10.286392
31
0.0
0
LINE
8
0
6
CONTINUOUS
10
-0.821847
20
-7.799949
30
0.0
11
-0.579099
21
-7.893387
31
0.0
0
LINE
8
0
6
CONTINUOUS
10
-0.579099
20
-7.893387
30
0.0
11
-0.296415
21
-7.952129
31
0.0
0
LINE
8
0
6
CONTINUOUS
10
-0.296415
20
-7.952129
30
0.0
11
0.006944
21
-7.972164
31
0.0
0
LINE
8
0
6
CONTINUOUS
10
0.006944
20
-7.972164
30
0.0
11
0.310302
21
-7.952125
31
0.0
0
LINE
8
0
6
CONTINUOUS
10
0.310302
20
-7.952125
30
0.0
11
0.592988
21
-7.893387
31
0.0
0
LINE
8
0
6
CONTINUOUS
10
0.592988
20
-7.893387
30
0.0
11
0.835733
21
-7.799946
31
0.0
0
LINE
8
0
6
CONTINUOUS
10
0.835733
20
-7.799946
30
0.0
11
1.022001
21
-7.678169
31
0.0
0
LINE
8
0
6
CONTINUOUS
10
1.171020
20
1.086304
30
0.0
11
0.857705
21
0.874260
31
0.0
0
LINE
8
0
6
CONTINUOUS
10
0.857705
20
0.874260
30
0.0
11
0.428937
21
0.776116
31
0.0
0
LINE
8
0
6
CONTINUOUS
10
0.428937
20
0.776116
30
0.0
11
0.004799
21
0.748017
31
0.0
0
LINE
8
0
6
CONTINUOUS
10
1.396550
20
1.912064
30
0.0
11
1.171020
21
1.086304
31
0.0
0
LINE
8
0
6
CONTINUOUS
10
1.768111
20
2.651879
30
0.0
11
1.396550
21
1.912064
31
0.0
0
LINE
8
0
6
CONTINUOUS
10
-0.842610
20
0.867039
30
0.0
11
-1.153278
21
1.011109
31
0.0
0
LINE
8
0
6
CONTINUOUS
10
-0.420601
20
0.769131
30
0.0
11
-0.842610
21
0.867039
31
0.0
0
LINE
8
0
6
CONTINUOUS
10
0.004799
20
0.748017
30
0.0
11
-0.420601
21
0.769131
31
0.0
0
LINE
8
0
6
CONTINUOUS
10
-1.153278
20
1.011109
30
0.0
11
-1.363507
21
1.939862
31
0.0
0
LINE
8
0
6
CONTINUOUS
10
-1.363507
20
1.939862
30
0.0
11
-1.712673
21
2.661804
31
0.0
0
LINE
8
0
6
CONTINUOUS
10
2.366625
20
3.118691
30
0.0
11
2.388082
21
3.128823
31
0.0
0
LINE
8
0
6
CONTINUOUS
10
3.712116
20
8.176766
30
0.0
11
4.326708
21
7.761612
31
0.0
0
LINE
8
0
6
CONTINUOUS
10
4.368655
20
7.780365
30
0.0
11
3.717507
21
8.219315
31
0.0
0
LINE
8
0
6
CONTINUOUS
10
2.593610
20
8.669541
30
0.0
11
3.712116
21
8.176766
31
0.0
0
LINE
8
0
6
CONTINUOUS
10
3.717507
20
8.219315
30
0.0
11
2.595690
21
8.721070
31
0.0
0
LINE
8
0
6
CONTINUOUS
10
-0.000005
20
9.047135
30
0.0
11
1.320665
21
8.953881
31
0.0
0
LINE
8
0
6
CONTINUOUS
10
1.320736
20
9.009155
30
0.0
11
-0.000006
21
9.104576
31
0.0
0
LINE
8
0
6
CONTINUOUS
10
5.250757
20
5.737816
30
0.0
11
5.223147
21
6.510094
31
0.0
0
LINE
8
0
6
CONTINUOUS
10
5.142663
20
6.510575
30
0.0
11
5.169096
21
5.734368
31
0.0
0
LINE
8
0
6
CONTINUOUS
10
4.858748
20
7.276535
30
0.0
11
4.368655
21
7.780365
31
0.0
0
LINE
8
0
6
CONTINUOUS
10
4.326708
20
7.761612
30
0.0
11
4.789276
21
7.286202
31
0.0
0
LINE
8
0
6
CONTINUOUS
10
2.821138
20
3.437203
30
0.0
11
2.311122
21
3.117951
31
0.0
0
LINE
8
0
6
CONTINUOUS
10
2.311122
20
3.117951
30
0.0
11
2.366625
21
3.118691
31
0.0
0
LINE
8
0
6
CONTINUOUS
10
4.789276
20
7.286202
30
0.0
11
5.142663
21
6.510575
31
0.0
0
LINE
8
0
6
CONTINUOUS
10
5.223147
20
6.510094
30
0.0
11
4.858748
21
7.276535
31
0.0
0
LINE
8
0
6
CONTINUOUS
10
4.923189
20
4.977577
30
0.0
11
5.250757
21
5.737816
31
0.0
0
LINE
8
0
6
CONTINUOUS
10
5.169097
20
5.734368
30
0.0
11
4.846482
21
4.972641
31
0.0
0
LINE
8
0
6
CONTINUOUS
10
-2.388066
20
3.128815
30
0.0
11
-2.366610
21
3.118683
31
0.0
0
LINE
8
0
6
CONTINUOUS
10
-3.787295
20
4.003212
30
0.0
11
-4.199065
21
4.295754
31
0.0
0
LINE
8
0
6
CONTINUOUS
10
-4.258715
20
4.296234
30
0.0
11
-3.837436
21
4.004364
31
0.0
0
LINE
8
0
6
CONTINUOUS
10
-3.717514
20
8.219300
30
0.0
11
-4.368661
21
7.780350
31
0.0
0
LINE
8
0
6
CONTINUOUS
10
-4.326713
20
7.761597
30
0.0
11
-3.712124
21
8.176750
31
0.0
0
LINE
8
0
6
CONTINUOUS
10
-1.320747
20
9.009148
30
0.0
11
-2.595699
21
8.721062
31
0.0
0
LINE
8
0
6
CONTINUOUS
10
-2.593619
20
8.669533
30
0.0
11
-1.320676
21
8.953873
31
0.0
0
LINE
8
0
6
CONTINUOUS
10
-2.595699
20
8.721062
30
0.0
11
-3.717514
21
8.219300
31
0.0
0
LINE
8
0
6
CONTINUOUS
10
-3.712124
20
8.176750
30
0.0
11
-2.593619
21
8.669533
31
0.0
0
LINE
8
0
6
CONTINUOUS
10
-0.000006
20
9.104576
30
0.0
11
-1.320747
21
9.009148
31
0.0
0
LINE
8
0
6
CONTINUOUS
10
-1.320676
20
8.953873
30
0.0
11
-0.000005
21
9.047135
31
0.0
0
LINE
8
0
6
CONTINUOUS
10
-4.199065
20
4.295754
30
0.0
11
-4.846475
21
4.972626
31
0.0
0
LINE
8
0
6
CONTINUOUS
10
-4.923182
20
4.977555
30
0.0
11
-4.258715
21
4.296234
31
0.0
0
LINE
8
0
6
CONTINUOUS
10
-4.789280
20
7.286186
30
0.0
11
-4.326713
21
7.761597
31
0.0
0
LINE
8
0
6
CONTINUOUS
10
-4.368661
20
7.780350
30
0.0
11
-4.858752
21
7.276520
31
0.0
0
LINE
8
0
6
CONTINUOUS
10
-4.858752
20
7.276520
30
0.0
11
-5.223147
21
6.510079
31
0.0
0
LINE
8
0
6
CONTINUOUS
10
-5.142664
20
6.510559
30
0.0
11
-4.789280
21
7.286186
31
0.0
0
LINE
8
0
6
CONTINUOUS
10
2.311122
20
3.117951
30
0.0
11
2.043279
21
2.966957
31
0.0
0
LINE
8
0
6
CONTINUOUS
10
2.043279
20
2.966957
30
0.0
11
1.768111
21
2.651879
31
0.0
0
LINE
8
0
6
CONTINUOUS
10
-2.010798
20
2.946243
30
0.0
11
-2.303159
21
3.118584
31
0.0
0
LINE
8
0
6
CONTINUOUS
10
-1.712673
20
2.661804
30
0.0
11
-2.010798
21
2.946243
31
0.0
0
LINE
8
0
6
CONTINUOUS
10
-2.821124
20
3.437195
30
0.0
11
-2.366610
21
3.118683
31
0.0
0
LINE
8
0
6
CONTINUOUS
10
-2.303159
20
3.118584
30
0.0
11
-2.821124
21
3.437195
31
0.0
0
LINE
8
0
6
CONTINUOUS
10
-2.366610
20
3.118683
30
0.0
11
-2.303159
21
3.118584
31
0.0
0
LINE
8
0
6
CONTINUOUS
10
-4.626442
20
5.381622
30
0.0
11
-4.597329
21
5.474449
31
0.0
0
LINE
8
0
6
CONTINUOUS
10
-4.626442
20
5.497109
30
0.0
11
-4.626442
21
5.381622
31
0.0
0
LINE
8
0
6
CONTINUOUS
10
-4.316757
20
5.445556
30
0.0
11
-4.316757
21
5.489519
31
0.0
0
LINE
8
0
6
CONTINUOUS
10
-4.442485
20
5.506416
30
0.0
11
-4.316757
21
5.445556
31
0.0
0
LINE
8
0
6
CONTINUOUS
10
-0.117790
20
6.561424
30
0.0
11
0.046639
21
6.557350
31
0.0
0
LINE
8
0
6
CONTINUOUS
10
-0.117790
20
6.561424
30
0.0
11
-0.117790
21
6.656632
31
0.0
0
LINE
8
0
6
CONTINUOUS
10
-0.206167
20
6.481857
30
0.0
11
-0.117790
21
6.561424
31
0.0
0
LINE
8
0
6
CONTINUOUS
10
-0.206167
20
6.568563
30
0.0
11
-0.206167
21
6.481857
31
0.0
0
LINE
8
0
6
CONTINUOUS
10
-0.188883
20
4.833427
30
0.0
11
-0.063154
21
4.894287
31
0.0
0
LINE
8
0
6
CONTINUOUS
10
-0.188883
20
4.918765
30
0.0
11
-0.188883
21
4.833427
31
0.0
0
LINE
8
0
6
CONTINUOUS
10
-0.063154
20
4.894287
30
0.0
11
0.091689
21
4.862320
31
0.0
0
LINE
8
0
6
CONTINUOUS
10
-0.063154
20
4.975173
30
0.0
11
-0.063154
21
4.894287
31
0.0
0
LINE
8
0
6
CONTINUOUS
10
0.091689
20
4.862320
30
0.0
11
0.120803
21
4.769500
31
0.0
0
LINE
8
0
6
CONTINUOUS
10
0.091689
20
4.944193
30
0.0
11
0.091689
21
4.862320
31
0.0
0
LINE
8
0
6
CONTINUOUS
10
-0.830277
20
4.473030
30
0.0
11
-0.704548
21
4.533889
31
0.0
0
LINE
8
0
6
CONTINUOUS
10
-0.830277
20
4.553977
30
0.0
11
-0.830277
21
4.473030
31
0.0
0
LINE
8
0
6
CONTINUOUS
10
-0.704548
20
4.533889
30
0.0
11
-0.549705
21
4.501922
31
0.0
0
LINE
8
0
6
CONTINUOUS
10
-0.704548
20
4.602741
30
0.0
11
-0.704548
21
4.533889
31
0.0
0
LINE
8
0
6
CONTINUOUS
10
-0.549705
20
4.501922
30
0.0
11
-0.520591
21
4.409103
31
0.0
0
LINE
8
0
6
CONTINUOUS
10
-0.549705
20
4.569616
30
0.0
11
-0.549705
21
4.501922
31
0.0
0
LINE
8
0
6
CONTINUOUS
10
-0.214057
20
3.936265
30
0.0
11
-0.088328
21
3.997124
31
0.0
0
LINE
8
0
6
CONTINUOUS
10
-0.214057
20
4.016408
30
0.0
11
-0.214057
21
3.936265
31
0.0
0
LINE
8
0
6
CONTINUOUS
10
-0.088328
20
3.997124
30
0.0
11
0.066515
21
3.965165
31
0.0
0
LINE
8
0
6
CONTINUOUS
10
-0.088328
20
4.065202
30
0.0
11
-0.088328
21
3.997124
31
0.0
0
LINE
8
0
6
CONTINUOUS
10
0.066515
20
3.965165
30
0.0
11
0.095629
21
3.872338
31
0.0
0
LINE
8
0
6
CONTINUOUS
10
0.066515
20
4.037242
30
0.0
11
0.066515
21
3.965165
31
0.0
0
LINE
8
0
6
CONTINUOUS
10
-0.936588
20
3.591126
30
0.0
11
-0.810858
21
3.651993
31
0.0
0
LINE
8
0
6
CONTINUOUS
10
-0.936588
20
3.669455
30
0.0
11
-0.936588
21
3.591126
31
0.0
0
LINE
8
0
6
CONTINUOUS
10
-1.007944
20
5.134491
30
0.0
11
-0.882214
21
5.195350
31
0.0
0
LINE
8
0
6
CONTINUOUS
10
-1.007944
20
5.218621
30
0.0
11
-1.007944
21
5.134491
31
0.0
0
LINE
8
0
6
CONTINUOUS
10
-0.882214
20
5.195350
30
0.0
11
-0.727371
21
5.163383
31
0.0
0
LINE
8
0
6
CONTINUOUS
10
-0.882214
20
5.275220
30
0.0
11
-0.882214
21
5.195350
31
0.0
0
LINE
8
0
6
CONTINUOUS
10
-0.727371
20
5.163383
30
0.0
11
-0.698258
21
5.070564
31
0.0
0
LINE
8
0
6
CONTINUOUS
10
-0.727371
20
5.238043
30
0.0
11
-0.727371
21
5.163383
31
0.0
0
LINE
8
0
6
CONTINUOUS
10
-4.111682
20
4.525077
30
0.0
11
-4.082569
21
4.617912
31
0.0
0
LINE
8
0
6
CONTINUOUS
10
-4.111682
20
4.643609
30
0.0
11
-4.111682
21
4.525077
31
0.0
0
LINE
8
0
6
CONTINUOUS
10
-4.082569
20
4.617912
30
0.0
11
-3.927726
21
4.649879
31
0.0
0
LINE
8
0
6
CONTINUOUS
10
-4.082569
20
4.712245
30
0.0
11
-4.082569
21
4.617912
31
0.0
0
LINE
8
0
6
CONTINUOUS
10
-3.801997
20
4.589019
30
0.0
11
-3.801997
21
4.629788
31
0.0
0
LINE
8
0
6
CONTINUOUS
10
-3.927726
20
4.649879
30
0.0
11
-3.801997
21
4.589019
31
0.0
0
LINE
8
0
6
CONTINUOUS
10
-3.927726
20
4.705920
30
0.0
11
-3.927726
21
4.649879
31
0.0
0
LINE
8
0
6
CONTINUOUS
10
-3.093923
20
3.786919
30
0.0
11
-3.064810
21
3.879754
31
0.0
0
LINE
8
0
6
CONTINUOUS
10
-3.093923
20
3.909018
30
0.0
11
-3.093923
21
3.786919
31
0.0
0
LINE
8
0
6
CONTINUOUS
10
-3.064810
20
3.879754
30
0.0
11
-2.909967
21
3.911713
31
0.0
0
LINE
8
0
6
CONTINUOUS
10
-3.064810
20
3.969068
30
0.0
11
-3.064810
21
3.879754
31
0.0
0
LINE
8
0
6
CONTINUOUS
10
-2.784237
20
3.850854
30
0.0
11
-2.784237
21
3.892308
31
0.0
0
LINE
8
0
6
CONTINUOUS
10
-2.909967
20
3.911713
30
0.0
11
-2.784237
21
3.850854
31
0.0
0
LINE
8
0
6
CONTINUOUS
10
-2.909967
20
3.960505
30
0.0
11
-2.909967
21
3.911713
31
0.0
0
LINE
8
0
6
CONTINUOUS
10
-2.289465
20
3.903702
30
0.0
11
-2.260351
21
3.996529
31
0.0
0
LINE
8
0
6
CONTINUOUS
10
-2.289465
20
4.014100
30
0.0
11
-2.289465
21
3.903702
31
0.0
0
LINE
8
0
6
CONTINUOUS
10
-2.528703
20
4.696571
30
0.0
11
-2.499590
21
4.789398
31
0.0
0
LINE
8
0
6
CONTINUOUS
10
-2.528703
20
4.797195
30
0.0
11
-2.528703
21
4.696571
31
0.0
0
LINE
8
0
6
CONTINUOUS
10
-2.499590
20
4.789398
30
0.0
11
-2.344747
21
4.821357
31
0.0
0
LINE
8
0
6
CONTINUOUS
10
-2.499590
20
4.874239
30
0.0
11
-2.499590
21
4.789398
31
0.0
0
LINE
8
0
6
CONTINUOUS
10
-2.219017
20
4.760498
30
0.0
11
-2.219017
21
4.820468
31
0.0
0
LINE
8
0
6
CONTINUOUS
10
-2.344747
20
4.821357
30
0.0
11
-2.219017
21
4.760498
31
0.0
0
LINE
8
0
6
CONTINUOUS
10
-2.344747
20
4.886606
30
0.0
11
-2.344747
21
4.821357
31
0.0
0
LINE
8
0
6
CONTINUOUS
10
-3.316183
20
4.596672
30
0.0
11
-3.287069
21
4.689491
31
0.0
0
LINE
8
0
6
CONTINUOUS
10
-3.316183
20
4.704062
30
0.0
11
-3.316183
21
4.596672
31
0.0
0
LINE
8
0
6
CONTINUOUS
10
-1.548662
20
4.181397
30
0.0
11
-1.422932
21
4.242257
31
0.0
0
LINE
8
0
6
CONTINUOUS
10
-1.548662
20
4.269856
30
0.0
11
-1.548662
21
4.181397
31
0.0
0
LINE
8
0
6
CONTINUOUS
10
-1.422932
20
4.242257
30
0.0
11
-1.268090
21
4.210290
31
0.0
0
LINE
8
0
6
CONTINUOUS
10
-1.422932
20
4.311541
30
0.0
11
-1.422932
21
4.242257
31
0.0
0
LINE
8
0
6
CONTINUOUS
10
-1.268090
20
4.210290
30
0.0
11
-1.238976
21
4.117470
31
0.0
0
LINE
8
0
6
CONTINUOUS
10
-1.268090
20
4.271137
30
0.0
11
-1.268090
21
4.210290
31
0.0
0
LINE
8
0
6
CONTINUOUS
10
-0.207735
20
3.173653
30
0.0
11
-0.082006
21
3.234521
31
0.0
0
LINE
8
0
6
CONTINUOUS
10
-0.207735
20
3.257905
30
0.0
11
-0.207735
21
3.173653
31
0.0
0
LINE
8
0
6
CONTINUOUS
10
-1.716723
20
3.349907
30
0.0
11
-1.590994
21
3.410767
31
0.0
0
LINE
8
0
6
CONTINUOUS
10
-1.716723
20
3.433161
30
0.0
11
-1.716723
21
3.349907
31
0.0
0
LINE
8
0
6
CONTINUOUS
10
-2.898648
20
5.547859
30
0.0
11
-2.772919
21
5.608726
31
0.0
0
LINE
8
0
6
CONTINUOUS
10
-2.898648
20
5.652870
30
0.0
11
-2.898648
21
5.547859
31
0.0
0
LINE
8
0
6
CONTINUOUS
10
-2.772919
20
5.608726
30
0.0
11
-2.618076
21
5.576759
31
0.0
0
LINE
8
0
6
CONTINUOUS
10
-2.772919
20
5.690893
30
0.0
11
-2.772919
21
5.608726
31
0.0
0
LINE
8
0
6
CONTINUOUS
10
-2.618076
20
5.576759
30
0.0
11
-2.588962
21
5.483932
31
0.0
0
LINE
8
0
6
CONTINUOUS
10
-2.618076
20
5.640467
30
0.0
11
-2.618076
21
5.576759
31
0.0
0
LINE
8
0
6
CONTINUOUS
10
-1.755855
20
4.922470
30
0.0
11
-1.630126
21
4.983329
31
0.0
0
LINE
8
0
6
CONTINUOUS
10
-1.755855
20
5.019144
30
0.0
11
-1.755855
21
4.922470
31
0.0
0
LINE
8
0
6
CONTINUOUS
10
-1.630126
20
4.983329
30
0.0
11
-1.475283
21
4.951370
31
0.0
0
LINE
8
0
6
CONTINUOUS
10
-1.630126
20
5.065323
30
0.0
11
-1.630126
21
4.983329
31
0.0
0
LINE
8
0
6
CONTINUOUS
10
-1.475283
20
4.951370
30
0.0
11
-1.446169
21
4.858535
31
0.0
0
LINE
8
0
6
CONTINUOUS
10
-1.475283
20
5.016577
30
0.0
11
-1.475283
21
4.951370
31
0.0
0
LINE
8
0
6
CONTINUOUS
10
-0.119276
20
7.825386
30
0.0
11
0.042964
21
7.809532
31
0.0
0
LINE
8
0
6
CONTINUOUS
10
0.042964
20
7.809532
30
0.0
11
0.100118
21
7.721084
31
0.0
0
LINE
8
0
6
CONTINUOUS
10
0.042964
20
7.907842
30
0.0
11
0.042964
21
7.809532
31
0.0
0
LINE
8
0
6
CONTINUOUS
10
-0.224363
20
7.752800
30
0.0
11
-0.119276
21
7.825386
31
0.0
0
LINE
8
0
6
CONTINUOUS
10
-0.224363
20
7.842513
30
0.0
11
-0.224363
21
7.752800
31
0.0
0
LINE
8
0
6
CONTINUOUS
10
0.031233
20
7.146957
30
0.0
11
0.088387
21
7.058517
31
0.0
0
LINE
8
0
6
CONTINUOUS
10
-0.236094
20
7.090232
30
0.0
11
-0.131007
21
7.162819
31
0.0
0
LINE
8
0
6
CONTINUOUS
10
-0.236094
20
7.179187
30
0.0
11
-0.236094
21
7.090232
31
0.0
0
LINE
8
0
6
CONTINUOUS
10
-1.584067
20
7.631027
30
0.0
11
-1.419637
21
7.635109
31
0.0
0
LINE
8
0
6
CONTINUOUS
10
-1.660121
20
7.547386
30
0.0
11
-1.584067
21
7.631027
31
0.0
0
LINE
8
0
6
CONTINUOUS
10
-1.660121
20
7.644333
30
0.0
11
-1.660121
21
7.547386
31
0.0
0
LINE
8
0
6
CONTINUOUS
10
-1.490445
20
6.950706
30
0.0
11
-1.326015
21
6.954773
31
0.0
0
LINE
8
0
6
CONTINUOUS
10
-1.326015
20
6.954773
30
0.0
11
-1.237638
21
6.875213
31
0.0
0
LINE
8
0
6
CONTINUOUS
10
-1.326015
20
7.051220
30
0.0
11
-1.326015
21
6.954773
31
0.0
0
LINE
8
0
6
CONTINUOUS
10
-1.566499
20
6.867057
30
0.0
11
-1.490445
21
6.950706
31
0.0
0
LINE
8
0
6
CONTINUOUS
10
-1.566499
20
6.960863
30
0.0
11
-1.566499
21
6.867057
31
0.0
0
LINE
8
0
6
CONTINUOUS
10
-2.845866
20
7.123314
30
0.0
11
-2.686623
21
7.147148
31
0.0
0
LINE
8
0
6
CONTINUOUS
10
-2.686623
20
7.147148
30
0.0
11
-2.570988
21
7.080024
31
0.0
0
LINE
8
0
6
CONTINUOUS
10
-2.686623
20
7.239651
30
0.0
11
-2.686623
21
7.147148
31
0.0
0
LINE
8
0
6
CONTINUOUS
10
-2.889476
20
7.032371
30
0.0
11
-2.845866
21
7.123314
31
0.0
0
LINE
8
0
6
CONTINUOUS
10
-2.889476
20
7.137067
30
0.0
11
-2.889476
21
7.032371
31
0.0
0
LINE
8
0
6
CONTINUOUS
10
-1.328304
20
6.316940
30
0.0
11
-1.169060
21
6.340767
31
0.0
0
LINE
8
0
6
CONTINUOUS
10
-1.169060
20
6.340767
30
0.0
11
-1.053426
21
6.273651
31
0.0
0
LINE
8
0
6
CONTINUOUS
10
-1.169060
20
6.430320
30
0.0
11
-1.169060
21
6.340767
31
0.0
0
LINE
8
0
6
CONTINUOUS
10
-0.187671
20
5.864738
30
0.0
11
-0.144061
21
5.955673
31
0.0
0
LINE
8
0
6
CONTINUOUS
10
-0.187671
20
5.946451
30
0.0
11
-0.187671
21
5.864738
31
0.0
0
LINE
8
0
6
CONTINUOUS
10
-3.627179
20
6.374176
30
0.0
11
-3.480264
21
6.416694
31
0.0
0
LINE
8
0
6
CONTINUOUS
10
-3.480264
20
6.416694
30
0.0
11
-3.342558
21
6.365036
31
0.0
0
LINE
8
0
6
CONTINUOUS
10
-3.480264
20
6.498822
30
0.0
11
-3.480264
21
6.416694
31
0.0
0
LINE
8
0
6
CONTINUOUS
10
-3.636388
20
6.280006
30
0.0
11
-3.627179
21
6.374176
31
0.0
0
LINE
8
0
6
CONTINUOUS
10
-3.636388
20
6.376830
30
0.0
11
-3.636388
21
6.280006
31
0.0
0
LINE
8
0
6
CONTINUOUS
10
-1.826122
20
5.695121
30
0.0
11
-1.688415
21
5.643463
31
0.0
0
LINE
8
0
6
CONTINUOUS
10
-0.825112
20
5.719764
30
0.0
11
-0.687405
21
5.668106
31
0.0
0
LINE
8
0
6
CONTINUOUS
10
-1.620388
20
8.340644
30
0.0
11
-1.458148
21
8.324783
31
0.0
0
LINE
8
0
6
CONTINUOUS
10
-1.458148
20
8.324783
30
0.0
11
-1.400993
21
8.236335
31
0.0
0
LINE
8
0
6
CONTINUOUS
10
-1.458148
20
8.423489
30
0.0
11
-1.458148
21
8.324783
31
0.0
0
LINE
8
0
6
CONTINUOUS
10
-1.725475
20
8.268051
30
0.0
11
-1.620388
21
8.340644
31
0.0
0
LINE
8
0
6
CONTINUOUS
10
-1.725475
20
8.369346
30
0.0
11
-1.725475
21
8.268051
31
0.0
0
LINE
8
0
6
CONTINUOUS
10
0.009217
20
8.469085
30
0.0
11
0.120639
21
8.399665
31
0.0
0
LINE
8
0
6
CONTINUOUS
10
-0.151398
20
8.448494
30
0.0
11
0.009217
21
8.469085
31
0.0
0
LINE
8
0
6
CONTINUOUS
10
-0.200591
20
8.358490
30
0.0
11
-0.151398
21
8.448494
31
0.0
0
LINE
8
0
6
CONTINUOUS
10
-0.200591
20
8.434054
30
0.0
11
-0.200591
21
8.358490
31
0.0
0
LINE
8
0
6
CONTINUOUS
10
-3.036192
20
7.883514
30
0.0
11
-2.876949
21
7.907341
31
0.0
0
LINE
8
0
6
CONTINUOUS
10
-2.876949
20
7.907341
30
0.0
11
-2.761315
21
7.840232
31
0.0
0
LINE
8
0
6
CONTINUOUS
10
-2.876949
20
8.011733
30
0.0
11
-2.876949
21
7.907341
31
0.0
0
LINE
8
0
6
CONTINUOUS
10
-3.079803
20
7.792572
30
0.0
11
-3.036192
21
7.883514
31
0.0
0
LINE
8
0
6
CONTINUOUS
10
-3.079803
20
7.890774
30
0.0
11
-3.079803
21
7.792572
31
0.0
0
LINE
8
0
6
CONTINUOUS
10
-4.060235
20
7.194786
30
0.0
11
-3.913321
21
7.237289
31
0.0
0
LINE
8
0
6
CONTINUOUS
10
-3.913321
20
7.237289
30
0.0
11
-3.775614
21
7.185638
31
0.0
0
LINE
8
0
6
CONTINUOUS
10
-3.913321
20
7.330423
30
0.0
11
-3.913321
21
7.237289
31
0.0
0
LINE
8
0
6
CONTINUOUS
10
-4.069445
20
7.100616
30
0.0
11
-4.060235
21
7.194786
31
0.0
0
LINE
8
0
6
CONTINUOUS
10
-4.069445
20
7.209300
30
0.0
11
-4.069445
21
7.100616
31
0.0
0
LINE
8
0
6
CONTINUOUS
10
3.829846
20
7.219223
30
0.0
11
3.976760
21
7.176712
31
0.0
0
LINE
8
0
6
CONTINUOUS
10
3.829846
20
7.219223
30
0.0
11
3.829846
21
7.311023
31
0.0
0
LINE
8
0
6
CONTINUOUS
10
3.692140
20
7.167579
30
0.0
11
3.829846
21
7.219223
31
0.0
0
LINE
8
0
6
CONTINUOUS
10
3.692140
20
7.218918
30
0.0
11
3.692140
21
7.167579
31
0.0
0
LINE
8
0
6
CONTINUOUS
10
3.985970
20
7.082550
30
0.0
11
3.985970
21
7.189327
31
0.0
0
LINE
8
0
6
CONTINUOUS
10
3.976760
20
7.176712
30
0.0
11
3.985970
21
7.082550
31
0.0
0
LINE
8
0
6
CONTINUOUS
10
3.976760
20
7.295782
30
0.0
11
3.976760
21
7.176712
31
0.0
0
LINE
8
0
6
CONTINUOUS
10
2.793474
20
7.894447
30
0.0
11
2.952718
21
7.870620
31
0.0
0
LINE
8
0
6
CONTINUOUS
10
2.793474
20
7.894447
30
0.0
11
2.793474
21
7.998279
31
0.0
0
LINE
8
0
6
CONTINUOUS
10
2.677839
20
7.827331
30
0.0
11
2.793474
21
7.894447
31
0.0
0
LINE
8
0
6
CONTINUOUS
10
2.677839
20
7.886568
30
0.0
11
2.677839
21
7.827331
31
0.0
0
LINE
8
0
6
CONTINUOUS
10
2.996328
20
7.779670
30
0.0
11
2.996328
21
7.876838
31
0.0
0
LINE
8
0
6
CONTINUOUS
10
2.952718
20
7.870620
30
0.0
11
2.996328
21
7.779670
31
0.0
0
LINE
8
0
6
CONTINUOUS
10
2.952718
20
7.990922
30
0.0
11
2.952718
21
7.870620
31
0.0
0
LINE
8
0
6
CONTINUOUS
10
1.374673
20
8.317566
30
0.0
11
1.536914
21
8.333419
31
0.0
0
LINE
8
0
6
CONTINUOUS
10
1.374673
20
8.317566
30
0.0
11
1.374673
21
8.415283
31
0.0
0
LINE
8
0
6
CONTINUOUS
10
1.317519
20
8.229118
30
0.0
11
1.374673
21
8.317566
31
0.0
0
LINE
8
0
6
CONTINUOUS
10
1.317519
20
8.284764
30
0.0
11
1.317519
21
8.229118
31
0.0
0
LINE
8
0
6
CONTINUOUS
10
0.741637
20
5.716774
30
0.0
11
0.888551
21
5.674263
31
0.0
0
LINE
8
0
6
CONTINUOUS
10
0.897761
20
5.580101
30
0.0
11
0.897761
21
5.665108
31
0.0
0
LINE
8
0
6
CONTINUOUS
10
0.888551
20
5.674263
30
0.0
11
0.897761
21
5.580101
31
0.0
0
LINE
8
0
6
CONTINUOUS
10
0.888551
20
5.758548
30
0.0
11
0.888551
21
5.674263
31
0.0
0
LINE
8
0
6
CONTINUOUS
10
1.898771
20
5.550659
30
0.0
11
1.898771
21
5.646160
31
0.0
0
LINE
8
0
6
CONTINUOUS
10
1.889561
20
5.644828
30
0.0
11
1.898771
21
5.550659
31
0.0
0
LINE
8
0
6
CONTINUOUS
10
2.284216
20
6.414245
30
0.0
11
2.431130
21
6.371734
31
0.0
0
LINE
8
0
6
CONTINUOUS
10
2.284216
20
6.414245
30
0.0
11
2.284216
21
6.502459
31
0.0
0
LINE
8
0
6
CONTINUOUS
10
2.146510
20
6.362587
30
0.0
11
2.284216
21
6.414245
31
0.0
0
LINE
8
0
6
CONTINUOUS
10
2.146510
20
6.434852
30
0.0
11
2.146510
21
6.362587
31
0.0
0
LINE
8
0
6
CONTINUOUS
10
2.440340
20
6.277565
30
0.0
11
2.440340
21
6.366091
31
0.0
0
LINE
8
0
6
CONTINUOUS
10
2.431130
20
6.371734
30
0.0
11
2.440340
21
6.277565
31
0.0
0
LINE
8
0
6
CONTINUOUS
10
2.431130
20
6.468078
30
0.0
11
2.431130
21
6.371734
31
0.0
0
LINE
8
0
6
CONTINUOUS
10
3.396790
20
6.403701
30
0.0
11
3.543704
21
6.361190
31
0.0
0
LINE
8
0
6
CONTINUOUS
10
3.396790
20
6.403701
30
0.0
11
3.396790
21
6.487622
31
0.0
0
LINE
8
0
6
CONTINUOUS
10
3.259083
20
6.352050
30
0.0
11
3.396790
21
6.403701
31
0.0
0
LINE
8
0
6
CONTINUOUS
10
3.259083
20
6.415120
30
0.0
11
3.259083
21
6.352050
31
0.0
0
LINE
8
0
6
CONTINUOUS
10
3.552914
20
6.267021
30
0.0
11
3.552914
21
6.365633
31
0.0
0
LINE
8
0
6
CONTINUOUS
10
3.543704
20
6.361190
30
0.0
11
3.552914
21
6.267021
31
0.0
0
LINE
8
0
6
CONTINUOUS
10
3.543704
20
6.462877
30
0.0
11
3.543704
21
6.361190
31
0.0
0
LINE
8
0
6
CONTINUOUS
10
1.085586
20
6.337097
30
0.0
11
1.244830
21
6.313270
31
0.0
0
LINE
8
0
6
CONTINUOUS
10
1.085586
20
6.337097
30
0.0
11
1.085586
21
6.427968
31
0.0
0
LINE
8
0
6
CONTINUOUS
10
0.969951
20
6.269981
30
0.0
11
1.085586
21
6.337097
31
0.0
0
LINE
8
0
6
CONTINUOUS
10
0.969951
20
6.348510
30
0.0
11
0.969951
21
6.269981
31
0.0
0
LINE
8
0
6
CONTINUOUS
10
2.603149
20
7.133964
30
0.0
11
2.762392
21
7.110130
31
0.0
0
LINE
8
0
6
CONTINUOUS
10
2.603149
20
7.133964
30
0.0
11
2.603149
21
7.228669
31
0.0
0
LINE
8
0
6
CONTINUOUS
10
2.487514
20
7.066848
30
0.0
11
2.603149
21
7.133964
31
0.0
0
LINE
8
0
6
CONTINUOUS
10
2.487514
20
7.139689
30
0.0
11
2.487514
21
7.066848
31
0.0
0
LINE
8
0
6
CONTINUOUS
10
2.806002
20
7.019188
30
0.0
11
2.806002
21
7.121393
31
0.0
0
LINE
8
0
6
CONTINUOUS
10
2.762392
20
7.110130
30
0.0
11
2.806002
21
7.019188
31
0.0
0
LINE
8
0
6
CONTINUOUS
10
2.762392
20
7.224671
30
0.0
11
2.762392
21
7.110130
31
0.0
0
LINE
8
0
6
CONTINUOUS
10
1.242541
20
6.950874
30
0.0
11
1.406970
21
6.946800
31
0.0
0
LINE
8
0
6
CONTINUOUS
10
1.242541
20
6.950874
30
0.0
11
1.242541
21
7.049119
31
0.0
0
LINE
8
0
6
CONTINUOUS
10
1.154164
20
6.871315
30
0.0
11
1.242541
21
6.950874
31
0.0
0
LINE
8
0
6
CONTINUOUS
10
1.154164
20
6.946219
30
0.0
11
1.154164
21
6.871315
31
0.0
0
LINE
8
0
6
CONTINUOUS
10
1.483025
20
6.863151
30
0.0
11
1.483025
21
6.951776
31
0.0
0
LINE
8
0
6
CONTINUOUS
10
1.406970
20
6.946800
30
0.0
11
1.483025
21
6.863151
31
0.0
0
LINE
8
0
6
CONTINUOUS
10
1.406970
20
7.048450
30
0.0
11
1.406970
21
6.946800
31
0.0
0
LINE
8
0
6
CONTINUOUS
10
1.336163
20
7.627594
30
0.0
11
1.500592
21
7.623512
31
0.0
0
LINE
8
0
6
CONTINUOUS
10
1.336163
20
7.627594
30
0.0
11
1.336163
21
7.720595
31
0.0
0
LINE
8
0
6
CONTINUOUS
10
1.247786
20
7.548027
30
0.0
11
1.336163
21
7.627594
31
0.0
0
LINE
8
0
6
CONTINUOUS
10
1.247786
20
7.619145
30
0.0
11
1.247786
21
7.548027
31
0.0
0
LINE
8
0
6
CONTINUOUS
10
1.576646
20
7.539878
30
0.0
11
1.576646
21
7.635250
31
0.0
0
LINE
8
0
6
CONTINUOUS
10
1.500592
20
7.623512
30
0.0
11
1.576646
21
7.539878
31
0.0
0
LINE
8
0
6
CONTINUOUS
10
1.500592
20
7.731920
30
0.0
11
1.500592
21
7.623512
31
0.0
0
LINE
8
0
6
CONTINUOUS
10
1.672381
20
4.915062
30
0.0
11
1.672381
21
5.009890
31
0.0
0
LINE
8
0
6
CONTINUOUS
10
1.546652
20
4.975921
30
0.0
11
1.672381
21
4.915062
31
0.0
0
LINE
8
0
6
CONTINUOUS
10
1.546652
20
4.975921
30
0.0
11
1.546652
21
5.056067
31
0.0
0
LINE
8
0
6
CONTINUOUS
10
1.391809
20
4.943962
30
0.0
11
1.546652
21
4.975921
31
0.0
0
LINE
8
0
6
CONTINUOUS
10
1.391809
20
4.943962
30
0.0
11
1.391809
21
5.007318
31
0.0
0
LINE
8
0
6
CONTINUOUS
10
1.362695
20
4.851127
30
0.0
11
1.391809
21
4.943962
31
0.0
0
LINE
8
0
6
CONTINUOUS
10
1.362695
20
4.912388
30
0.0
11
1.362695
21
4.851127
31
0.0
0
LINE
8
0
6
CONTINUOUS
10
2.815174
20
5.536621
30
0.0
11
2.815174
21
5.639324
31
0.0
0
LINE
8
0
6
CONTINUOUS
10
2.689445
20
5.597480
30
0.0
11
2.815174
21
5.536621
31
0.0
0
LINE
8
0
6
CONTINUOUS
10
2.689445
20
5.597480
30
0.0
11
2.689445
21
5.678823
31
0.0
0
LINE
8
0
6
CONTINUOUS
10
2.534602
20
5.565513
30
0.0
11
2.689445
21
5.597480
31
0.0
0
LINE
8
0
6
CONTINUOUS
10
3.695902
20
5.447151
30
0.0
11
3.695902
21
5.549161
31
0.0
0
LINE
8
0
6
CONTINUOUS
10
3.570173
20
5.508010
30
0.0
11
3.695902
21
5.447151
31
0.0
0
LINE
8
0
6
CONTINUOUS
10
3.570173
20
5.508010
30
0.0
11
3.570173
21
5.588143
31
0.0
0
LINE
8
0
6
CONTINUOUS
10
3.415329
20
5.476051
30
0.0
11
3.570173
21
5.508010
31
0.0
0
LINE
8
0
6
CONTINUOUS
10
3.415329
20
5.476051
30
0.0
11
3.415329
21
5.534643
31
0.0
0
LINE
8
0
6
CONTINUOUS
10
3.386216
20
5.383216
30
0.0
11
3.415329
21
5.476051
31
0.0
0
LINE
8
0
6
CONTINUOUS
10
3.386216
20
5.442158
30
0.0
11
3.386216
21
5.383216
31
0.0
0
LINE
8
0
6
CONTINUOUS
10
1.633249
20
3.294716
30
0.0
11
1.633249
21
3.381207
31
0.0
0
LINE
8
0
6
CONTINUOUS
10
1.507520
20
3.355584
30
0.0
11
1.633249
21
3.294716
31
0.0
0
LINE
8
0
6
CONTINUOUS
10
1.507520
20
3.355584
30
0.0
11
1.507520
21
3.423100
31
0.0
0
LINE
8
0
6
CONTINUOUS
10
1.352677
20
3.323609
30
0.0
11
1.507520
21
3.355584
31
0.0
0
LINE
8
0
6
CONTINUOUS
10
1.352677
20
3.323609
30
0.0
11
1.352677
21
3.386987
31
0.0
0
LINE
8
0
6
CONTINUOUS
10
1.323563
20
3.230790
30
0.0
11
1.352677
21
3.323609
31
0.0
0
LINE
8
0
6
CONTINUOUS
10
1.323563
20
3.304407
30
0.0
11
1.323563
21
3.230790
31
0.0
0
LINE
8
0
6
CONTINUOUS
10
1.465187
20
4.176415
30
0.0
11
1.465187
21
4.262860
31
0.0
0
LINE
8
0
6
CONTINUOUS
10
1.339458
20
4.237275
30
0.0
11
1.465187
21
4.176415
31
0.0
0
LINE
8
0
6
CONTINUOUS
10
1.339458
20
4.237275
30
0.0
11
1.339458
21
4.304546
31
0.0
0
LINE
8
0
6
CONTINUOUS
10
1.184615
20
4.205308
30
0.0
11
1.339458
21
4.237275
31
0.0
0
LINE
8
0
6
CONTINUOUS
10
1.184615
20
4.205308
30
0.0
11
1.184615
21
4.264140
31
0.0
0
LINE
8
0
6
CONTINUOUS
10
1.155501
20
4.112488
30
0.0
11
1.184615
21
4.205308
31
0.0
0
LINE
8
0
6
CONTINUOUS
10
1.155501
20
4.182996
30
0.0
11
1.155501
21
4.112488
31
0.0
0
LINE
8
0
6
CONTINUOUS
10
3.203594
20
4.678703
30
0.0
11
3.232708
21
4.585876
31
0.0
0
LINE
8
0
6
CONTINUOUS
10
3.048751
20
4.710670
30
0.0
11
3.203594
21
4.678703
31
0.0
0
LINE
8
0
6
CONTINUOUS
10
2.923021
20
4.649810
30
0.0
11
3.048751
21
4.710670
31
0.0
0
LINE
8
0
6
CONTINUOUS
10
2.923021
20
4.701863
30
0.0
11
2.923021
21
4.649810
31
0.0
0
LINE
8
0
6
CONTINUOUS
10
2.135543
20
4.751419
30
0.0
11
2.261272
21
4.812278
31
0.0
0
LINE
8
0
6
CONTINUOUS
10
2.135543
20
4.812022
30
0.0
11
2.135543
21
4.751419
31
0.0
0
LINE
8
0
6
CONTINUOUS
10
2.176877
20
4.004914
30
0.0
11
2.205990
21
3.912079
31
0.0
0
LINE
8
0
6
CONTINUOUS
10
2.022034
20
4.036881
30
0.0
11
2.176877
21
4.004914
31
0.0
0
LINE
8
0
6
CONTINUOUS
10
2.981335
20
3.851853
30
0.0
11
3.010448
21
3.759019
31
0.0
0
LINE
8
0
6
CONTINUOUS
10
2.826492
20
3.883813
30
0.0
11
2.981335
21
3.851853
31
0.0
0
LINE
8
0
6
CONTINUOUS
10
3.999095
20
4.601219
30
0.0
11
4.028208
21
4.508384
31
0.0
0
LINE
8
0
6
CONTINUOUS
10
3.844252
20
4.633186
30
0.0
11
3.999095
21
4.601219
31
0.0
0
LINE
8
0
6
CONTINUOUS
10
3.718522
20
4.572326
30
0.0
11
3.844252
21
4.633186
31
0.0
0
LINE
8
0
6
CONTINUOUS
10
3.718522
20
4.612116
30
0.0
11
3.718522
21
4.572326
31
0.0
0
LINE
8
0
6
CONTINUOUS
10
0.924469
20
5.131355
30
0.0
11
0.924469
21
5.215977
31
0.0
0
LINE
8
0
6
CONTINUOUS
10
0.798740
20
5.192215
30
0.0
11
0.924469
21
5.131355
31
0.0
0
LINE
8
0
6
CONTINUOUS
10
0.798740
20
5.192215
30
0.0
11
0.798740
21
5.272577
31
0.0
0
LINE
8
0
6
CONTINUOUS
10
0.643897
20
5.160247
30
0.0
11
0.798740
21
5.192215
31
0.0
0
LINE
8
0
6
CONTINUOUS
10
0.643897
20
5.160247
30
0.0
11
0.643897
21
5.235028
31
0.0
0
LINE
8
0
6
CONTINUOUS
10
0.614783
20
5.067421
30
0.0
11
0.643897
21
5.160247
31
0.0
0
LINE
8
0
6
CONTINUOUS
10
0.614783
20
5.141019
30
0.0
11
0.614783
21
5.067421
31
0.0
0
LINE
8
0
6
CONTINUOUS
10
0.853113
20
3.585213
30
0.0
11
0.853113
21
3.663204
31
0.0
0
LINE
8
0
6
CONTINUOUS
10
0.727384
20
3.646073
30
0.0
11
0.853113
21
3.585213
31
0.0
0
LINE
8
0
6
CONTINUOUS
10
0.727384
20
3.646073
30
0.0
11
0.727384
21
3.709443
31
0.0
0
LINE
8
0
6
CONTINUOUS
10
0.572541
20
3.614113
30
0.0
11
0.727384
21
3.646073
31
0.0
0
LINE
8
0
6
CONTINUOUS
10
0.572541
20
3.614113
30
0.0
11
0.572541
21
3.678360
31
0.0
0
LINE
8
0
6
CONTINUOUS
10
0.543428
20
3.521279
30
0.0
11
0.572541
21
3.614113
31
0.0
0
LINE
8
0
6
CONTINUOUS
10
0.543428
20
3.601036
30
0.0
11
0.543428
21
3.521279
31
0.0
0
LINE
8
0
6
CONTINUOUS
10
0.746803
20
4.470375
30
0.0
11
0.746803
21
4.551138
31
0.0
0
LINE
8
0
6
CONTINUOUS
10
0.621074
20
4.531234
30
0.0
11
0.746803
21
4.470375
31
0.0
0
LINE
8
0
6
CONTINUOUS
10
4.359011
20
5.488212
30
0.0
11
4.513854
21
5.456245
31
0.0
0
LINE
8
0
6
CONTINUOUS
10
4.233281
20
5.427353
30
0.0
11
4.359011
21
5.488212
31
0.0
0
LINE
8
0
6
CONTINUOUS
10
4.233281
20
5.471917
30
0.0
11
4.233281
21
5.427353
31
0.0
0
LINE
8
0
6
CONTINUOUS
10
-4.442485
20
5.506416
30
0.0
11
-4.442485
21
5.571010
31
0.0
0
LINE
8
0
6
CONTINUOUS
10
-4.597329
20
5.474449
30
0.0
11
-4.442485
21
5.506416
31
0.0
0
LINE
8
0
6
CONTINUOUS
10
-4.597329
20
5.574806
30
0.0
11
-4.597329
21
5.474449
31
0.0
0
LINE
8
0
6
CONTINUOUS
10
0.593487
20
4.787735
30
0.0
11
0.632807
21
4.800233
31
0.0
0
LINE
8
0
6
CONTINUOUS
10
0.725245
20
4.838951
30
0.0
11
0.593487
21
4.787735
31
0.0
0
LINE
8
0
6
CONTINUOUS
10
0.844230
20
4.899215
30
0.0
11
0.725245
21
4.838951
31
0.0
0
LINE
8
0
6
CONTINUOUS
10
0.948966
20
4.967682
30
0.0
11
0.844230
21
4.899215
31
0.0
0
LINE
8
0
6
CONTINUOUS
10
1.037973
20
5.043495
30
0.0
11
0.948966
21
4.967682
31
0.0
0
LINE
8
0
6
CONTINUOUS
10
1.117054
20
5.077095
30
0.0
11
1.194171
21
5.165504
31
0.0
0
LINE
8
0
6
CONTINUOUS
10
1.109774
20
5.125808
30
0.0
11
1.037973
21
5.043495
31
0.0
0
LINE
8
0
6
CONTINUOUS
10
1.194171
20
5.165504
30
0.0
11
1.251226
21
5.259994
31
0.0
0
LINE
8
0
6
CONTINUOUS
10
1.162890
20
5.213768
30
0.0
11
1.109774
21
5.125808
31
0.0
0
LINE
8
0
6
CONTINUOUS
10
1.251226
20
5.259994
30
0.0
11
1.286620
21
5.359626
31
0.0
0
LINE
8
0
6
CONTINUOUS
10
1.195844
20
5.306533
30
0.0
11
1.162890
21
5.213768
31
0.0
0
LINE
8
0
6
CONTINUOUS
10
1.286620
20
5.359626
30
0.0
11
1.298766
21
5.463447
31
0.0
0
LINE
8
0
6
CONTINUOUS
10
1.207157
20
5.403236
30
0.0
11
1.195844
21
5.306533
31
0.0
0
LINE
8
0
6
CONTINUOUS
10
1.298766
20
5.463447
30
0.0
11
1.286620
21
5.567268
31
0.0
0
LINE
8
0
6
CONTINUOUS
10
1.195844
20
5.499946
30
0.0
11
1.207157
21
5.403236
31
0.0
0
LINE
8
0
6
CONTINUOUS
10
1.162890
20
5.592704
30
0.0
11
1.195844
21
5.499946
31
0.0
0
LINE
8
0
6
CONTINUOUS
10
1.109774
20
5.680664
30
0.0
11
1.162890
21
5.592704
31
0.0
0
LINE
8
0
6
CONTINUOUS
10
1.037973
20
5.762977
30
0.0
11
1.109774
21
5.680664
31
0.0
0
LINE
8
0
6
CONTINUOUS
10
0.948966
20
5.838791
30
0.0
11
1.037973
21
5.762977
31
0.0
0
LINE
8
0
6
CONTINUOUS
10
1.021469
20
5.931221
30
0.0
11
0.909004
21
6.004745
31
0.0
0
LINE
8
0
6
CONTINUOUS
10
0.844230
20
5.907257
30
0.0
11
0.948966
21
5.838791
31
0.0
0
LINE
8
0
6
CONTINUOUS
10
0.909004
20
6.004745
30
0.0
11
0.781237
21
6.069458
31
0.0
0
LINE
8
0
6
CONTINUOUS
10
0.725245
20
5.967529
30
0.0
11
0.844230
21
5.907257
31
0.0
0
LINE
8
0
6
CONTINUOUS
10
0.781237
20
6.069458
30
0.0
11
0.639740
21
6.124458
31
0.0
0
LINE
8
0
6
CONTINUOUS
10
0.593487
20
6.018745
30
0.0
11
0.725245
21
5.967529
31
0.0
0
LINE
8
0
6
CONTINUOUS
10
0.639740
20
6.124458
30
0.0
11
0.486090
21
6.168830
31
0.0
0
LINE
8
0
6
CONTINUOUS
10
0.450436
20
6.060058
30
0.0
11
0.593487
21
6.018745
31
0.0
0
LINE
8
0
6
CONTINUOUS
10
0.486090
20
6.168830
30
0.0
11
0.321880
21
6.201660
31
0.0
0
LINE
8
0
6
CONTINUOUS
10
0.297569
20
6.090622
30
0.0
11
0.450436
21
6.060058
31
0.0
0
LINE
8
0
6
CONTINUOUS
10
0.321880
20
6.201660
30
0.0
11
0.148729
21
6.222030
31
0.0
0
LINE
8
0
6
CONTINUOUS
10
0.136365
20
6.109581
30
0.0
11
0.297569
21
6.090622
31
0.0
0
LINE
8
0
6
CONTINUOUS
10
0.148729
20
6.222030
30
0.0
11
-0.031700
21
6.229019
31
0.0
0
LINE
8
0
6
CONTINUOUS
10
-0.031700
20
6.116096
30
0.0
11
0.136365
21
6.109581
31
0.0
0
LINE
8
0
6
CONTINUOUS
10
-0.031700
20
6.229019
30
0.0
11
-0.212128
21
6.222030
31
0.0
0
LINE
8
0
6
CONTINUOUS
10
-0.199763
20
6.109581
30
0.0
11
-0.031700
21
6.116096
31
0.0
0
LINE
8
0
6
CONTINUOUS
10
-0.212128
20
6.222030
30
0.0
11
-0.385279
21
6.201660
31
0.0
0
LINE
8
0
6
CONTINUOUS
10
-0.360968
20
6.090622
30
0.0
11
-0.199763
21
6.109581
31
0.0
0
LINE
8
0
6
CONTINUOUS
10
-0.385279
20
6.201660
30
0.0
11
-0.549489
21
6.168830
31
0.0
0
LINE
8
0
6
CONTINUOUS
10
-0.513835
20
6.060058
30
0.0
11
-0.360968
21
6.090622
31
0.0
0
LINE
8
0
6
CONTINUOUS
10
-0.549489
20
6.168830
30
0.0
11
-0.703139
21
6.124458
31
0.0
0
LINE
8
0
6
CONTINUOUS
10
-0.656886
20
6.018745
30
0.0
11
-0.513835
21
6.060058
31
0.0
0
LINE
8
0
6
CONTINUOUS
10
-0.703139
20
6.124458
30
0.0
11
-0.844636
21
6.069458
31
0.0
0
LINE
8
0
6
CONTINUOUS
10
-0.788644
20
5.967529
30
0.0
11
-0.656886
21
6.018745
31
0.0
0
LINE
8
0
6
CONTINUOUS
10
-0.844636
20
6.069458
30
0.0
11
-0.972403
21
6.004745
31
0.0
0
LINE
8
0
6
CONTINUOUS
10
-0.907629
20
5.907257
30
0.0
11
-0.788644
21
5.967529
31
0.0
0
LINE
8
0
6
CONTINUOUS
10
-0.972403
20
6.004745
30
0.0
11
-1.084868
21
5.931221
31
0.0
0
LINE
8
0
6
CONTINUOUS
10
-1.012365
20
5.838791
30
0.0
11
-0.907629
21
5.907257
31
0.0
0
LINE
8
0
6
CONTINUOUS
10
-1.084868
20
5.931221
30
0.0
11
-1.180453
21
5.849807
31
0.0
0
LINE
8
0
6
CONTINUOUS
10
-1.101372
20
5.762977
30
0.0
11
-1.012365
21
5.838791
31
0.0
0
LINE
8
0
6
CONTINUOUS
10
-1.173173
20
5.680664
30
0.0
11
-1.101372
21
5.762977
31
0.0
0
LINE
8
0
6
CONTINUOUS
10
-1.226289
20
5.592704
30
0.0
11
-1.173173
21
5.680664
31
0.0
0
LINE
8
0
6
CONTINUOUS
10
-1.314625
20
5.666900
30
0.0
11
-1.350019
21
5.567268
31
0.0
0
LINE
8
0
6
CONTINUOUS
10
-1.259243
20
5.499946
30
0.0
11
-1.226289
21
5.592704
31
0.0
0
LINE
8
0
6
CONTINUOUS
10
-1.350019
20
5.567268
30
0.0
11
-1.362165
21
5.463447
31
0.0
0
LINE
8
0
6
CONTINUOUS
10
-1.270556
20
5.403236
30
0.0
11
-1.259243
21
5.499946
31
0.0
0
LINE
8
0
6
CONTINUOUS
10
-1.362165
20
5.463447
30
0.0
11
-1.350019
21
5.359626
31
0.0
0
LINE
8
0
6
CONTINUOUS
10
-1.259243
20
5.306533
30
0.0
11
-1.270556
21
5.403236
31
0.0
0
LINE
8
0
6
CONTINUOUS
10
-1.350019
20
5.359626
30
0.0
11
-1.314625
21
5.259994
31
0.0
0
LINE
8
0
6
CONTINUOUS
10
-1.226289
20
5.213768
30
0.0
11
-1.259243
21
5.306533
31
0.0
0
LINE
8
0
6
CONTINUOUS
10
-1.314625
20
5.259994
30
0.0
11
-1.257570
21
5.165504
31
0.0
0
LINE
8
0
6
CONTINUOUS
10
-1.173173
20
5.125808
30
0.0
11
-1.226289
21
5.213768
31
0.0
0
LINE
8
0
6
CONTINUOUS
10
-1.257570
20
5.165504
30
0.0
11
-1.180452
21
5.077095
31
0.0
0
LINE
8
0
6
CONTINUOUS
10
-1.101372
20
5.043495
30
0.0
11
-1.173173
21
5.125808
31
0.0
0
LINE
8
0
6
CONTINUOUS
10
-1.180452
20
5.077095
30
0.0
11
-1.084868
21
4.995674
31
0.0
0
LINE
8
0
6
CONTINUOUS
10
-1.012365
20
4.967682
30
0.0
11
-1.101372
21
5.043495
31
0.0
0
LINE
8
0
6
CONTINUOUS
10
-0.907629
20
4.899215
30
0.0
11
-1.012365
21
4.967682
31
0.0
0
LINE
8
0
6
CONTINUOUS
10
-0.788644
20
4.838951
30
0.0
11
-0.907629
21
4.899215
31
0.0
0
LINE
8
0
6
CONTINUOUS
10
-0.698098
20
4.800834
30
0.0
11
-0.656886
21
4.787735
31
0.0
0
LINE
8
0
6
CONTINUOUS
10
-0.656886
20
4.787735
30
0.0
11
-0.788644
21
4.838951
31
0.0
0
LINE
8
0
6
CONTINUOUS
10
0.122693
20
6.473709
30
0.0
11
0.122693
21
6.556194
31
0.0
0
LINE
8
0
6
CONTINUOUS
10
0.046639
20
6.557350
30
0.0
11
0.122693
21
6.473709
31
0.0
0
LINE
8
0
6
CONTINUOUS
10
0.046639
20
6.649383
30
0.0
11
0.046639
21
6.557350
31
0.0
0
LINE
8
0
6
CONTINUOUS
10
-0.810858
20
3.651993
30
0.0
11
-0.656016
21
3.620034
31
0.0
0
LINE
8
0
6
CONTINUOUS
10
-0.810858
20
3.712462
30
0.0
11
-0.810858
21
3.651993
31
0.0
0
LINE
8
0
6
CONTINUOUS
10
-0.656016
20
3.620034
30
0.0
11
-0.626902
21
3.527199
31
0.0
0
LINE
8
0
6
CONTINUOUS
10
-0.656016
20
3.681519
30
0.0
11
-0.656016
21
3.620034
31
0.0
0
LINE
8
0
6
CONTINUOUS
10
-2.260351
20
3.996529
30
0.0
11
-2.105508
21
4.028496
31
0.0
0
LINE
8
0
6
CONTINUOUS
10
-2.260351
20
4.086124
30
0.0
11
-2.260351
21
3.996529
31
0.0
0
LINE
8
0
6
CONTINUOUS
10
-1.979779
20
3.967637
30
0.0
11
-1.979779
21
4.021563
31
0.0
0
LINE
8
0
6
CONTINUOUS
10
-2.105508
20
4.028496
30
0.0
11
-1.979779
21
3.967637
31
0.0
0
LINE
8
0
6
CONTINUOUS
10
-2.105508
20
4.088356
30
0.0
11
-2.105508
21
4.028496
31
0.0
0
LINE
8
0
6
CONTINUOUS
10
-3.287069
20
4.689491
30
0.0
11
-3.132225
21
4.721458
31
0.0
0
LINE
8
0
6
CONTINUOUS
10
-3.287069
20
4.779786
30
0.0
11
-3.287069
21
4.689491
31
0.0
0
LINE
8
0
6
CONTINUOUS
10
-3.006496
20
4.660598
30
0.0
11
-3.006496
21
4.712493
31
0.0
0
LINE
8
0
6
CONTINUOUS
10
-3.132225
20
4.721458
30
0.0
11
-3.006496
21
4.660598
31
0.0
0
LINE
8
0
6
CONTINUOUS
10
-3.132225
20
4.784003
30
0.0
11
-3.132225
21
4.721458
31
0.0
0
LINE
8
0
6
CONTINUOUS
10
-0.082006
20
3.234521
30
0.0
11
0.072837
21
3.202553
31
0.0
0
LINE
8
0
6
CONTINUOUS
10
-0.082006
20
3.300589
30
0.0
11
-0.082006
21
3.234521
31
0.0
0
LINE
8
0
6
CONTINUOUS
10
0.072837
20
3.202553
30
0.0
11
0.101951
21
3.109727
31
0.0
0
LINE
8
0
6
CONTINUOUS
10
0.072837
20
3.272713
30
0.0
11
0.072837
21
3.202553
31
0.0
0
LINE
8
0
6
CONTINUOUS
10
-1.590994
20
3.410767
30
0.0
11
-1.436151
21
3.378800
31
0.0
0
LINE
8
0
6
CONTINUOUS
10
-1.590994
20
3.470454
30
0.0
11
-1.590994
21
3.410767
31
0.0
0
LINE
8
0
6
CONTINUOUS
10
-1.436151
20
3.378800
30
0.0
11
-1.407037
21
3.285966
31
0.0
0
LINE
8
0
6
CONTINUOUS
10
-1.436151
20
3.432637
30
0.0
11
-1.436151
21
3.378800
31
0.0
0
LINE
8
0
6
CONTINUOUS
10
-3.779376
20
5.460975
30
0.0
11
-3.653647
21
5.521835
31
0.0
0
LINE
8
0
6
CONTINUOUS
10
-3.779376
20
5.561635
30
0.0
11
-3.779376
21
5.460975
31
0.0
0
LINE
8
0
6
CONTINUOUS
10
-3.653647
20
5.521835
30
0.0
11
-3.498804
21
5.489868
31
0.0
0
LINE
8
0
6
CONTINUOUS
10
-3.653647
20
5.600618
30
0.0
11
-3.653647
21
5.521835
31
0.0
0
LINE
8
0
6
CONTINUOUS
10
-3.498804
20
5.489868
30
0.0
11
-3.469691
21
5.397041
31
0.0
0
LINE
8
0
6
CONTINUOUS
10
-3.498804
20
5.547118
30
0.0
11
-3.498804
21
5.489868
31
0.0
0
LINE
8
0
6
CONTINUOUS
10
-0.131007
20
7.162819
30
0.0
11
0.031233
21
7.146957
31
0.0
0
LINE
8
0
6
CONTINUOUS
10
-0.131007
20
7.267006
30
0.0
11
-0.131007
21
7.162819
31
0.0
0
LINE
8
0
6
CONTINUOUS
10
-1.419637
20
7.635109
30
0.0
11
-1.331260
21
7.555542
31
0.0
0
LINE
8
0
6
CONTINUOUS
10
-1.419637
20
7.728220
30
0.0
11
-1.419637
21
7.635109
31
0.0
0
LINE
8
0
6
CONTINUOUS
10
-1.371914
20
6.225990
30
0.0
11
-1.328304
21
6.316940
31
0.0
0
LINE
8
0
6
CONTINUOUS
10
-1.371914
20
6.305728
30
0.0
11
-1.371914
21
6.225990
31
0.0
0
LINE
8
0
6
CONTINUOUS
10
-0.144061
20
5.955673
30
0.0
11
0.015183
21
5.979507
31
0.0
0
LINE
8
0
6
CONTINUOUS
10
-0.144061
20
6.049189
30
0.0
11
-0.144061
21
5.955673
31
0.0
0
LINE
8
0
6
CONTINUOUS
10
0.015183
20
5.979507
30
0.0
11
0.130818
21
5.912399
31
0.0
0
LINE
8
0
6
CONTINUOUS
10
0.015183
20
6.071866
30
0.0
11
0.015183
21
5.979507
31
0.0
0
LINE
8
0
6
CONTINUOUS
10
-2.514605
20
6.380088
30
0.0
11
-2.367691
21
6.422599
31
0.0
0
LINE
8
0
6
CONTINUOUS
10
-2.367691
20
6.422599
30
0.0
11
-2.229984
21
6.370956
31
0.0
0
LINE
8
0
6
CONTINUOUS
10
-2.367691
20
6.509274
30
0.0
11
-2.367691
21
6.422599
31
0.0
0
LINE
8
0
6
CONTINUOUS
10
-2.523815
20
6.285926
30
0.0
11
-2.514605
21
6.380088
31
0.0
0
LINE
8
0
6
CONTINUOUS
10
-2.523815
20
6.372906
30
0.0
11
-2.523815
21
6.285926
31
0.0
0
LINE
8
0
6
CONTINUOUS
10
-1.973036
20
5.652610
30
0.0
11
-1.826122
21
5.695121
31
0.0
0
LINE
8
0
6
CONTINUOUS
10
-1.982246
20
5.558441
30
0.0
11
-1.973036
21
5.652610
31
0.0
0
LINE
8
0
6
CONTINUOUS
10
-1.982246
20
5.654505
30
0.0
11
-1.982246
21
5.558441
31
0.0
0
LINE
8
0
6
CONTINUOUS
10
-0.972026
20
5.677253
30
0.0
11
-0.825112
21
5.719764
31
0.0
0
LINE
8
0
6
CONTINUOUS
10
-0.981235
20
5.583084
30
0.0
11
-0.972026
21
5.677253
31
0.0
0
LINE
8
0
6
CONTINUOUS
10
-0.981235
20
5.667752
30
0.0
11
-0.981235
21
5.583084
31
0.0
0
LINE
8
0
6
CONTINUOUS
10
-4.609394
20
6.329071
30
0.0
11
-4.483665
21
6.389930
31
0.0
0
LINE
8
0
6
CONTINUOUS
10
-4.609394
20
6.439663
30
0.0
11
-4.609394
21
6.329071
31
0.0
0
LINE
8
0
6
CONTINUOUS
10
-4.483665
20
6.389930
30
0.0
11
-4.328823
21
6.357963
31
0.0
0
LINE
8
0
6
CONTINUOUS
10
-4.483665
20
6.475132
30
0.0
11
-4.483665
21
6.389930
31
0.0
0
LINE
8
0
6
CONTINUOUS
10
-4.328823
20
6.357963
30
0.0
11
-4.299709
21
6.265136
31
0.0
0
LINE
8
0
6
CONTINUOUS
10
-4.328823
20
6.412214
30
0.0
11
-4.328823
21
6.357963
31
0.0
0
LINE
8
0
6
CONTINUOUS
10
1.642001
20
8.260841
30
0.0
11
1.642001
21
8.361142
31
0.0
0
LINE
8
0
6
CONTINUOUS
10
1.536914
20
8.333419
30
0.0
11
1.642001
21
8.260841
31
0.0
0
LINE
8
0
6
CONTINUOUS
10
1.536914
20
8.453725
30
0.0
11
1.536914
21
8.333419
31
0.0
0
LINE
8
0
6
CONTINUOUS
10
4.525919
20
6.311180
30
0.0
11
4.525919
21
6.422931
31
0.0
0
LINE
8
0
6
CONTINUOUS
10
4.400188
20
6.372039
30
0.0
11
4.525919
21
6.311180
31
0.0
0
LINE
8
0
6
CONTINUOUS
10
4.400188
20
6.372039
30
0.0
11
4.400188
21
6.458399
31
0.0
0
LINE
8
0
6
CONTINUOUS
10
4.245347
20
6.340072
30
0.0
11
4.400188
21
6.372039
31
0.0
0
LINE
8
0
6
CONTINUOUS
10
4.245347
20
6.340072
30
0.0
11
4.245347
21
6.395483
31
0.0
0
LINE
8
0
6
CONTINUOUS
10
4.216232
20
6.247245
30
0.0
11
4.245347
21
6.340072
31
0.0
0
LINE
8
0
6
CONTINUOUS
10
4.216232
20
6.296269
30
0.0
11
4.216232
21
6.247245
31
0.0
0
LINE
8
0
6
CONTINUOUS
10
0.741637
20
5.716774
30
0.0
11
0.741637
21
5.796212
31
0.0
0
LINE
8
0
6
CONTINUOUS
10
0.603931
20
5.665123
30
0.0
11
0.741637
21
5.716774
31
0.0
0
LINE
8
0
6
CONTINUOUS
10
0.603931
20
5.740439
30
0.0
11
0.603931
21
5.665123
31
0.0
0
LINE
8
0
6
CONTINUOUS
10
1.889561
20
5.644828
30
0.0
11
1.889561
21
5.737189
31
0.0
0
LINE
8
0
6
CONTINUOUS
10
1.742648
20
5.687339
30
0.0
11
1.889561
21
5.644828
31
0.0
0
LINE
8
0
6
CONTINUOUS
10
1.742648
20
5.687339
30
0.0
11
1.742648
21
5.764010
31
0.0
0
LINE
8
0
6
CONTINUOUS
10
1.604940
20
5.635681
30
0.0
11
1.742648
21
5.687339
31
0.0
0
LINE
8
0
6
CONTINUOUS
10
1.604940
20
5.699798
30
0.0
11
1.604940
21
5.635681
31
0.0
0
LINE
8
0
6
CONTINUOUS
10
1.288440
20
6.222320
30
0.0
11
1.288440
21
6.303377
31
0.0
0
LINE
8
0
6
CONTINUOUS
10
1.244830
20
6.313270
30
0.0
11
1.288440
21
6.222320
31
0.0
0
LINE
8
0
6
CONTINUOUS
10
1.244830
20
6.405400
30
0.0
11
1.244830
21
6.313270
31
0.0
0
LINE
8
0
6
CONTINUOUS
10
2.534602
20
5.565513
30
0.0
11
2.534602
21
5.632123
31
0.0
0
LINE
8
0
6
CONTINUOUS
10
2.505487
20
5.472686
30
0.0
11
2.534602
21
5.565513
31
0.0
0
LINE
8
0
6
CONTINUOUS
10
2.505487
20
5.538569
30
0.0
11
2.505487
21
5.472686
31
0.0
0
LINE
8
0
6
CONTINUOUS
10
2.416116
20
4.780319
30
0.0
11
2.445229
21
4.687492
31
0.0
0
LINE
8
0
6
CONTINUOUS
10
2.261272
20
4.812278
30
0.0
11
2.416116
21
4.780319
31
0.0
0
LINE
8
0
6
CONTINUOUS
10
2.261272
20
4.878161
30
0.0
11
2.261272
21
4.812278
31
0.0
0
LINE
8
0
6
CONTINUOUS
10
1.896304
20
3.976021
30
0.0
11
2.022034
21
4.036881
31
0.0
0
LINE
8
0
6
CONTINUOUS
10
1.896304
20
4.034136
30
0.0
11
1.896304
21
3.976021
31
0.0
0
LINE
8
0
6
CONTINUOUS
10
2.700763
20
3.822953
30
0.0
11
2.826492
21
3.883813
31
0.0
0
LINE
8
0
6
CONTINUOUS
10
2.700763
20
3.866647
30
0.0
11
2.700763
21
3.822953
31
0.0
0
LINE
8
0
6
CONTINUOUS
10
0.621074
20
4.531234
30
0.0
11
0.621074
21
4.599902
31
0.0
0
LINE
8
0
6
CONTINUOUS
10
0.466231
20
4.499267
30
0.0
11
0.621074
21
4.531234
31
0.0
0
LINE
8
0
6
CONTINUOUS
10
0.466231
20
4.499267
30
0.0
11
0.466231
21
4.566606
31
0.0
0
LINE
8
0
6
CONTINUOUS
10
0.437117
20
4.406440
30
0.0
11
0.466231
21
4.499267
31
0.0
0
LINE
8
0
6
CONTINUOUS
10
0.437117
20
4.484251
30
0.0
11
0.437117
21
4.406440
31
0.0
0
LINE
8
0
6
CONTINUOUS
10
4.513854
20
5.456245
30
0.0
11
4.542967
21
5.363418
31
0.0
0
LINE
8
0
6
CONTINUOUS
10
4.513854
20
5.557205
30
0.0
11
4.513854
21
5.456245
31
0.0
0
LINE
8
0
6
CONTINUOUS
10
1.963729
20
4.141663
30
0.0
11
2.277345
21
4.303558
31
0.0
0
LINE
8
0
6
CONTINUOUS
10
1.893216
20
4.111985
30
0.0
11
1.963729
21
4.141663
31
0.0
0
LINE
8
0
6
CONTINUOUS
10
2.195797
20
4.268189
30
0.0
11
1.896304
21
4.113579
31
0.0
0
LINE
8
0
6
CONTINUOUS
10
2.277345
20
4.303558
30
0.0
11
2.553400
21
4.487487
31
0.0
0
LINE
8
0
6
CONTINUOUS
10
2.462140
20
4.445648
30
0.0
11
2.195797
21
4.268189
31
0.0
0
LINE
8
0
6
CONTINUOUS
10
2.553400
20
4.487487
30
0.0
11
2.788022
21
4.691185
31
0.0
0
LINE
8
0
6
CONTINUOUS
10
2.688487
20
4.642158
30
0.0
11
2.462140
21
4.445648
31
0.0
0
LINE
8
0
6
CONTINUOUS
10
2.788022
20
4.691185
30
0.0
11
2.977315
21
4.912376
31
0.0
0
LINE
8
0
6
CONTINUOUS
10
2.871077
20
4.855507
30
0.0
11
2.688487
21
4.642158
31
0.0
0
LINE
8
0
6
CONTINUOUS
10
2.977315
20
4.912376
30
0.0
11
3.117361
21
5.148773
31
0.0
0
LINE
8
0
6
CONTINUOUS
10
3.006152
20
5.083496
30
0.0
11
2.871077
21
4.855507
31
0.0
0
LINE
8
0
6
CONTINUOUS
10
3.117361
20
5.148773
30
0.0
11
3.204239
21
5.398033
31
0.0
0
LINE
8
0
6
CONTINUOUS
10
3.089954
20
5.323921
30
0.0
11
3.006152
21
5.083496
31
0.0
0
LINE
8
0
6
CONTINUOUS
10
3.204239
20
5.398033
30
0.0
11
3.234051
21
5.657775
31
0.0
0
LINE
8
0
6
CONTINUOUS
10
3.118723
20
5.574577
30
0.0
11
3.089954
21
5.323921
31
0.0
0
LINE
8
0
6
CONTINUOUS
10
3.234051
20
5.657775
30
0.0
11
3.204239
21
5.917511
31
0.0
0
LINE
8
0
6
CONTINUOUS
10
3.089953
20
5.825233
30
0.0
11
3.118723
21
5.574577
31
0.0
0
LINE
8
0
6
CONTINUOUS
10
3.204239
20
5.917511
30
0.0
11
3.117361
21
6.166778
31
0.0
0
LINE
8
0
6
CONTINUOUS
10
3.006152
20
6.065658
30
0.0
11
3.089953
21
5.825233
31
0.0
0
LINE
8
0
6
CONTINUOUS
10
3.117361
20
6.166778
30
0.0
11
2.977315
21
6.403167
31
0.0
0
LINE
8
0
6
CONTINUOUS
10
2.871076
20
6.293647
30
0.0
11
3.006152
21
6.065658
31
0.0
0
LINE
8
0
6
CONTINUOUS
10
2.688486
20
6.506996
30
0.0
11
2.871076
21
6.293647
31
0.0
0
LINE
8
0
6
CONTINUOUS
10
2.462140
20
6.703506
30
0.0
11
2.688486
21
6.506996
31
0.0
0
LINE
8
0
6
CONTINUOUS
10
2.195797
20
6.880966
30
0.0
11
2.462140
21
6.703506
31
0.0
0
LINE
8
0
6
CONTINUOUS
10
1.893216
20
7.037170
30
0.0
11
2.195797
21
6.880966
31
0.0
0
LINE
8
0
6
CONTINUOUS
10
1.558156
20
7.169921
30
0.0
11
1.893216
21
7.037170
31
0.0
0
LINE
8
0
6
CONTINUOUS
10
1.194375
20
7.277000
30
0.0
11
1.558156
21
7.169921
31
0.0
0
LINE
8
0
6
CONTINUOUS
10
0.805633
20
7.356224
30
0.0
11
1.194375
21
7.277000
31
0.0
0
LINE
8
0
6
CONTINUOUS
10
0.395688
20
7.405372
30
0.0
11
0.805633
21
7.356224
31
0.0
0
LINE
8
0
6
CONTINUOUS
10
-0.031700
20
7.422241
30
0.0
11
0.395688
21
7.405372
31
0.0
0
LINE
8
0
6
CONTINUOUS
10
-0.459088
20
7.405372
30
0.0
11
-0.031700
21
7.422241
31
0.0
0
LINE
8
0
6
CONTINUOUS
10
-0.869033
20
7.356224
30
0.0
11
-0.459088
21
7.405372
31
0.0
0
LINE
8
0
6
CONTINUOUS
10
-1.257775
20
7.277000
30
0.0
11
-0.869033
21
7.356224
31
0.0
0
LINE
8
0
6
CONTINUOUS
10
-1.621555
20
7.169914
30
0.0
11
-1.257775
21
7.277000
31
0.0
0
LINE
8
0
6
CONTINUOUS
10
-1.956616
20
7.037170
30
0.0
11
-1.621555
21
7.169914
31
0.0
0
LINE
8
0
6
CONTINUOUS
10
-2.259197
20
6.880966
30
0.0
11
-1.956616
21
7.037170
31
0.0
0
LINE
8
0
6
CONTINUOUS
10
-2.525540
20
6.703506
30
0.0
11
-2.259197
21
6.880966
31
0.0
0
LINE
8
0
6
CONTINUOUS
10
-2.751886
20
6.506996
30
0.0
11
-2.525540
21
6.703506
31
0.0
0
LINE
8
0
6
CONTINUOUS
10
-2.851421
20
6.624359
30
0.0
11
-3.040714
21
6.403167
31
0.0
0
LINE
8
0
6
CONTINUOUS
10
-2.934476
20
6.293647
30
0.0
11
-2.751886
21
6.506996
31
0.0
0
LINE
8
0
6
CONTINUOUS
10
-3.040714
20
6.403167
30
0.0
11
-3.180761
21
6.166778
31
0.0
0
LINE
8
0
6
CONTINUOUS
10
-3.069551
20
6.065658
30
0.0
11
-2.934476
21
6.293647
31
0.0
0
LINE
8
0
6
CONTINUOUS
10
-3.180761
20
6.166778
30
0.0
11
-3.267639
21
5.917511
31
0.0
0
LINE
8
0
6
CONTINUOUS
10
-3.153353
20
5.825233
30
0.0
11
-3.069551
21
6.065658
31
0.0
0
LINE
8
0
6
CONTINUOUS
10
-3.267639
20
5.917511
30
0.0
11
-3.297450
21
5.657775
31
0.0
0
LINE
8
0
6
CONTINUOUS
10
-3.182123
20
5.574577
30
0.0
11
-3.153353
21
5.825233
31
0.0
0
LINE
8
0
6
CONTINUOUS
10
-3.297450
20
5.657775
30
0.0
11
-3.267639
21
5.398033
31
0.0
0
LINE
8
0
6
CONTINUOUS
10
-3.153353
20
5.323921
30
0.0
11
-3.182123
21
5.574577
31
0.0
0
LINE
8
0
6
CONTINUOUS
10
-3.267639
20
5.398033
30
0.0
11
-3.180761
21
5.148773
31
0.0
0
LINE
8
0
6
CONTINUOUS
10
-3.069551
20
5.083496
30
0.0
11
-3.153353
21
5.323921
31
0.0
0
LINE
8
0
6
CONTINUOUS
10
-3.180761
20
5.148773
30
0.0
11
-3.040714
21
4.912376
31
0.0
0
LINE
8
0
6
CONTINUOUS
10
-2.934476
20
4.855507
30
0.0
11
-3.069551
21
5.083496
31
0.0
0
LINE
8
0
6
CONTINUOUS
10
-3.040714
20
4.912376
30
0.0
11
-2.851421
21
4.691185
31
0.0
0
LINE
8
0
6
CONTINUOUS
10
-2.751885
20
4.642158
30
0.0
11
-2.934476
21
4.855507
31
0.0
0
LINE
8
0
6
CONTINUOUS
10
-2.851421
20
4.691185
30
0.0
11
-2.616799
21
4.487487
31
0.0
0
LINE
8
0
6
CONTINUOUS
10
-2.525539
20
4.445648
30
0.0
11
-2.751885
21
4.642158
31
0.0
0
LINE
8
0
6
CONTINUOUS
10
-2.616799
20
4.487487
30
0.0
11
-2.340744
21
4.303558
31
0.0
0
LINE
8
0
6
CONTINUOUS
10
-2.259196
20
4.268189
30
0.0
11
-2.525539
21
4.445648
31
0.0
0
LINE
8
0
6
CONTINUOUS
10
-2.027128
20
4.141663
30
0.0
11
-1.956615
21
4.111985
31
0.0
0
LINE
8
0
6
CONTINUOUS
10
-2.340744
20
4.303558
30
0.0
11
-2.027128
21
4.141663
31
0.0
0
LINE
8
0
6
CONTINUOUS
10
-1.956615
20
4.111985
30
0.0
11
-2.259196
21
4.268189
31
0.0
0
LINE
8
0
6
CONTINUOUS
10
-1.478121
20
6.787498
30
0.0
11
-1.313691
21
6.791572
31
0.0
0
LINE
8
0
6
CONTINUOUS
10
-1.566499
20
6.867057
30
0.0
11
-1.478121
21
6.787498
31
0.0
0
LINE
8
0
6
CONTINUOUS
10
-1.490445
20
6.950706
30
0.0
11
-1.566499
21
6.867057
31
0.0
0
LINE
8
0
6
CONTINUOUS
10
-1.326015
20
6.954773
30
0.0
11
-1.490445
21
6.950706
31
0.0
0
LINE
8
0
6
CONTINUOUS
10
-1.237638
20
6.875213
30
0.0
11
-1.326015
21
6.954773
31
0.0
0
LINE
8
0
6
CONTINUOUS
10
-1.313691
20
6.791572
30
0.0
11
-1.237638
21
6.875213
31
0.0
0
LINE
8
0
6
CONTINUOUS
10
-4.442485
20
5.506416
30
0.0
11
-4.597329
21
5.474449
31
0.0
0
LINE
8
0
6
CONTINUOUS
10
-4.316757
20
5.445556
30
0.0
11
-4.442485
21
5.506416
31
0.0
0
LINE
8
0
6
CONTINUOUS
10
-4.345870
20
5.352722
30
0.0
11
-4.316757
21
5.445556
31
0.0
0
LINE
8
0
6
CONTINUOUS
10
-4.500714
20
5.320762
30
0.0
11
-4.345870
21
5.352722
31
0.0
0
LINE
8
0
6
CONTINUOUS
10
-4.626442
20
5.381622
30
0.0
11
-4.500714
21
5.320762
31
0.0
0
LINE
8
0
6
CONTINUOUS
10
-4.597329
20
5.474449
30
0.0
11
-4.626442
21
5.381622
31
0.0
0
LINE
8
0
6
CONTINUOUS
10
-0.088328
20
3.997124
30
0.0
11
-0.214057
21
3.936265
31
0.0
0
LINE
8
0
6
CONTINUOUS
10
0.066515
20
3.965165
30
0.0
11
-0.088328
21
3.997124
31
0.0
0
LINE
8
0
6
CONTINUOUS
10
0.095629
20
3.872338
30
0.0
11
0.066515
21
3.965165
31
0.0
0
LINE
8
0
6
CONTINUOUS
10
-0.030101
20
3.811471
30
0.0
11
0.095629
21
3.872338
31
0.0
0
LINE
8
0
6
CONTINUOUS
10
-0.184944
20
3.843445
30
0.0
11
-0.030101
21
3.811471
31
0.0
0
LINE
8
0
6
CONTINUOUS
10
-0.214057
20
3.936265
30
0.0
11
-0.184944
21
3.843445
31
0.0
0
LINE
8
0
6
CONTINUOUS
10
-1.687610
20
3.257073
30
0.0
11
-1.532767
21
3.225106
31
0.0
0
LINE
8
0
6
CONTINUOUS
10
-1.716723
20
3.349907
30
0.0
11
-1.687610
21
3.257073
31
0.0
0
LINE
8
0
6
CONTINUOUS
10
-1.590994
20
3.410767
30
0.0
11
-1.716723
21
3.349907
31
0.0
0
LINE
8
0
6
CONTINUOUS
10
-1.436151
20
3.378800
30
0.0
11
-1.590994
21
3.410767
31
0.0
0
LINE
8
0
6
CONTINUOUS
10
-1.407037
20
3.285966
30
0.0
11
-1.436151
21
3.378800
31
0.0
0
LINE
8
0
6
CONTINUOUS
10
-1.532767
20
3.225106
30
0.0
11
-1.407037
21
3.285966
31
0.0
0
LINE
8
0
6
CONTINUOUS
10
-3.287069
20
4.689491
30
0.0
11
-3.316183
21
4.596672
31
0.0
0
LINE
8
0
6
CONTINUOUS
10
-3.132225
20
4.721458
30
0.0
11
-3.287069
21
4.689491
31
0.0
0
LINE
8
0
6
CONTINUOUS
10
-3.006496
20
4.660598
30
0.0
11
-3.132225
21
4.721458
31
0.0
0
LINE
8
0
6
CONTINUOUS
10
-3.035610
20
4.567772
30
0.0
11
-3.006496
21
4.660598
31
0.0
0
LINE
8
0
6
CONTINUOUS
10
-3.190453
20
4.535804
30
0.0
11
-3.035610
21
4.567772
31
0.0
0
LINE
8
0
6
CONTINUOUS
10
-3.316183
20
4.596672
30
0.0
11
-3.190453
21
4.535804
31
0.0
0
LINE
8
0
6
CONTINUOUS
10
-1.256278
20
6.158874
30
0.0
11
-1.097034
21
6.182708
31
0.0
0
LINE
8
0
6
CONTINUOUS
10
-1.371914
20
6.225990
30
0.0
11
-1.256278
21
6.158874
31
0.0
0
LINE
8
0
6
CONTINUOUS
10
-1.328304
20
6.316940
30
0.0
11
-1.371914
21
6.225990
31
0.0
0
LINE
8
0
6
CONTINUOUS
10
-1.169060
20
6.340767
30
0.0
11
-1.328304
21
6.316940
31
0.0
0
LINE
8
0
6
CONTINUOUS
10
-1.053426
20
6.273651
30
0.0
11
-1.169060
21
6.340767
31
0.0
0
LINE
8
0
6
CONTINUOUS
10
-1.097034
20
6.182708
30
0.0
11
-1.053426
21
6.273651
31
0.0
0
LINE
8
0
6
CONTINUOUS
10
-0.823987
20
5.009697
30
0.0
11
-0.698258
21
5.070564
31
0.0
0
LINE
8
0
6
CONTINUOUS
10
-0.978830
20
5.041656
30
0.0
11
-0.823987
21
5.009697
31
0.0
0
LINE
8
0
6
CONTINUOUS
10
-1.007944
20
5.134491
30
0.0
11
-0.978830
21
5.041656
31
0.0
0
LINE
8
0
6
CONTINUOUS
10
-0.882214
20
5.195350
30
0.0
11
-1.007944
21
5.134491
31
0.0
0
LINE
8
0
6
CONTINUOUS
10
-0.727371
20
5.163383
30
0.0
11
-0.882214
21
5.195350
31
0.0
0
LINE
8
0
6
CONTINUOUS
10
-0.698258
20
5.070564
30
0.0
11
-0.727371
21
5.163383
31
0.0
0
LINE
8
0
6
CONTINUOUS
10
3.415329
20
5.476051
30
0.0
11
3.386216
21
5.383216
31
0.0
0
LINE
8
0
6
CONTINUOUS
10
3.570173
20
5.508010
30
0.0
11
3.415329
21
5.476051
31
0.0
0
LINE
8
0
6
CONTINUOUS
10
3.695902
20
5.447151
30
0.0
11
3.570173
21
5.508010
31
0.0
0
LINE
8
0
6
CONTINUOUS
10
3.666789
20
5.354316
30
0.0
11
3.695902
21
5.447151
31
0.0
0
LINE
8
0
6
CONTINUOUS
10
3.511945
20
5.322357
30
0.0
11
3.666789
21
5.354316
31
0.0
0
LINE
8
0
6
CONTINUOUS
10
3.386216
20
5.383216
30
0.0
11
3.511945
21
5.322357
31
0.0
0
LINE
8
0
6
CONTINUOUS
10
-0.159770
20
4.740600
30
0.0
11
-0.004927
21
4.708641
31
0.0
0
LINE
8
0
6
CONTINUOUS
10
-0.188883
20
4.833427
30
0.0
11
-0.159770
21
4.740600
31
0.0
0
LINE
8
0
6
CONTINUOUS
10
-0.063154
20
4.894287
30
0.0
11
-0.188883
21
4.833427
31
0.0
0
LINE
8
0
6
CONTINUOUS
10
0.091689
20
4.862320
30
0.0
11
-0.063154
21
4.894287
31
0.0
0
LINE
8
0
6
CONTINUOUS
10
0.120803
20
4.769500
30
0.0
11
0.091689
21
4.862320
31
0.0
0
LINE
8
0
6
CONTINUOUS
10
-0.004927
20
4.708641
30
0.0
11
0.120803
21
4.769500
31
0.0
0
LINE
8
0
6
CONTINUOUS
10
-0.082006
20
3.234521
30
0.0
11
-0.207735
21
3.173653
31
0.0
0
LINE
8
0
6
CONTINUOUS
10
0.072837
20
3.202553
30
0.0
11
-0.082006
21
3.234521
31
0.0
0
LINE
8
0
6
CONTINUOUS
10
0.101951
20
3.109727
30
0.0
11
0.072837
21
3.202553
31
0.0
0
LINE
8
0
6
CONTINUOUS
10
-0.023779
20
3.048867
30
0.0
11
0.101951
21
3.109727
31
0.0
0
LINE
8
0
6
CONTINUOUS
10
-0.178622
20
3.080834
30
0.0
11
-0.023779
21
3.048867
31
0.0
0
LINE
8
0
6
CONTINUOUS
10
-0.207735
20
3.173653
30
0.0
11
-0.178622
21
3.080834
31
0.0
0
LINE
8
0
6
CONTINUOUS
10
-2.105508
20
4.028496
30
0.0
11
-2.260351
21
3.996529
31
0.0
0
LINE
8
0
6
CONTINUOUS
10
-1.979779
20
3.967637
30
0.0
11
-2.105508
21
4.028496
31
0.0
0
LINE
8
0
6
CONTINUOUS
10
-2.008893
20
3.874802
30
0.0
11
-1.979779
21
3.967637
31
0.0
0
LINE
8
0
6
CONTINUOUS
10
-2.163736
20
3.842843
30
0.0
11
-2.008893
21
3.874802
31
0.0
0
LINE
8
0
6
CONTINUOUS
10
-2.289465
20
3.903702
30
0.0
11
-2.163736
21
3.842843
31
0.0
0
LINE
8
0
6
CONTINUOUS
10
-2.260351
20
3.996529
30
0.0
11
-2.289465
21
3.903702
31
0.0
0
LINE
8
0
6
CONTINUOUS
10
-2.876949
20
7.907341
30
0.0
11
-3.036192
21
7.883514
31
0.0
0
LINE
8
0
6
CONTINUOUS
10
-2.761315
20
7.840232
30
0.0
11
-2.876949
21
7.907341
31
0.0
0
LINE
8
0
6
CONTINUOUS
10
-2.804922
20
7.749282
30
0.0
11
-2.761315
21
7.840232
31
0.0
0
LINE
8
0
6
CONTINUOUS
10
-2.964167
20
7.725456
30
0.0
11
-2.804922
21
7.749282
31
0.0
0
LINE
8
0
6
CONTINUOUS
10
-3.079803
20
7.792572
30
0.0
11
-2.964167
21
7.725456
31
0.0
0
LINE
8
0
6
CONTINUOUS
10
-3.036192
20
7.883514
30
0.0
11
-3.079803
21
7.792572
31
0.0
0
LINE
8
0
6
CONTINUOUS
10
-1.364705
20
4.056603
30
0.0
11
-1.238976
21
4.117470
31
0.0
0
LINE
8
0
6
CONTINUOUS
10
-1.519548
20
4.088570
30
0.0
11
-1.364705
21
4.056603
31
0.0
0
LINE
8
0
6
CONTINUOUS
10
-1.548662
20
4.181397
30
0.0
11
-1.519548
21
4.088570
31
0.0
0
LINE
8
0
6
CONTINUOUS
10
-1.422932
20
4.242257
30
0.0
11
-1.548662
21
4.181397
31
0.0
0
LINE
8
0
6
CONTINUOUS
10
-1.268090
20
4.210290
30
0.0
11
-1.422932
21
4.242257
31
0.0
0
LINE
8
0
6
CONTINUOUS
10
-1.238976
20
4.117470
30
0.0
11
-1.268090
21
4.210290
31
0.0
0
LINE
8
0
6
CONTINUOUS
10
1.488424
20
4.790268
30
0.0
11
1.643268
21
4.822235
31
0.0
0
LINE
8
0
6
CONTINUOUS
10
1.362695
20
4.851127
30
0.0
11
1.488424
21
4.790268
31
0.0
0
LINE
8
0
6
CONTINUOUS
10
1.391809
20
4.943962
30
0.0
11
1.362695
21
4.851127
31
0.0
0
LINE
8
0
6
CONTINUOUS
10
1.546652
20
4.975921
30
0.0
11
1.391809
21
4.943962
31
0.0
0
LINE
8
0
6
CONTINUOUS
10
1.672381
20
4.915062
30
0.0
11
1.546652
21
4.975921
31
0.0
0
LINE
8
0
6
CONTINUOUS
10
1.643268
20
4.822235
30
0.0
11
1.672381
21
4.915062
31
0.0
0
LINE
8
0
6
CONTINUOUS
10
-0.004967
20
7.648498
30
0.0
11
0.100118
21
7.721084
31
0.0
0
LINE
8
0
6
CONTINUOUS
10
-0.167208
20
7.664352
30
0.0
11
-0.004967
21
7.648498
31
0.0
0
LINE
8
0
6
CONTINUOUS
10
-0.224363
20
7.752800
30
0.0
11
-0.167208
21
7.664352
31
0.0
0
LINE
8
0
6
CONTINUOUS
10
-0.119276
20
7.825386
30
0.0
11
-0.224363
21
7.752800
31
0.0
0
LINE
8
0
6
CONTINUOUS
10
0.042964
20
7.809532
30
0.0
11
-0.119276
21
7.825386
31
0.0
0
LINE
8
0
6
CONTINUOUS
10
0.100118
20
7.721084
30
0.0
11
0.042964
21
7.809532
31
0.0
0
LINE
8
0
6
CONTINUOUS
10
-3.064810
20
3.879754
30
0.0
11
-3.093923
21
3.786919
31
0.0
0
LINE
8
0
6
CONTINUOUS
10
-2.909967
20
3.911713
30
0.0
11
-3.064810
21
3.879754
31
0.0
0
LINE
8
0
6
CONTINUOUS
10
-2.784237
20
3.850854
30
0.0
11
-2.909967
21
3.911713
31
0.0
0
LINE
8
0
6
CONTINUOUS
10
-2.813351
20
3.758019
30
0.0
11
-2.784237
21
3.850854
31
0.0
0
LINE
8
0
6
CONTINUOUS
10
-2.968194
20
3.726060
30
0.0
11
-2.813351
21
3.758019
31
0.0
0
LINE
8
0
6
CONTINUOUS
10
-3.093923
20
3.786919
30
0.0
11
-2.968194
21
3.726060
31
0.0
0
LINE
8
0
6
CONTINUOUS
10
0.015183
20
5.979507
30
0.0
11
-0.144061
21
5.955673
31
0.0
0
LINE
8
0
6
CONTINUOUS
10
0.130818
20
5.912399
30
0.0
11
0.015183
21
5.979507
31
0.0
0
LINE
8
0
6
CONTINUOUS
10
0.087210
20
5.821449
30
0.0
11
0.130818
21
5.912399
31
0.0
0
LINE
8
0
6
CONTINUOUS
10
-0.072035
20
5.797622
30
0.0
11
0.087210
21
5.821449
31
0.0
0
LINE
8
0
6
CONTINUOUS
10
-0.187671
20
5.864738
30
0.0
11
-0.072035
21
5.797622
31
0.0
0
LINE
8
0
6
CONTINUOUS
10
-0.144061
20
5.955673
30
0.0
11
-0.187671
21
5.864738
31
0.0
0
LINE
8
0
6
CONTINUOUS
10
0.621074
20
4.531234
30
0.0
11
0.466231
21
4.499267
31
0.0
0
LINE
8
0
6
CONTINUOUS
10
0.746803
20
4.470375
30
0.0
11
0.621074
21
4.531234
31
0.0
0
LINE
8
0
6
CONTINUOUS
10
0.717689
20
4.377540
30
0.0
11
0.746803
21
4.470375
31
0.0
0
LINE
8
0
6
CONTINUOUS
10
0.562846
20
4.345581
30
0.0
11
0.717689
21
4.377540
31
0.0
0
LINE
8
0
6
CONTINUOUS
10
0.437117
20
4.406440
30
0.0
11
0.562846
21
4.345581
31
0.0
0
LINE
8
0
6
CONTINUOUS
10
0.466231
20
4.499267
30
0.0
11
0.437117
21
4.406440
31
0.0
0
LINE
8
0
6
CONTINUOUS
10
0.613139
20
5.570953
30
0.0
11
0.760053
21
5.528442
31
0.0
0
LINE
8
0
6
CONTINUOUS
10
0.603931
20
5.665123
30
0.0
11
0.613139
21
5.570953
31
0.0
0
LINE
8
0
6
CONTINUOUS
10
0.741637
20
5.716774
30
0.0
11
0.603931
21
5.665123
31
0.0
0
LINE
8
0
6
CONTINUOUS
10
0.888551
20
5.674263
30
0.0
11
0.741637
21
5.716774
31
0.0
0
LINE
8
0
6
CONTINUOUS
10
0.897761
20
5.580101
30
0.0
11
0.888551
21
5.674263
31
0.0
0
LINE
8
0
6
CONTINUOUS
10
0.760053
20
5.528442
30
0.0
11
0.897761
21
5.580101
31
0.0
0
LINE
8
0
6
CONTINUOUS
10
-1.668320
20
8.179611
30
0.0
11
-1.506080
21
8.163749
31
0.0
0
LINE
8
0
6
CONTINUOUS
10
-1.725475
20
8.268051
30
0.0
11
-1.668320
21
8.179611
31
0.0
0
LINE
8
0
6
CONTINUOUS
10
-1.620388
20
8.340644
30
0.0
11
-1.725475
21
8.268051
31
0.0
0
LINE
8
0
6
CONTINUOUS
10
-1.458148
20
8.324783
30
0.0
11
-1.620388
21
8.340644
31
0.0
0
LINE
8
0
6
CONTINUOUS
10
-1.400993
20
8.236335
30
0.0
11
-1.458148
21
8.324783
31
0.0
0
LINE
8
0
6
CONTINUOUS
10
-1.506080
20
8.163749
30
0.0
11
-1.400993
21
8.236335
31
0.0
0
LINE
8
0
6
CONTINUOUS
10
1.536914
20
8.333419
30
0.0
11
1.374673
21
8.317566
31
0.0
0
LINE
8
0
6
CONTINUOUS
10
1.642001
20
8.260841
30
0.0
11
1.536914
21
8.333419
31
0.0
0
LINE
8
0
6
CONTINUOUS
10
1.584846
20
8.172386
30
0.0
11
1.642001
21
8.260841
31
0.0
0
LINE
8
0
6
CONTINUOUS
10
1.422605
20
8.156532
30
0.0
11
1.584846
21
8.172386
31
0.0
0
LINE
8
0
6
CONTINUOUS
10
1.317519
20
8.229118
30
0.0
11
1.422605
21
8.156532
31
0.0
0
LINE
8
0
6
CONTINUOUS
10
1.374673
20
8.317566
30
0.0
11
1.317519
21
8.229118
31
0.0
0
LINE
8
0
6
CONTINUOUS
10
0.572541
20
3.614113
30
0.0
11
0.543428
21
3.521279
31
0.0
0
LINE
8
0
6
CONTINUOUS
10
0.727384
20
3.646073
30
0.0
11
0.572541
21
3.614113
31
0.0
0
LINE
8
0
6
CONTINUOUS
10
0.853113
20
3.585213
30
0.0
11
0.727384
21
3.646073
31
0.0
0
LINE
8
0
6
CONTINUOUS
10
0.824000
20
3.492386
30
0.0
11
0.853113
21
3.585213
31
0.0
0
LINE
8
0
6
CONTINUOUS
10
0.669157
20
3.460419
30
0.0
11
0.824000
21
3.492386
31
0.0
0
LINE
8
0
6
CONTINUOUS
10
0.543428
20
3.521279
30
0.0
11
0.669157
21
3.460419
31
0.0
0
LINE
8
0
6
CONTINUOUS
10
1.925418
20
3.883187
30
0.0
11
2.080261
21
3.851220
31
0.0
0
LINE
8
0
6
CONTINUOUS
10
1.896304
20
3.976021
30
0.0
11
1.925418
21
3.883187
31
0.0
0
LINE
8
0
6
CONTINUOUS
10
2.022034
20
4.036881
30
0.0
11
1.896304
21
3.976021
31
0.0
0
LINE
8
0
6
CONTINUOUS
10
2.176877
20
4.004914
30
0.0
11
2.022034
21
4.036881
31
0.0
0
LINE
8
0
6
CONTINUOUS
10
2.205990
20
3.912079
30
0.0
11
2.176877
21
4.004914
31
0.0
0
LINE
8
0
6
CONTINUOUS
10
2.080261
20
3.851220
30
0.0
11
2.205990
21
3.912079
31
0.0
0
LINE
8
0
6
CONTINUOUS
10
1.339458
20
4.237275
30
0.0
11
1.184615
21
4.205308
31
0.0
0
LINE
8
0
6
CONTINUOUS
10
1.465187
20
4.176415
30
0.0
11
1.339458
21
4.237275
31
0.0
0
LINE
8
0
6
CONTINUOUS
10
1.436074
20
4.083588
30
0.0
11
1.465187
21
4.176415
31
0.0
0
LINE
8
0
6
CONTINUOUS
10
1.281231
20
4.051629
30
0.0
11
1.436074
21
4.083588
31
0.0
0
LINE
8
0
6
CONTINUOUS
10
1.155501
20
4.112488
30
0.0
11
1.281231
21
4.051629
31
0.0
0
LINE
8
0
6
CONTINUOUS
10
1.184615
20
4.205308
30
0.0
11
1.155501
21
4.112488
31
0.0
0
LINE
8
0
6
CONTINUOUS
10
1.336163
20
7.627594
30
0.0
11
1.247786
21
7.548027
31
0.0
0
LINE
8
0
6
CONTINUOUS
10
1.500592
20
7.623512
30
0.0
11
1.336163
21
7.627594
31
0.0
0
LINE
8
0
6
CONTINUOUS
10
1.576646
20
7.539878
30
0.0
11
1.500592
21
7.623512
31
0.0
0
LINE
8
0
6
CONTINUOUS
10
1.488269
20
7.460319
30
0.0
11
1.576646
21
7.539878
31
0.0
0
LINE
8
0
6
CONTINUOUS
10
1.323839
20
7.464386
30
0.0
11
1.488269
21
7.460319
31
0.0
0
LINE
8
0
6
CONTINUOUS
10
1.247786
20
7.548027
30
0.0
11
1.323839
21
7.464386
31
0.0
0
LINE
8
0
6
CONTINUOUS
10
2.534602
20
5.565513
30
0.0
11
2.505487
21
5.472686
31
0.0
0
LINE
8
0
6
CONTINUOUS
10
2.689445
20
5.597480
30
0.0
11
2.534602
21
5.565513
31
0.0
0
LINE
8
0
6
CONTINUOUS
10
2.815174
20
5.536621
30
0.0
11
2.689445
21
5.597480
31
0.0
0
LINE
8
0
6
CONTINUOUS
10
2.786060
20
5.443794
30
0.0
11
2.815174
21
5.536621
31
0.0
0
LINE
8
0
6
CONTINUOUS
10
2.631217
20
5.411819
30
0.0
11
2.786060
21
5.443794
31
0.0
0
LINE
8
0
6
CONTINUOUS
10
2.505487
20
5.472686
30
0.0
11
2.631217
21
5.411819
31
0.0
0
LINE
8
0
6
CONTINUOUS
10
-4.483665
20
6.389930
30
0.0
11
-4.609394
21
6.329071
31
0.0
0
LINE
8
0
6
CONTINUOUS
10
-4.328823
20
6.357963
30
0.0
11
-4.483665
21
6.389930
31
0.0
0
LINE
8
0
6
CONTINUOUS
10
-4.299709
20
6.265136
30
0.0
11
-4.328823
21
6.357963
31
0.0
0
LINE
8
0
6
CONTINUOUS
10
-4.425438
20
6.204277
30
0.0
11
-4.299709
21
6.265136
31
0.0
0
LINE
8
0
6
CONTINUOUS
10
-4.580282
20
6.236244
30
0.0
11
-4.425438
21
6.204277
31
0.0
0
LINE
8
0
6
CONTINUOUS
10
-4.609394
20
6.329071
30
0.0
11
-4.580282
21
6.236244
31
0.0
0
LINE
8
0
6
CONTINUOUS
10
-0.752631
20
3.466340
30
0.0
11
-0.626902
21
3.527199
31
0.0
0
LINE
8
0
6
CONTINUOUS
10
-0.907475
20
3.498299
30
0.0
11
-0.752631
21
3.466340
31
0.0
0
LINE
8
0
6
CONTINUOUS
10
-0.936588
20
3.591126
30
0.0
11
-0.907475
21
3.498299
31
0.0
0
LINE
8
0
6
CONTINUOUS
10
-0.810858
20
3.651993
30
0.0
11
-0.936588
21
3.591126
31
0.0
0
LINE
8
0
6
CONTINUOUS
10
-0.656016
20
3.620034
30
0.0
11
-0.810858
21
3.651993
31
0.0
0
LINE
8
0
6
CONTINUOUS
10
-0.626902
20
3.527199
30
0.0
11
-0.656016
21
3.620034
31
0.0
0
LINE
8
0
6
CONTINUOUS
10
1.449292
20
3.169930
30
0.0
11
1.604136
21
3.201890
31
0.0
0
LINE
8
0
6
CONTINUOUS
10
1.323563
20
3.230790
30
0.0
11
1.449292
21
3.169930
31
0.0
0
LINE
8
0
6
CONTINUOUS
10
1.352677
20
3.323609
30
0.0
11
1.323563
21
3.230790
31
0.0
0
LINE
8
0
6
CONTINUOUS
10
1.507520
20
3.355584
30
0.0
11
1.352677
21
3.323609
31
0.0
0
LINE
8
0
6
CONTINUOUS
10
1.633249
20
3.294716
30
0.0
11
1.507520
21
3.355584
31
0.0
0
LINE
8
0
6
CONTINUOUS
10
1.604136
20
3.201890
30
0.0
11
1.633249
21
3.294716
31
0.0
0
LINE
8
0
6
CONTINUOUS
10
4.341963
20
6.186378
30
0.0
11
4.496806
21
6.218353
31
0.0
0
LINE
8
0
6
CONTINUOUS
10
4.216232
20
6.247245
30
0.0
11
4.341963
21
6.186378
31
0.0
0
LINE
8
0
6
CONTINUOUS
10
4.245347
20
6.340072
30
0.0
11
4.216232
21
6.247245
31
0.0
0
LINE
8
0
6
CONTINUOUS
10
4.400188
20
6.372039
30
0.0
11
4.245347
21
6.340072
31
0.0
0
LINE
8
0
6
CONTINUOUS
10
4.525919
20
6.311180
30
0.0
11
4.400188
21
6.372039
31
0.0
0
LINE
8
0
6
CONTINUOUS
10
4.496806
20
6.218353
30
0.0
11
4.525919
21
6.311180
31
0.0
0
LINE
8
0
6
CONTINUOUS
10
-3.913321
20
7.237289
30
0.0
11
-4.060235
21
7.194786
31
0.0
0
LINE
8
0
6
CONTINUOUS
10
-3.775614
20
7.185638
30
0.0
11
-3.913321
21
7.237289
31
0.0
0
LINE
8
0
6
CONTINUOUS
10
-3.784822
20
7.091468
30
0.0
11
-3.775614
21
7.185638
31
0.0
0
LINE
8
0
6
CONTINUOUS
10
-3.931737
20
7.048957
30
0.0
11
-3.784822
21
7.091468
31
0.0
0
LINE
8
0
6
CONTINUOUS
10
-4.069445
20
7.100616
30
0.0
11
-3.931737
21
7.048957
31
0.0
0
LINE
8
0
6
CONTINUOUS
10
-4.060235
20
7.194786
30
0.0
11
-4.069445
21
7.100616
31
0.0
0
LINE
8
0
6
CONTINUOUS
10
3.902479
20
4.447525
30
0.0
11
4.028208
21
4.508384
31
0.0
0
LINE
8
0
6
CONTINUOUS
10
3.747636
20
4.479492
30
0.0
11
3.902479
21
4.447525
31
0.0
0
LINE
8
0
6
CONTINUOUS
10
3.718522
20
4.572326
30
0.0
11
3.747636
21
4.479492
31
0.0
0
LINE
8
0
6
CONTINUOUS
10
3.844252
20
4.633186
30
0.0
11
3.718522
21
4.572326
31
0.0
0
LINE
8
0
6
CONTINUOUS
10
3.999095
20
4.601219
30
0.0
11
3.844252
21
4.633186
31
0.0
0
LINE
8
0
6
CONTINUOUS
10
4.028208
20
4.508384
30
0.0
11
3.999095
21
4.601219
31
0.0
0
LINE
8
0
6
CONTINUOUS
10
-2.845866
20
7.123314
30
0.0
11
-2.889476
21
7.032371
31
0.0
0
LINE
8
0
6
CONTINUOUS
10
-2.686623
20
7.147148
30
0.0
11
-2.845866
21
7.123314
31
0.0
0
LINE
8
0
6
CONTINUOUS
10
-2.570988
20
7.080024
30
0.0
11
-2.686623
21
7.147148
31
0.0
0
LINE
8
0
6
CONTINUOUS
10
-2.614596
20
6.989090
30
0.0
11
-2.570988
21
7.080024
31
0.0
0
LINE
8
0
6
CONTINUOUS
10
-2.773841
20
6.965255
30
0.0
11
-2.614596
21
6.989090
31
0.0
0
LINE
8
0
6
CONTINUOUS
10
-2.889476
20
7.032371
30
0.0
11
-2.773841
21
6.965255
31
0.0
0
LINE
8
0
6
CONTINUOUS
10
2.721448
20
7.736389
30
0.0
11
2.880693
21
7.712562
31
0.0
0
LINE
8
0
6
CONTINUOUS
10
2.677839
20
7.827331
30
0.0
11
2.721448
21
7.736389
31
0.0
0
LINE
8
0
6
CONTINUOUS
10
2.793474
20
7.894447
30
0.0
11
2.677839
21
7.827331
31
0.0
0
LINE
8
0
6
CONTINUOUS
10
2.952718
20
7.870620
30
0.0
11
2.793474
21
7.894447
31
0.0
0
LINE
8
0
6
CONTINUOUS
10
2.996328
20
7.779670
30
0.0
11
2.952718
21
7.870620
31
0.0
0
LINE
8
0
6
CONTINUOUS
10
2.880693
20
7.712562
30
0.0
11
2.996328
21
7.779670
31
0.0
0
LINE
8
0
6
CONTINUOUS
10
3.048751
20
4.710670
30
0.0
11
2.923021
21
4.649810
31
0.0
0
LINE
8
0
6
CONTINUOUS
10
3.203594
20
4.678703
30
0.0
11
3.048751
21
4.710670
31
0.0
0
LINE
8
0
6
CONTINUOUS
10
3.232708
20
4.585876
30
0.0
11
3.203594
21
4.678703
31
0.0
0
LINE
8
0
6
CONTINUOUS
10
3.106978
20
4.525009
30
0.0
11
3.232708
21
4.585876
31
0.0
0
LINE
8
0
6
CONTINUOUS
10
2.952135
20
4.556976
30
0.0
11
3.106978
21
4.525009
31
0.0
0
LINE
8
0
6
CONTINUOUS
10
2.923021
20
4.649810
30
0.0
11
2.952135
21
4.556976
31
0.0
0
LINE
8
0
6
CONTINUOUS
10
-2.344747
20
4.821357
30
0.0
11
-2.499590
21
4.789398
31
0.0
0
LINE
8
0
6
CONTINUOUS
10
-2.219017
20
4.760498
30
0.0
11
-2.344747
21
4.821357
31
0.0
0
LINE
8
0
6
CONTINUOUS
10
-2.248131
20
4.667678
30
0.0
11
-2.219017
21
4.760498
31
0.0
0
LINE
8
0
6
CONTINUOUS
10
-2.402974
20
4.635711
30
0.0
11
-2.248131
21
4.667678
31
0.0
0
LINE
8
0
6
CONTINUOUS
10
-2.528703
20
4.696571
30
0.0
11
-2.402974
21
4.635711
31
0.0
0
LINE
8
0
6
CONTINUOUS
10
-2.499590
20
4.789398
30
0.0
11
-2.528703
21
4.696571
31
0.0
0
LINE
8
0
6
CONTINUOUS
10
-2.772919
20
5.608726
30
0.0
11
-2.898648
21
5.547859
31
0.0
0
LINE
8
0
6
CONTINUOUS
10
-2.618076
20
5.576759
30
0.0
11
-2.772919
21
5.608726
31
0.0
0
LINE
8
0
6
CONTINUOUS
10
-2.588962
20
5.483932
30
0.0
11
-2.618076
21
5.576759
31
0.0
0
LINE
8
0
6
CONTINUOUS
10
-2.714692
20
5.423072
30
0.0
11
-2.588962
21
5.483932
31
0.0
0
LINE
8
0
6
CONTINUOUS
10
-2.869535
20
5.455040
30
0.0
11
-2.714692
21
5.423072
31
0.0
0
LINE
8
0
6
CONTINUOUS
10
-2.898648
20
5.547859
30
0.0
11
-2.869535
21
5.455040
31
0.0
0
LINE
8
0
6
CONTINUOUS
10
-2.514605
20
6.380088
30
0.0
11
-2.523815
21
6.285926
31
0.0
0
LINE
8
0
6
CONTINUOUS
10
-2.367691
20
6.422599
30
0.0
11
-2.514605
21
6.380088
31
0.0
0
LINE
8
0
6
CONTINUOUS
10
-2.229984
20
6.370956
30
0.0
11
-2.367691
21
6.422599
31
0.0
0
LINE
8
0
6
CONTINUOUS
10
-2.239193
20
6.276779
30
0.0
11
-2.229984
21
6.370956
31
0.0
0
LINE
8
0
6
CONTINUOUS
10
-2.386107
20
6.234268
30
0.0
11
-2.239193
21
6.276779
31
0.0
0
LINE
8
0
6
CONTINUOUS
10
-2.523815
20
6.285926
30
0.0
11
-2.386107
21
6.234268
31
0.0
0
LINE
8
0
6
CONTINUOUS
10
1.230217
20
6.787666
30
0.0
11
1.394647
21
6.783592
31
0.0
0
LINE
8
0
6
CONTINUOUS
10
1.154164
20
6.871315
30
0.0
11
1.230217
21
6.787666
31
0.0
0
LINE
8
0
6
CONTINUOUS
10
1.242541
20
6.950874
30
0.0
11
1.154164
21
6.871315
31
0.0
0
LINE
8
0
6
CONTINUOUS
10
1.406970
20
6.946800
30
0.0
11
1.242541
21
6.950874
31
0.0
0
LINE
8
0
6
CONTINUOUS
10
1.483025
20
6.863151
30
0.0
11
1.406970
21
6.946800
31
0.0
0
LINE
8
0
6
CONTINUOUS
10
1.394647
20
6.783592
30
0.0
11
1.483025
21
6.863151
31
0.0
0
LINE
8
0
6
CONTINUOUS
10
4.262395
20
5.334518
30
0.0
11
4.417237
21
5.302559
31
0.0
0
LINE
8
0
6
CONTINUOUS
10
4.233281
20
5.427353
30
0.0
11
4.262395
21
5.334518
31
0.0
0
LINE
8
0
6
CONTINUOUS
10
4.359011
20
5.488212
30
0.0
11
4.233281
21
5.427353
31
0.0
0
LINE
8
0
6
CONTINUOUS
10
4.513854
20
5.456245
30
0.0
11
4.359011
21
5.488212
31
0.0
0
LINE
8
0
6
CONTINUOUS
10
4.542967
20
5.363418
30
0.0
11
4.513854
21
5.456245
31
0.0
0
LINE
8
0
6
CONTINUOUS
10
4.417237
20
5.302559
30
0.0
11
4.542967
21
5.363418
31
0.0
0
LINE
8
0
6
CONTINUOUS
10
2.531122
20
6.975914
30
0.0
11
2.690366
21
6.952072
31
0.0
0
LINE
8
0
6
CONTINUOUS
10
2.487514
20
7.066848
30
0.0
11
2.531122
21
6.975914
31
0.0
0
LINE
8
0
6
CONTINUOUS
10
2.603149
20
7.133964
30
0.0
11
2.487514
21
7.066848
31
0.0
0
LINE
8
0
6
CONTINUOUS
10
2.762392
20
7.110130
30
0.0
11
2.603149
21
7.133964
31
0.0
0
LINE
8
0
6
CONTINUOUS
10
2.806002
20
7.019188
30
0.0
11
2.762392
21
7.110130
31
0.0
0
LINE
8
0
6
CONTINUOUS
10
2.690366
20
6.952072
30
0.0
11
2.806002
21
7.019188
31
0.0
0
LINE
8
0
6
CONTINUOUS
10
1.614149
20
5.541519
30
0.0
11
1.761064
21
5.499008
31
0.0
0
LINE
8
0
6
CONTINUOUS
10
1.604940
20
5.635681
30
0.0
11
1.614149
21
5.541519
31
0.0
0
LINE
8
0
6
CONTINUOUS
10
1.742648
20
5.687339
30
0.0
11
1.604940
21
5.635681
31
0.0
0
LINE
8
0
6
CONTINUOUS
10
1.889561
20
5.644828
30
0.0
11
1.742648
21
5.687339
31
0.0
0
LINE
8
0
6
CONTINUOUS
10
1.898771
20
5.550659
30
0.0
11
1.889561
21
5.644828
31
0.0
0
LINE
8
0
6
CONTINUOUS
10
1.761064
20
5.499008
30
0.0
11
1.898771
21
5.550659
31
0.0
0
LINE
8
0
6
CONTINUOUS
10
-3.627179
20
6.374176
30
0.0
11
-3.636388
21
6.280006
31
0.0
0
LINE
8
0
6
CONTINUOUS
10
-3.480264
20
6.416694
30
0.0
11
-3.627179
21
6.374176
31
0.0
0
LINE
8
0
6
CONTINUOUS
10
-3.342558
20
6.365036
30
0.0
11
-3.480264
21
6.416694
31
0.0
0
LINE
8
0
6
CONTINUOUS
10
-3.351766
20
6.270874
30
0.0
11
-3.342558
21
6.365036
31
0.0
0
LINE
8
0
6
CONTINUOUS
10
-3.498681
20
6.228355
30
0.0
11
-3.351766
21
6.270874
31
0.0
0
LINE
8
0
6
CONTINUOUS
10
-3.636388
20
6.280006
30
0.0
11
-3.498681
21
6.228355
31
0.0
0
LINE
8
0
6
CONTINUOUS
10
-0.178940
20
7.001785
30
0.0
11
-0.016699
21
6.985923
31
0.0
0
LINE
8
0
6
CONTINUOUS
10
-0.236094
20
7.090232
30
0.0
11
-0.178940
21
7.001785
31
0.0
0
LINE
8
0
6
CONTINUOUS
10
-0.131007
20
7.162819
30
0.0
11
-0.236094
21
7.090232
31
0.0
0
LINE
8
0
6
CONTINUOUS
10
0.031233
20
7.146957
30
0.0
11
-0.131007
21
7.162819
31
0.0
0
LINE
8
0
6
CONTINUOUS
10
0.088387
20
7.058517
30
0.0
11
0.031233
21
7.146957
31
0.0
0
LINE
8
0
6
CONTINUOUS
10
-0.016699
20
6.985923
30
0.0
11
0.088387
21
7.058517
31
0.0
0
LINE
8
0
6
CONTINUOUS
10
2.164657
20
4.658592
30
0.0
11
2.319500
21
4.626632
31
0.0
0
LINE
8
0
6
CONTINUOUS
10
2.135543
20
4.751419
30
0.0
11
2.164657
21
4.658592
31
0.0
0
LINE
8
0
6
CONTINUOUS
10
2.261272
20
4.812278
30
0.0
11
2.135543
21
4.751419
31
0.0
0
LINE
8
0
6
CONTINUOUS
10
2.416116
20
4.780319
30
0.0
11
2.261272
21
4.812278
31
0.0
0
LINE
8
0
6
CONTINUOUS
10
2.445229
20
4.687492
30
0.0
11
2.416116
21
4.780319
31
0.0
0
LINE
8
0
6
CONTINUOUS
10
2.319500
20
4.626632
30
0.0
11
2.445229
21
4.687492
31
0.0
0
LINE
8
0
6
CONTINUOUS
10
-3.985954
20
4.464218
30
0.0
11
-3.831110
21
4.496185
31
0.0
0
LINE
8
0
6
CONTINUOUS
10
-4.111682
20
4.525077
30
0.0
11
-3.985954
21
4.464218
31
0.0
0
LINE
8
0
6
CONTINUOUS
10
-4.082569
20
4.617912
30
0.0
11
-4.111682
21
4.525077
31
0.0
0
LINE
8
0
6
CONTINUOUS
10
-3.927726
20
4.649879
30
0.0
11
-4.082569
21
4.617912
31
0.0
0
LINE
8
0
6
CONTINUOUS
10
-3.801997
20
4.589019
30
0.0
11
-3.927726
21
4.649879
31
0.0
0
LINE
8
0
6
CONTINUOUS
10
-3.831110
20
4.496185
30
0.0
11
-3.801997
21
4.589019
31
0.0
0
LINE
8
0
6
CONTINUOUS
10
2.155718
20
6.268425
30
0.0
11
2.302633
21
6.225914
31
0.0
0
LINE
8
0
6
CONTINUOUS
10
2.146510
20
6.362587
30
0.0
11
2.155718
21
6.268425
31
0.0
0
LINE
8
0
6
CONTINUOUS
10
2.284216
20
6.414245
30
0.0
11
2.146510
21
6.362587
31
0.0
0
LINE
8
0
6
CONTINUOUS
10
2.431130
20
6.371734
30
0.0
11
2.284216
21
6.414245
31
0.0
0
LINE
8
0
6
CONTINUOUS
10
2.440340
20
6.277565
30
0.0
11
2.431130
21
6.371734
31
0.0
0
LINE
8
0
6
CONTINUOUS
10
2.302633
20
6.225914
30
0.0
11
2.440340
21
6.277565
31
0.0
0
LINE
8
0
6
CONTINUOUS
10
1.013559
20
6.179046
30
0.0
11
1.172804
21
6.155212
31
0.0
0
LINE
8
0
6
CONTINUOUS
10
0.969951
20
6.269981
30
0.0
11
1.013559
21
6.179046
31
0.0
0
LINE
8
0
6
CONTINUOUS
10
1.085586
20
6.337097
30
0.0
11
0.969951
21
6.269981
31
0.0
0
LINE
8
0
6
CONTINUOUS
10
1.244830
20
6.313270
30
0.0
11
1.085586
21
6.337097
31
0.0
0
LINE
8
0
6
CONTINUOUS
10
1.288440
20
6.222320
30
0.0
11
1.244830
21
6.313270
31
0.0
0
LINE
8
0
6
CONTINUOUS
10
1.172804
20
6.155212
30
0.0
11
1.288440
21
6.222320
31
0.0
0
LINE
8
0
6
CONTINUOUS
10
-1.419637
20
7.635109
30
0.0
11
-1.584067
21
7.631027
31
0.0
0
LINE
8
0
6
CONTINUOUS
10
-1.331260
20
7.555542
30
0.0
11
-1.419637
21
7.635109
31
0.0
0
LINE
8
0
6
CONTINUOUS
10
-1.407313
20
7.471901
30
0.0
11
-1.331260
21
7.555542
31
0.0
0
LINE
8
0
6
CONTINUOUS
10
-1.571743
20
7.467826
30
0.0
11
-1.407313
21
7.471901
31
0.0
0
LINE
8
0
6
CONTINUOUS
10
-1.660121
20
7.547386
30
0.0
11
-1.571743
21
7.467826
31
0.0
0
LINE
8
0
6
CONTINUOUS
10
-1.584067
20
7.631027
30
0.0
11
-1.660121
21
7.547386
31
0.0
0
LINE
8
0
6
CONTINUOUS
10
-1.571899
20
4.797676
30
0.0
11
-1.446169
21
4.858535
31
0.0
0
LINE
8
0
6
CONTINUOUS
10
-1.726742
20
4.829643
30
0.0
11
-1.571899
21
4.797676
31
0.0
0
LINE
8
0
6
CONTINUOUS
10
-1.755855
20
4.922470
30
0.0
11
-1.726742
21
4.829643
31
0.0
0
LINE
8
0
6
CONTINUOUS
10
-1.630126
20
4.983329
30
0.0
11
-1.755855
21
4.922470
31
0.0
0
LINE
8
0
6
CONTINUOUS
10
-1.475283
20
4.951370
30
0.0
11
-1.630126
21
4.983329
31
0.0
0
LINE
8
0
6
CONTINUOUS
10
-1.446169
20
4.858535
30
0.0
11
-1.475283
21
4.951370
31
0.0
0
LINE
8
0
6
CONTINUOUS
10
-3.750264
20
5.368141
30
0.0
11
-3.595420
21
5.336181
31
0.0
0
LINE
8
0
6
CONTINUOUS
10
-3.779376
20
5.460975
30
0.0
11
-3.750264
21
5.368141
31
0.0
0
LINE
8
0
6
CONTINUOUS
10
-3.653647
20
5.521835
30
0.0
11
-3.779376
21
5.460975
31
0.0
0
LINE
8
0
6
CONTINUOUS
10
-3.498804
20
5.489868
30
0.0
11
-3.653647
21
5.521835
31
0.0
0
LINE
8
0
6
CONTINUOUS
10
-3.469691
20
5.397041
30
0.0
11
-3.498804
21
5.489868
31
0.0
0
LINE
8
0
6
CONTINUOUS
10
-3.595420
20
5.336181
30
0.0
11
-3.469691
21
5.397041
31
0.0
0
LINE
8
0
6
CONTINUOUS
10
0.034316
20
6.394142
30
0.0
11
0.122693
21
6.473709
31
0.0
0
LINE
8
0
6
CONTINUOUS
10
-0.130114
20
6.398223
30
0.0
11
0.034316
21
6.394142
31
0.0
0
LINE
8
0
6
CONTINUOUS
10
-0.206167
20
6.481857
30
0.0
11
-0.130114
21
6.398223
31
0.0
0
LINE
8
0
6
CONTINUOUS
10
-0.117790
20
6.561424
30
0.0
11
-0.206167
21
6.481857
31
0.0
0
LINE
8
0
6
CONTINUOUS
10
0.046639
20
6.557350
30
0.0
11
-0.117790
21
6.561424
31
0.0
0
LINE
8
0
6
CONTINUOUS
10
0.122693
20
6.473709
30
0.0
11
0.046639
21
6.557350
31
0.0
0
LINE
8
0
6
CONTINUOUS
10
0.643897
20
5.160247
30
0.0
11
0.614783
21
5.067421
31
0.0
0
LINE
8
0
6
CONTINUOUS
10
0.798740
20
5.192215
30
0.0
11
0.643897
21
5.160247
31
0.0
0
LINE
8
0
6
CONTINUOUS
10
0.924469
20
5.131355
30
0.0
11
0.798740
21
5.192215
31
0.0
0
LINE
8
0
6
CONTINUOUS
10
0.895356
20
5.038528
30
0.0
11
0.924469
21
5.131355
31
0.0
0
LINE
8
0
6
CONTINUOUS
10
0.740513
20
5.006561
30
0.0
11
0.895356
21
5.038528
31
0.0
0
LINE
8
0
6
CONTINUOUS
10
0.614783
20
5.067421
30
0.0
11
0.740513
21
5.006561
31
0.0
0
LINE
8
0
6
CONTINUOUS
10
3.415206
20
6.215370
30
0.0
11
3.552914
21
6.267021
31
0.0
0
LINE
8
0
6
CONTINUOUS
10
3.268292
20
6.257888
30
0.0
11
3.415206
21
6.215370
31
0.0
0
LINE
8
0
6
CONTINUOUS
10
3.259083
20
6.352050
30
0.0
11
3.268292
21
6.257888
31
0.0
0
LINE
8
0
6
CONTINUOUS
10
3.396790
20
6.403701
30
0.0
11
3.259083
21
6.352050
31
0.0
0
LINE
8
0
6
CONTINUOUS
10
3.543704
20
6.361190
30
0.0
11
3.396790
21
6.403701
31
0.0
0
LINE
8
0
6
CONTINUOUS
10
3.552914
20
6.267021
30
0.0
11
3.543704
21
6.361190
31
0.0
0
LINE
8
0
6
CONTINUOUS
10
-1.973036
20
5.652610
30
0.0
11
-1.982246
21
5.558441
31
0.0
0
LINE
8
0
6
CONTINUOUS
10
-1.826122
20
5.695121
30
0.0
11
-1.973036
21
5.652610
31
0.0
0
LINE
8
0
6
CONTINUOUS
10
-1.688415
20
5.643463
30
0.0
11
-1.826122
21
5.695121
31
0.0
0
LINE
8
0
6
CONTINUOUS
10
-1.697623
20
5.549301
30
0.0
11
-1.688415
21
5.643463
31
0.0
0
LINE
8
0
6
CONTINUOUS
10
-1.844538
20
5.506790
30
0.0
11
-1.697623
21
5.549301
31
0.0
0
LINE
8
0
6
CONTINUOUS
10
-1.982246
20
5.558441
30
0.0
11
-1.844538
21
5.506790
31
0.0
0
LINE
8
0
6
CONTINUOUS
10
0.009217
20
8.469085
30
0.0
11
-0.151398
21
8.448494
31
0.0
0
LINE
8
0
6
CONTINUOUS
10
0.120639
20
8.399665
30
0.0
11
0.009217
21
8.469085
31
0.0
0
LINE
8
0
6
CONTINUOUS
10
0.071446
20
8.309661
30
0.0
11
0.120639
21
8.399665
31
0.0
0
LINE
8
0
6
CONTINUOUS
10
-0.089169
20
8.289077
30
0.0
11
0.071446
21
8.309661
31
0.0
0
LINE
8
0
6
CONTINUOUS
10
-0.200591
20
8.358490
30
0.0
11
-0.089169
21
8.289077
31
0.0
0
LINE
8
0
6
CONTINUOUS
10
-0.151398
20
8.448494
30
0.0
11
-0.200591
21
8.358490
31
0.0
0
LINE
8
0
6
CONTINUOUS
10
-0.972026
20
5.677253
30
0.0
11
-0.981235
21
5.583084
31
0.0
0
LINE
8
0
6
CONTINUOUS
10
-0.825112
20
5.719764
30
0.0
11
-0.972026
21
5.677253
31
0.0
0
LINE
8
0
6
CONTINUOUS
10
-0.687405
20
5.668106
30
0.0
11
-0.825112
21
5.719764
31
0.0
0
LINE
8
0
6
CONTINUOUS
10
-0.696613
20
5.573944
30
0.0
11
-0.687405
21
5.668106
31
0.0
0
LINE
8
0
6
CONTINUOUS
10
-0.843528
20
5.531433
30
0.0
11
-0.696613
21
5.573944
31
0.0
0
LINE
8
0
6
CONTINUOUS
10
-0.981235
20
5.583084
30
0.0
11
-0.843528
21
5.531433
31
0.0
0
LINE
8
0
6
CONTINUOUS
10
3.829846
20
7.219223
30
0.0
11
3.692140
21
7.167579
31
0.0
0
LINE
8
0
6
CONTINUOUS
10
3.976760
20
7.176712
30
0.0
11
3.829846
21
7.219223
31
0.0
0
LINE
8
0
6
CONTINUOUS
10
3.985970
20
7.082550
30
0.0
11
3.976760
21
7.176712
31
0.0
0
LINE
8
0
6
CONTINUOUS
10
3.848263
20
7.030891
30
0.0
11
3.985970
21
7.082550
31
0.0
0
LINE
8
0
6
CONTINUOUS
10
3.701348
20
7.073410
30
0.0
11
3.848263
21
7.030891
31
0.0
0
LINE
8
0
6
CONTINUOUS
10
3.692140
20
7.167579
30
0.0
11
3.701348
21
7.073410
31
0.0
0
LINE
8
0
6
CONTINUOUS
10
2.826492
20
3.883813
30
0.0
11
2.700763
21
3.822953
31
0.0
0
LINE
8
0
6
CONTINUOUS
10
2.981335
20
3.851853
30
0.0
11
2.826492
21
3.883813
31
0.0
0
LINE
8
0
6
CONTINUOUS
10
3.010448
20
3.759019
30
0.0
11
2.981335
21
3.851853
31
0.0
0
LINE
8
0
6
CONTINUOUS
10
2.884719
20
3.698159
30
0.0
11
3.010448
21
3.759019
31
0.0
0
LINE
8
0
6
CONTINUOUS
10
2.729877
20
3.730126
30
0.0
11
2.884719
21
3.698159
31
0.0
0
LINE
8
0
6
CONTINUOUS
10
2.700763
20
3.822953
30
0.0
11
2.729877
21
3.730126
31
0.0
0
LINE
8
0
6
CONTINUOUS
10
-0.801164
20
4.380203
30
0.0
11
-0.646321
21
4.348243
31
0.0
0
LINE
8
0
6
CONTINUOUS
10
-0.830277
20
4.473030
30
0.0
11
-0.801164
21
4.380203
31
0.0
0
LINE
8
0
6
CONTINUOUS
10
-0.704548
20
4.533889
30
0.0
11
-0.830277
21
4.473030
31
0.0
0
LINE
8
0
6
CONTINUOUS
10
-0.549705
20
4.501922
30
0.0
11
-0.704548
21
4.533889
31
0.0
0
LINE
8
0
6
CONTINUOUS
10
-0.520591
20
4.409103
30
0.0
11
-0.549705
21
4.501922
31
0.0
0
LINE
8
0
6
CONTINUOUS
10
-0.646321
20
4.348243
30
0.0
11
-0.520591
21
4.409103
31
0.0
0
LINE
8
0
6
CONTINUOUS
10
1.600711
20
3.389059
30
0.0
11
1.633249
21
3.381207
31
0.0
0
LINE
8
0
6
CONTINUOUS
10
0.572541
20
3.678360
30
0.0
11
0.543428
21
3.601036
31
0.0
0
LINE
8
0
6
CONTINUOUS
10
0.466231
20
4.566606
30
0.0
11
0.515263
21
4.577268
31
0.0
0
LINE
8
0
6
CONTINUOUS
10
0.515263
20
4.577268
30
0.0
11
0.621074
21
4.599902
31
0.0
0
LINE
8
0
6
CONTINUOUS
10
0.621074
20
4.599902
30
0.0
11
0.746803
21
4.551138
31
0.0
0
LINE
8
0
6
CONTINUOUS
10
1.184615
20
4.264140
30
0.0
11
1.339458
21
4.304546
31
0.0
0
LINE
8
0
6
CONTINUOUS
10
0.643897
20
5.235028
30
0.0
11
0.789101
21
5.270292
31
0.0
0
LINE
8
0
6
CONTINUOUS
10
0.789101
20
5.270292
30
0.0
11
0.798740
21
5.272577
31
0.0
0
LINE
8
0
6
CONTINUOUS
10
0.798740
20
5.272577
30
0.0
11
0.924469
21
5.215977
31
0.0
0
LINE
8
0
6
CONTINUOUS
10
1.391809
20
5.007318
30
0.0
11
1.546652
21
5.056067
31
0.0
0
LINE
8
0
6
CONTINUOUS
10
1.391809
20
5.007318
30
0.0
11
1.362695
21
4.912388
31
0.0
0
LINE
8
0
6
CONTINUOUS
10
1.742648
20
5.764010
30
0.0
11
1.889561
21
5.737189
31
0.0
0
LINE
8
0
6
CONTINUOUS
10
2.534602
20
5.632123
30
0.0
11
2.689445
21
5.678823
31
0.0
0
LINE
8
0
6
CONTINUOUS
10
-0.000001
20
6.649023
30
0.0
11
0.046639
21
6.649383
31
0.0
0
LINE
8
0
6
CONTINUOUS
10
0.000000
20
6.068710
30
0.0
11
0.015183
21
6.071866
31
0.0
0
LINE
8
0
6
CONTINUOUS
10
0.969951
20
6.348510
30
0.0
11
1.085586
21
6.427968
31
0.0
0
LINE
8
0
6
CONTINUOUS
10
1.085586
20
6.427968
30
0.0
11
1.244830
21
6.405400
31
0.0
0
LINE
8
0
6
CONTINUOUS
10
2.146510
20
6.434852
30
0.0
11
2.284216
21
6.502459
31
0.0
0
LINE
8
0
6
CONTINUOUS
10
2.284216
20
6.502459
30
0.0
11
2.431130
21
6.468078
31
0.0
0
LINE
8
0
6
CONTINUOUS
10
2.708287
20
6.619132
30
0.0
11
2.759892
21
6.591193
31
0.0
0
LINE
8
0
6
CONTINUOUS
10
3.396790
20
6.487622
30
0.0
11
3.543704
21
6.462877
31
0.0
0
LINE
8
0
6
CONTINUOUS
10
-0.000004
20
7.911693
30
0.0
11
0.042964
21
7.907842
31
0.0
0
LINE
8
0
6
CONTINUOUS
10
-0.000003
20
7.510295
30
0.0
11
0.407057
21
7.515633
31
0.0
0
LINE
8
0
6
CONTINUOUS
10
0.407057
20
7.515633
30
0.0
11
0.740780
21
7.479908
31
0.0
0
LINE
8
0
6
CONTINUOUS
10
1.247786
20
7.619145
30
0.0
11
1.336163
21
7.720595
31
0.0
0
LINE
8
0
6
CONTINUOUS
10
1.336163
20
7.720595
30
0.0
11
1.353695
21
7.720496
31
0.0
0
LINE
8
0
6
CONTINUOUS
10
1.234769
20
7.040198
30
0.0
11
1.242541
21
7.049119
31
0.0
0
LINE
8
0
6
CONTINUOUS
10
1.242541
20
7.049119
30
0.0
11
1.403769
21
7.048201
31
0.0
0
LINE
8
0
6
CONTINUOUS
10
0.740780
20
7.479908
30
0.0
11
0.828889
21
7.469162
31
0.0
0
LINE
8
0
6
CONTINUOUS
10
0.828889
20
7.469162
30
0.0
11
1.223619
21
7.371800
31
0.0
0
LINE
8
0
6
CONTINUOUS
10
1.223619
20
7.371800
30
0.0
11
1.384270
21
7.310002
31
0.0
0
LINE
8
0
6
CONTINUOUS
10
1.353695
20
7.720496
30
0.0
11
1.500592
21
7.731920
31
0.0
0
LINE
8
0
6
CONTINUOUS
10
1.384270
20
7.310002
30
0.0
11
1.598558
21
7.268108
31
0.0
0
LINE
8
0
6
CONTINUOUS
10
1.598558
20
7.268108
30
0.0
11
1.949308
21
7.145929
31
0.0
0
LINE
8
0
6
CONTINUOUS
10
2.487514
20
7.139689
30
0.0
11
2.603149
21
7.228669
31
0.0
0
LINE
8
0
6
CONTINUOUS
10
2.603149
20
7.228669
30
0.0
11
2.643420
21
7.224152
31
0.0
0
LINE
8
0
6
CONTINUOUS
10
2.961897
20
7.965865
30
0.0
11
2.952718
21
7.990922
31
0.0
0
LINE
8
0
6
CONTINUOUS
10
2.677839
20
7.886596
30
0.0
11
2.793474
21
7.998279
31
0.0
0
LINE
8
0
6
CONTINUOUS
10
2.961897
20
7.965865
30
0.0
11
2.996328
21
7.876838
31
0.0
0
LINE
8
0
6
CONTINUOUS
10
2.643420
20
7.224152
30
0.0
11
2.762392
21
7.224671
31
0.0
0
LINE
8
0
6
CONTINUOUS
10
3.692140
20
7.218918
30
0.0
11
3.698370
21
7.222172
31
0.0
0
LINE
8
0
6
CONTINUOUS
10
3.698370
20
7.222172
30
0.0
11
3.829846
21
7.311023
31
0.0
0
LINE
8
0
6
CONTINUOUS
10
3.829846
20
7.311023
30
0.0
11
3.942009
21
7.300093
31
0.0
0
LINE
8
0
6
CONTINUOUS
10
3.942009
20
7.300093
30
0.0
11
3.976760
21
7.295782
31
0.0
0
LINE
8
0
6
CONTINUOUS
10
-0.966023
20
4.919898
30
0.0
11
-0.851141
21
4.862363
31
0.0
0
LINE
8
0
6
CONTINUOUS
10
-1.082555
20
4.994781
30
0.0
11
-0.966023
21
4.919898
31
0.0
0
LINE
8
0
6
CONTINUOUS
10
-0.117790
20
6.656632
30
0.0
11
-0.000001
21
6.649023
31
0.0
0
LINE
8
0
6
CONTINUOUS
10
-1.175804
20
5.844702
30
0.0
11
-1.186833
21
5.826364
31
0.0
0
LINE
8
0
6
CONTINUOUS
10
-0.031700
20
7.514455
30
0.0
11
-0.000003
21
7.510295
31
0.0
0
LINE
8
0
6
CONTINUOUS
10
-2.588544
20
6.789493
30
0.0
11
-2.614132
21
6.759419
31
0.0
0
LINE
8
0
6
CONTINUOUS
10
2.714190
20
5.669601
30
0.0
11
2.815174
21
5.639324
31
0.0
0
LINE
8
0
6
CONTINUOUS
10
3.415329
20
5.534643
30
0.0
11
3.570173
21
5.588143
31
0.0
0
LINE
8
0
6
CONTINUOUS
10
1.352635
20
3.386878
30
0.0
11
1.323563
21
3.304407
31
0.0
0
LINE
8
0
6
CONTINUOUS
10
1.512663
20
3.421449
30
0.0
11
1.600711
21
3.389059
31
0.0
0
LINE
8
0
6
CONTINUOUS
10
1.352677
20
3.386987
30
0.0
11
1.507520
21
3.423100
31
0.0
0
LINE
8
0
6
CONTINUOUS
10
1.507520
20
3.423100
30
0.0
11
1.512663
21
3.421449
31
0.0
0
LINE
8
0
6
CONTINUOUS
10
-1.607011
20
3.465937
30
0.0
11
-1.591145
21
3.470411
31
0.0
0
LINE
8
0
6
CONTINUOUS
10
-0.934805
20
3.669983
30
0.0
11
-0.810858
21
3.712462
31
0.0
0
LINE
8
0
6
CONTINUOUS
10
-0.835957
20
4.854572
30
0.0
11
-0.698098
21
4.800834
31
0.0
0
LINE
8
0
6
CONTINUOUS
10
-0.851141
20
4.862363
30
0.0
11
-0.835957
21
4.854572
31
0.0
0
LINE
8
0
6
CONTINUOUS
10
-2.344747
20
4.886606
30
0.0
11
-2.219017
21
4.820468
31
0.0
0
LINE
8
0
6
CONTINUOUS
10
-3.132225
20
4.784003
30
0.0
11
-3.006496
21
4.712493
31
0.0
0
LINE
8
0
6
CONTINUOUS
10
-3.927726
20
4.705920
30
0.0
11
-3.844350
21
4.656211
31
0.0
0
LINE
8
0
6
CONTINUOUS
10
-3.844350
20
4.656211
30
0.0
11
-3.801997
21
4.629788
31
0.0
0
LINE
8
0
6
CONTINUOUS
10
-4.442485
20
5.571010
30
0.0
11
-4.316757
21
5.489519
31
0.0
0
LINE
8
0
6
CONTINUOUS
10
-4.597329
20
5.574806
30
0.0
11
-4.626442
21
5.497109
31
0.0
0
LINE
8
0
6
CONTINUOUS
10
-4.483665
20
6.475132
30
0.0
11
-4.328823
21
6.412214
31
0.0
0
ENDSEC
0
EOF
