999
unknown String-ID: 20550
0
SECTION
2
HEADER
9
$ACADVER
1
AC1009
9
$DWGCODEPAGE
3
unknown String-ID: 20561
0
ENDSEC
0
SECTION
2
TABLES
0
TABLE
2
LAYER
70
1
0
LAYER
2
0
70
0
62
7
6
CONTINUOUS
0
ENDTAB
0
ENDSEC
0
SECTION
2
ENTITIES
0
LINE
8
0
6
CONTINUOUS
10
5.250757
20
5.737816
30
0.0
11
5.287278
21
5.854767
31
0.0
0
LINE
8
0
6
CONTINUOUS
10
1.353694
20
-5.697338
30
0.0
11
1.514846
21
-2.674358
31
0.0
0
LINE
8
0
6
CONTINUOUS
10
1.514846
20
-2.674358
30
0.0
11
1.640279
21
-0.334469
31
0.0
0
LINE
8
0
6
CONTINUOUS
10
1.640279
20
-0.334469
30
0.0
11
1.741465
21
1.560139
31
0.0
0
LINE
8
0
6
CONTINUOUS
10
1.725683
20
2.145096
30
0.0
11
1.996046
21
2.696022
31
0.0
0
LINE
8
0
6
CONTINUOUS
10
5.289650
20
5.873780
30
0.0
11
5.353927
21
6.389023
31
0.0
0
LINE
8
0
6
CONTINUOUS
10
5.387280
20
6.982537
30
0.0
11
5.378971
21
7.807503
31
0.0
0
LINE
8
0
6
CONTINUOUS
10
5.384477
20
6.932640
30
0.0
11
5.387280
21
6.982537
31
0.0
0
LINE
8
0
6
CONTINUOUS
10
1.306239
20
10.457489
30
0.0
11
-0.000008
21
10.541603
31
0.0
0
LINE
8
0
6
CONTINUOUS
10
2.543144
20
10.189850
30
0.0
11
1.306239
21
10.457489
31
0.0
0
LINE
8
0
6
CONTINUOUS
10
3.666377
20
9.728401
30
0.0
11
2.543144
21
10.189850
31
0.0
0
LINE
8
0
6
CONTINUOUS
10
4.909724
20
8.705719
30
0.0
11
4.500733
21
9.129547
31
0.0
0
LINE
8
0
6
CONTINUOUS
10
5.001446
20
8.596970
30
0.0
11
4.909724
21
8.705719
31
0.0
0
LINE
8
0
6
CONTINUOUS
10
4.393442
20
9.238770
30
0.0
11
3.666377
21
9.728401
31
0.0
0
LINE
8
0
6
CONTINUOUS
10
4.500733
20
9.129547
30
0.0
11
4.393442
21
9.238770
31
0.0
0
LINE
8
0
6
CONTINUOUS
10
1.667971
20
2.039696
30
0.0
11
1.996046
21
2.696022
31
0.0
0
LINE
8
0
6
CONTINUOUS
10
1.996046
20
2.696022
30
0.0
11
2.403621
21
3.104912
31
0.0
0
LINE
8
0
6
CONTINUOUS
10
3.837449
20
4.004379
30
0.0
11
4.258724
21
4.296250
31
0.0
0
LINE
8
0
6
CONTINUOUS
10
4.199075
20
4.295761
30
0.0
11
3.787308
21
4.003227
31
0.0
0
LINE
8
0
6
CONTINUOUS
10
3.372641
20
3.736565
30
0.0
11
3.837449
21
4.004379
31
0.0
0
LINE
8
0
6
CONTINUOUS
10
3.787308
20
4.003227
30
0.0
11
3.328464
21
3.732956
31
0.0
0
LINE
8
0
6
CONTINUOUS
10
1.320665
20
8.953881
30
0.0
11
2.593610
21
8.669541
31
0.0
0
LINE
8
0
6
CONTINUOUS
10
2.595690
20
8.721070
30
0.0
11
1.320736
21
9.009155
31
0.0
0
LINE
8
0
6
CONTINUOUS
10
3.328464
20
3.732956
30
0.0
11
2.821138
21
3.437203
31
0.0
0
LINE
8
0
6
CONTINUOUS
10
2.856405
20
3.445824
30
0.0
11
3.372641
21
3.736565
31
0.0
0
LINE
8
0
6
CONTINUOUS
10
4.258724
20
4.296250
30
0.0
11
4.923189
21
4.977577
31
0.0
0
LINE
8
0
6
CONTINUOUS
10
4.846482
20
4.972641
30
0.0
11
4.199075
21
4.295761
31
0.0
0
LINE
8
0
6
CONTINUOUS
10
2.403621
20
3.104912
30
0.0
11
2.856405
21
3.445824
31
0.0
0
LINE
8
0
6
CONTINUOUS
10
1.728475
20
1.341042
30
0.0
11
1.809734
21
2.307702
31
0.0
0
LINE
8
0
6
CONTINUOUS
10
5.353927
20
6.389023
30
0.0
11
5.384477
21
6.932640
31
0.0
0
LINE
8
0
6
CONTINUOUS
10
5.378971
20
7.807503
30
0.0
11
5.001446
21
8.596970
31
0.0
0
LINE
8
0
6
CONTINUOUS
10
1.280590
20
-7.106048
30
0.0
11
1.353694
21
-5.697338
31
0.0
0
LINE
8
0
6
CONTINUOUS
10
1.783514
20
2.250710
30
0.0
11
1.809734
21
2.307702
31
0.0
0
LINE
8
0
6
CONTINUOUS
10
5.287278
20
5.854767
30
0.0
11
5.289650
21
5.873780
31
0.0
0
LINE
8
0
6
CONTINUOUS
10
0.000030
20
-7.967331
30
0.0
11
0.306369
21
-7.947449
31
0.0
0
LINE
8
0
6
CONTINUOUS
10
0.306369
20
-7.947449
30
0.0
11
0.588193
21
-7.889190
31
0.0
0
LINE
8
0
6
CONTINUOUS
10
0.588193
20
-7.889190
30
0.0
11
0.828920
21
-7.796528
31
0.0
0
LINE
8
0
6
CONTINUOUS
10
1.168410
20
-7.510284
30
0.0
11
1.213261
21
-7.425697
31
0.0
0
LINE
8
0
6
CONTINUOUS
10
0.604637
20
-7.876102
30
0.0
11
0.852410
21
-7.781017
31
0.0
0
LINE
8
0
6
CONTINUOUS
10
1.105377
20
-7.583690
30
0.0
11
1.168410
21
-7.510284
31
0.0
0
LINE
8
0
6
CONTINUOUS
10
0.000030
20
-7.956192
30
0.0
11
0.314780
21
-7.935840
31
0.0
0
LINE
8
0
6
CONTINUOUS
10
1.213261
20
-7.425697
30
0.0
11
1.259814
21
-7.337906
31
0.0
0
LINE
8
0
6
CONTINUOUS
10
0.852410
20
-7.781017
30
0.0
11
1.042472
21
-7.656944
31
0.0
0
LINE
8
0
6
CONTINUOUS
10
1.042472
20
-7.656944
30
0.0
11
1.105377
21
-7.583690
31
0.0
0
LINE
8
0
6
CONTINUOUS
10
1.259814
20
-7.337906
30
0.0
11
1.279930
21
-7.118782
31
0.0
0
LINE
8
0
6
CONTINUOUS
10
1.279930
20
-7.118782
30
0.0
11
1.280590
21
-7.106048
31
0.0
0
LINE
8
0
6
CONTINUOUS
10
0.314780
20
-7.935840
30
0.0
11
0.604637
21
-7.876102
31
0.0
0
LINE
8
0
6
CONTINUOUS
10
-5.287275
20
5.854752
30
0.0
11
-5.250755
21
5.737793
31
0.0
0
LINE
8
0
6
CONTINUOUS
10
-1.514806
20
-2.674362
30
0.0
11
-1.353643
21
-5.697342
31
0.0
0
LINE
8
0
6
CONTINUOUS
10
-1.640248
20
-0.334472
30
0.0
11
-1.514806
21
-2.674362
31
0.0
0
LINE
8
0
6
CONTINUOUS
10
-1.741441
20
1.560135
30
0.0
11
-1.640248
21
-0.334472
31
0.0
0
LINE
8
0
6
CONTINUOUS
10
-1.527351
20
0.910614
30
0.0
11
-1.400122
21
-0.959808
31
0.0
0
LINE
8
0
6
CONTINUOUS
10
-1.996028
20
2.696015
30
0.0
11
-1.725662
21
2.145088
31
0.0
0
LINE
8
0
6
CONTINUOUS
10
-5.353927
20
6.389000
30
0.0
11
-5.289648
21
5.873764
31
0.0
0
LINE
8
0
6
CONTINUOUS
10
-5.387280
20
6.982521
30
0.0
11
-5.384476
21
6.932625
31
0.0
0
LINE
8
0
6
CONTINUOUS
10
-5.378975
20
7.807488
30
0.0
11
-5.387280
21
6.982521
31
0.0
0
LINE
8
0
6
CONTINUOUS
10
-0.000008
20
10.541603
30
0.0
11
-1.306253
21
10.457489
31
0.0
0
LINE
8
0
6
CONTINUOUS
10
-1.306253
20
10.457489
30
0.0
11
-2.543157
21
10.189842
31
0.0
0
LINE
8
0
6
CONTINUOUS
10
-2.543157
20
10.189842
30
0.0
11
-3.666390
21
9.728394
31
0.0
0
LINE
8
0
6
CONTINUOUS
10
-4.500743
20
9.129532
30
0.0
11
-4.909732
21
8.705704
31
0.0
0
LINE
8
0
6
CONTINUOUS
10
-4.909732
20
8.705704
30
0.0
11
-5.001454
21
8.596955
31
0.0
0
LINE
8
0
6
CONTINUOUS
10
-4.393453
20
9.238754
30
0.0
11
-4.500743
21
9.129532
31
0.0
0
LINE
8
0
6
CONTINUOUS
10
-3.666390
20
9.728394
30
0.0
11
-4.393453
21
9.238754
31
0.0
0
LINE
8
0
6
CONTINUOUS
10
-1.996028
20
2.696015
30
0.0
11
-1.667950
21
2.039696
31
0.0
0
LINE
8
0
6
CONTINUOUS
10
-2.403606
20
3.104904
30
0.0
11
-1.996028
21
2.696015
31
0.0
0
LINE
8
0
6
CONTINUOUS
10
-1.527351
20
0.910614
30
0.0
11
-1.667950
21
2.039696
31
0.0
0
LINE
8
0
6
CONTINUOUS
10
-3.328450
20
3.732941
30
0.0
11
-3.787295
21
4.003212
31
0.0
0
LINE
8
0
6
CONTINUOUS
10
-3.837436
20
4.004364
30
0.0
11
-3.372628
21
3.736550
31
0.0
0
LINE
8
0
6
CONTINUOUS
10
-3.372628
20
3.736550
30
0.0
11
-2.856390
21
3.445816
31
0.0
0
LINE
8
0
6
CONTINUOUS
10
-2.821124
20
3.437195
30
0.0
11
-3.328450
21
3.732941
31
0.0
0
LINE
8
0
6
CONTINUOUS
10
-5.169093
20
5.734352
30
0.0
11
-5.142664
21
6.510559
31
0.0
0
LINE
8
0
6
CONTINUOUS
10
-5.223147
20
6.510079
30
0.0
11
-5.250755
21
5.737793
31
0.0
0
LINE
8
0
6
CONTINUOUS
10
-4.846475
20
4.972626
30
0.0
11
-5.169093
21
5.734352
31
0.0
0
LINE
8
0
6
CONTINUOUS
10
-5.250755
20
5.737793
30
0.0
11
-4.923182
21
4.977555
31
0.0
0
LINE
8
0
6
CONTINUOUS
10
-2.856390
20
3.445816
30
0.0
11
-2.403606
21
3.104904
31
0.0
0
LINE
8
0
6
CONTINUOUS
10
-1.809714
20
2.307693
30
0.0
11
-1.728450
21
1.341034
31
0.0
0
LINE
8
0
6
CONTINUOUS
10
-5.384476
20
6.932625
30
0.0
11
-5.353927
21
6.389000
31
0.0
0
LINE
8
0
6
CONTINUOUS
10
-5.001454
20
8.596955
30
0.0
11
-5.378975
21
7.807488
31
0.0
0
LINE
8
0
6
CONTINUOUS
10
-1.353643
20
-5.697342
30
0.0
11
-1.280533
21
-7.106052
31
0.0
0
LINE
8
0
6
CONTINUOUS
10
-1.809714
20
2.307693
30
0.0
11
-1.783493
21
2.250702
31
0.0
0
LINE
8
0
6
CONTINUOUS
10
-5.289648
20
5.873764
30
0.0
11
-5.287275
21
5.854752
31
0.0
0
LINE
8
0
6
CONTINUOUS
10
-0.306310
20
-7.947449
30
0.0
11
0.000030
21
-7.967331
31
0.0
0
LINE
8
0
6
CONTINUOUS
10
-0.588133
20
-7.889194
30
0.0
11
-0.306310
21
-7.947449
31
0.0
0
LINE
8
0
6
CONTINUOUS
10
-1.213202
20
-7.425701
30
0.0
11
-1.168353
21
-7.510288
31
0.0
0
LINE
8
0
6
CONTINUOUS
10
-0.852352
20
-7.781017
30
0.0
11
-0.604578
21
-7.876106
31
0.0
0
LINE
8
0
6
CONTINUOUS
10
-1.168353
20
-7.510288
30
0.0
11
-1.105318
21
-7.583694
31
0.0
0
LINE
8
0
6
CONTINUOUS
10
-0.314720
20
-7.935844
30
0.0
11
0.000030
21
-7.956192
31
0.0
0
LINE
8
0
6
CONTINUOUS
10
-1.259757
20
-7.337909
30
0.0
11
-1.213202
21
-7.425701
31
0.0
0
LINE
8
0
6
CONTINUOUS
10
-1.042413
20
-7.656944
30
0.0
11
-0.852352
21
-7.781017
31
0.0
0
LINE
8
0
6
CONTINUOUS
10
-1.105318
20
-7.583694
30
0.0
11
-1.042413
21
-7.656944
31
0.0
0
LINE
8
0
6
CONTINUOUS
10
-1.280533
20
-7.106052
30
0.0
11
-1.279871
21
-7.118786
31
0.0
0
LINE
8
0
6
CONTINUOUS
10
-1.279871
20
-7.118786
30
0.0
11
-1.259757
21
-7.337909
31
0.0
0
LINE
8
0
6
CONTINUOUS
10
-0.604578
20
-7.876106
30
0.0
11
-0.314720
21
-7.935844
31
0.0
0
LINE
8
0
6
CONTINUOUS
10
1.027085
20
-9.988758
30
0.0
11
1.179031
21
-7.565670
31
0.0
0
LINE
8
0
6
CONTINUOUS
10
-1.165143
20
-7.565677
30
0.0
11
-1.013188
21
-9.988762
31
0.0
0
LINE
8
0
6
CONTINUOUS
10
0.888109
20
-10.286392
30
0.0
11
0.989756
21
-10.163288
31
0.0
0
LINE
8
0
6
CONTINUOUS
10
0.006949
20
-10.541603
30
0.0
11
0.270291
21
-10.524212
31
0.0
0
LINE
8
0
6
CONTINUOUS
10
-0.874211
20
-10.286396
30
0.0
11
-0.712515
21
-10.392105
31
0.0
0
LINE
8
0
6
CONTINUOUS
10
1.024426
20
-10.031181
30
0.0
11
1.027085
21
-9.988758
31
0.0
0
LINE
8
0
6
CONTINUOUS
10
0.989756
20
-10.163288
30
0.0
11
1.024426
21
-10.031181
31
0.0
0
LINE
8
0
6
CONTINUOUS
10
0.270291
20
-10.524212
30
0.0
11
0.515687
21
-10.473221
31
0.0
0
LINE
8
0
6
CONTINUOUS
10
-0.712515
20
-10.392105
30
0.0
11
-0.501789
21
-10.473221
31
0.0
0
LINE
8
0
6
CONTINUOUS
10
-1.013188
20
-9.988762
30
0.0
11
-1.010527
21
-10.031185
31
0.0
0
LINE
8
0
6
CONTINUOUS
10
-1.010527
20
-10.031185
30
0.0
11
-0.975857
21
-10.163292
31
0.0
0
LINE
8
0
6
CONTINUOUS
10
0.515687
20
-10.473221
30
0.0
11
0.726414
21
-10.392105
31
0.0
0
LINE
8
0
6
CONTINUOUS
10
-0.501789
20
-10.473221
30
0.0
11
-0.256393
21
-10.524212
31
0.0
0
LINE
8
0
6
CONTINUOUS
10
-0.256393
20
-10.524212
30
0.0
11
0.006949
21
-10.541603
31
0.0
0
LINE
8
0
6
CONTINUOUS
10
-0.975857
20
-10.163292
30
0.0
11
-0.874211
21
-10.286396
31
0.0
0
LINE
8
0
6
CONTINUOUS
10
0.726414
20
-10.392105
30
0.0
11
0.888109
21
-10.286392
31
0.0
0
LINE
8
0
6
CONTINUOUS
10
-0.821847
20
-7.799949
30
0.0
11
-0.579099
21
-7.893387
31
0.0
0
LINE
8
0
6
CONTINUOUS
10
-0.579099
20
-7.893387
30
0.0
11
-0.296415
21
-7.952129
31
0.0
0
LINE
8
0
6
CONTINUOUS
10
-0.296415
20
-7.952129
30
0.0
11
0.006944
21
-7.972164
31
0.0
0
LINE
8
0
6
CONTINUOUS
10
0.006944
20
-7.972164
30
0.0
11
0.310302
21
-7.952125
31
0.0
0
LINE
8
0
6
CONTINUOUS
10
0.310302
20
-7.952125
30
0.0
11
0.592988
21
-7.893387
31
0.0
0
LINE
8
0
6
CONTINUOUS
10
0.592988
20
-7.893387
30
0.0
11
0.835733
21
-7.799946
31
0.0
0
LINE
8
0
6
CONTINUOUS
10
0.835733
20
-7.799946
30
0.0
11
1.022001
21
-7.678169
31
0.0
0
LINE
8
0
6
CONTINUOUS
10
1.171020
20
1.086304
30
0.0
11
0.857705
21
0.874260
31
0.0
0
LINE
8
0
6
CONTINUOUS
10
0.857705
20
0.874260
30
0.0
11
0.428937
21
0.776116
31
0.0
0
LINE
8
0
6
CONTINUOUS
10
0.428937
20
0.776116
30
0.0
11
0.004799
21
0.748017
31
0.0
0
LINE
8
0
6
CONTINUOUS
10
1.396550
20
1.912064
30
0.0
11
1.171020
21
1.086304
31
0.0
0
LINE
8
0
6
CONTINUOUS
10
1.768111
20
2.651879
30
0.0
11
1.396550
21
1.912064
31
0.0
0
LINE
8
0
6
CONTINUOUS
10
-0.842610
20
0.867039
30
0.0
11
-1.153278
21
1.011109
31
0.0
0
LINE
8
0
6
CONTINUOUS
10
-0.420601
20
0.769131
30
0.0
11
-0.842610
21
0.867039
31
0.0
0
LINE
8
0
6
CONTINUOUS
10
0.004799
20
0.748017
30
0.0
11
-0.420601
21
0.769131
31
0.0
0
LINE
8
0
6
CONTINUOUS
10
-1.153278
20
1.011109
30
0.0
11
-1.363507
21
1.939862
31
0.0
0
LINE
8
0
6
CONTINUOUS
10
-1.363507
20
1.939862
30
0.0
11
-1.712673
21
2.661804
31
0.0
0
LINE
8
0
6
CONTINUOUS
10
2.366625
20
3.118691
30
0.0
11
2.388082
21
3.128823
31
0.0
0
LINE
8
0
6
CONTINUOUS
10
3.712116
20
8.176766
30
0.0
11
4.326708
21
7.761612
31
0.0
0
LINE
8
0
6
CONTINUOUS
10
4.368655
20
7.780365
30
0.0
11
3.717507
21
8.219315
31
0.0
0
LINE
8
0
6
CONTINUOUS
10
2.593610
20
8.669541
30
0.0
11
3.712116
21
8.176766
31
0.0
0
LINE
8
0
6
CONTINUOUS
10
3.717507
20
8.219315
30
0.0
11
2.595690
21
8.721070
31
0.0
0
LINE
8
0
6
CONTINUOUS
10
-0.000005
20
9.047135
30
0.0
11
1.320661
21
8.953881
31
0.0
0
LINE
8
0
6
CONTINUOUS
10
1.320736
20
9.009155
30
0.0
11
-0.000006
21
9.104576
31
0.0
0
LINE
8
0
6
CONTINUOUS
10
5.250757
20
5.737816
30
0.0
11
5.223147
21
6.510094
31
0.0
0
LINE
8
0
6
CONTINUOUS
10
5.142663
20
6.510575
30
0.0
11
5.169097
21
5.734368
31
0.0
0
LINE
8
0
6
CONTINUOUS
10
4.858748
20
7.276535
30
0.0
11
4.368655
21
7.780365
31
0.0
0
LINE
8
0
6
CONTINUOUS
10
4.326708
20
7.761612
30
0.0
11
4.789276
21
7.286202
31
0.0
0
LINE
8
0
6
CONTINUOUS
10
2.821138
20
3.437203
30
0.0
11
2.311122
21
3.117951
31
0.0
0
LINE
8
0
6
CONTINUOUS
10
2.311122
20
3.117951
30
0.0
11
2.366625
21
3.118691
31
0.0
0
LINE
8
0
6
CONTINUOUS
10
4.789276
20
7.286202
30
0.0
11
5.142663
21
6.510575
31
0.0
0
LINE
8
0
6
CONTINUOUS
10
5.223147
20
6.510094
30
0.0
11
4.858748
21
7.276535
31
0.0
0
LINE
8
0
6
CONTINUOUS
10
4.923189
20
4.977577
30
0.0
11
5.250757
21
5.737816
31
0.0
0
LINE
8
0
6
CONTINUOUS
10
5.169097
20
5.734368
30
0.0
11
4.846482
21
4.972641
31
0.0
0
LINE
8
0
6
CONTINUOUS
10
-2.388066
20
3.128815
30
0.0
11
-2.366610
21
3.118683
31
0.0
0
LINE
8
0
6
CONTINUOUS
10
-3.787295
20
4.003212
30
0.0
11
-4.199065
21
4.295754
31
0.0
0
LINE
8
0
6
CONTINUOUS
10
-4.258715
20
4.296234
30
0.0
11
-3.837436
21
4.004364
31
0.0
0
LINE
8
0
6
CONTINUOUS
10
-3.717514
20
8.219300
30
0.0
11
-4.368661
21
7.780350
31
0.0
0
LINE
8
0
6
CONTINUOUS
10
-4.326713
20
7.761597
30
0.0
11
-3.712124
21
8.176750
31
0.0
0
LINE
8
0
6
CONTINUOUS
10
-1.320747
20
9.009148
30
0.0
11
-2.595699
21
8.721062
31
0.0
0
LINE
8
0
6
CONTINUOUS
10
-2.593619
20
8.669533
30
0.0
11
-1.320676
21
8.953873
31
0.0
0
LINE
8
0
6
CONTINUOUS
10
-2.595699
20
8.721062
30
0.0
11
-3.717514
21
8.219300
31
0.0
0
LINE
8
0
6
CONTINUOUS
10
-3.712124
20
8.176750
30
0.0
11
-2.593619
21
8.669533
31
0.0
0
LINE
8
0
6
CONTINUOUS
10
-0.000006
20
9.104576
30
0.0
11
-1.320747
21
9.009148
31
0.0
0
LINE
8
0
6
CONTINUOUS
10
-1.320676
20
8.953873
30
0.0
11
-0.000005
21
9.047135
31
0.0
0
LINE
8
0
6
CONTINUOUS
10
-4.199065
20
4.295754
30
0.0
11
-4.846475
21
4.972626
31
0.0
0
LINE
8
0
6
CONTINUOUS
10
-4.923182
20
4.977555
30
0.0
11
-4.258715
21
4.296234
31
0.0
0
LINE
8
0
6
CONTINUOUS
10
-4.789280
20
7.286186
30
0.0
11
-4.326713
21
7.761597
31
0.0
0
LINE
8
0
6
CONTINUOUS
10
-4.368661
20
7.780350
30
0.0
11
-4.858752
21
7.276520
31
0.0
0
LINE
8
0
6
CONTINUOUS
10
-4.858752
20
7.276520
30
0.0
11
-5.223147
21
6.510079
31
0.0
0
LINE
8
0
6
CONTINUOUS
10
-5.142664
20
6.510559
30
0.0
11
-4.789280
21
7.286186
31
0.0
0
LINE
8
0
6
CONTINUOUS
10
2.311122
20
3.117951
30
0.0
11
2.043279
21
2.966957
31
0.0
0
LINE
8
0
6
CONTINUOUS
10
2.043279
20
2.966957
30
0.0
11
1.768111
21
2.651879
31
0.0
0
LINE
8
0
6
CONTINUOUS
10
-2.010798
20
2.946243
30
0.0
11
-2.303159
21
3.118584
31
0.0
0
LINE
8
0
6
CONTINUOUS
10
-1.712673
20
2.661804
30
0.0
11
-2.010798
21
2.946243
31
0.0
0
LINE
8
0
6
CONTINUOUS
10
-2.821124
20
3.437195
30
0.0
11
-2.366610
21
3.118683
31
0.0
0
LINE
8
0
6
CONTINUOUS
10
-2.303159
20
3.118584
30
0.0
11
-2.821124
21
3.437195
31
0.0
0
LINE
8
0
6
CONTINUOUS
10
-2.366610
20
3.118683
30
0.0
11
-2.303159
21
3.118584
31
0.0
0
LINE
8
0
6
CONTINUOUS
10
2.311121
20
3.117951
30
0.0
11
2.821137
21
3.437203
31
0.0
0
LINE
8
0
6
CONTINUOUS
10
-4.846477
20
4.972626
30
0.0
11
-4.199066
21
4.295754
31
0.0
0
LINE
8
0
6
CONTINUOUS
10
5.169094
20
5.734368
30
0.0
11
5.142661
21
6.510575
31
0.0
0
LINE
8
0
6
CONTINUOUS
10
-0.000009
20
9.047135
30
0.0
11
-1.320680
21
8.953873
31
0.0
0
LINE
8
0
6
CONTINUOUS
10
1.320661
20
8.953881
30
0.0
11
-0.000009
21
9.047135
31
0.0
0
LINE
8
0
6
CONTINUOUS
10
1.980780
20
2.945732
30
0.0
11
1.410852
21
3.048714
31
0.0
0
LINE
8
0
6
CONTINUOUS
10
1.706347
20
2.632271
30
0.0
11
1.980780
21
2.945732
31
0.0
0
LINE
8
0
6
CONTINUOUS
10
0.006157
20
3.091210
30
0.0
11
0.744133
21
3.088989
31
0.0
0
LINE
8
0
6
CONTINUOUS
10
1.410852
20
3.048714
30
0.0
11
0.737251
21
3.058548
31
0.0
0
LINE
8
0
6
CONTINUOUS
10
-4.199066
20
4.295754
30
0.0
11
-3.787296
21
4.003212
31
0.0
0
LINE
8
0
6
CONTINUOUS
10
-5.169095
20
5.734352
30
0.0
11
-4.846477
21
4.972626
31
0.0
0
LINE
8
0
6
CONTINUOUS
10
-4.326716
20
7.761597
30
0.0
11
-4.789283
21
7.286186
31
0.0
0
LINE
8
0
6
CONTINUOUS
10
-3.712126
20
8.176750
30
0.0
11
-4.326716
21
7.761597
31
0.0
0
LINE
8
0
6
CONTINUOUS
10
-2.821124
20
3.437195
30
0.0
11
-2.303160
21
3.118584
31
0.0
0
LINE
8
0
6
CONTINUOUS
10
-0.846827
20
0.908135
30
0.0
11
-0.422621
21
0.808205
31
0.0
0
LINE
8
0
6
CONTINUOUS
10
0.863009
20
0.920975
30
0.0
11
1.133539
21
1.103890
31
0.0
0
LINE
8
0
6
CONTINUOUS
10
1.133539
20
1.103890
30
0.0
11
1.349045
21
1.897934
31
0.0
0
LINE
8
0
6
CONTINUOUS
10
-4.789283
20
7.286186
30
0.0
11
-5.142666
21
6.510559
31
0.0
0
LINE
8
0
6
CONTINUOUS
10
-2.010799
20
2.946243
30
0.0
11
-1.394974
21
3.134514
31
0.0
0
LINE
8
0
6
CONTINUOUS
10
-2.303160
20
3.118584
30
0.0
11
-2.010799
21
2.946243
31
0.0
0
LINE
8
0
6
CONTINUOUS
10
0.744133
20
3.088989
30
0.0
11
1.423790
21
3.079064
31
0.0
0
LINE
8
0
6
CONTINUOUS
10
-1.116746
20
1.033402
30
0.0
11
-0.846827
21
0.908135
31
0.0
0
LINE
8
0
6
CONTINUOUS
10
-1.316513
20
1.925202
30
0.0
11
-1.116746
21
1.033402
31
0.0
0
LINE
8
0
6
CONTINUOUS
10
2.593606
20
8.669541
30
0.0
11
1.320661
21
8.953881
31
0.0
0
LINE
8
0
6
CONTINUOUS
10
-2.593623
20
8.669533
30
0.0
11
-3.712126
21
8.176750
31
0.0
0
LINE
8
0
6
CONTINUOUS
10
0.431296
20
0.815285
30
0.0
11
0.863009
21
0.920975
31
0.0
0
LINE
8
0
6
CONTINUOUS
10
-1.394974
20
3.134514
30
0.0
11
-0.730331
21
3.114022
31
0.0
0
LINE
8
0
6
CONTINUOUS
10
4.326704
20
7.761612
30
0.0
11
3.712112
21
8.176766
31
0.0
0
LINE
8
0
6
CONTINUOUS
10
4.789272
20
7.286202
30
0.0
11
4.326704
21
7.761612
31
0.0
0
LINE
8
0
6
CONTINUOUS
10
0.006153
20
3.060456
30
0.0
11
-0.723282
21
3.083595
31
0.0
0
LINE
8
0
6
CONTINUOUS
10
-1.320680
20
8.953873
30
0.0
11
-2.593623
21
8.669533
31
0.0
0
LINE
8
0
6
CONTINUOUS
10
0.004803
20
0.786286
30
0.0
11
0.431296
21
0.815285
31
0.0
0
LINE
8
0
6
CONTINUOUS
10
3.787307
20
4.003227
30
0.0
11
4.199074
21
4.295761
31
0.0
0
LINE
8
0
6
CONTINUOUS
10
4.199074
20
4.295761
30
0.0
11
4.846479
21
4.972641
31
0.0
0
LINE
8
0
6
CONTINUOUS
10
-0.730331
20
3.114022
30
0.0
11
0.006157
21
3.091210
31
0.0
0
LINE
8
0
6
CONTINUOUS
10
3.328463
20
3.732956
30
0.0
11
3.787307
21
4.003227
31
0.0
0
LINE
8
0
6
CONTINUOUS
10
-3.328451
20
3.732941
30
0.0
11
-2.821124
21
3.437195
31
0.0
0
LINE
8
0
6
CONTINUOUS
10
1.349045
20
1.897934
30
0.0
11
1.706347
21
2.632271
31
0.0
0
LINE
8
0
6
CONTINUOUS
10
-3.787296
20
4.003212
30
0.0
11
-3.328451
21
3.732941
31
0.0
0
LINE
8
0
6
CONTINUOUS
10
5.142661
20
6.510575
30
0.0
11
4.789272
21
7.286202
31
0.0
0
LINE
8
0
6
CONTINUOUS
10
2.821137
20
3.437203
30
0.0
11
3.328463
21
3.732956
31
0.0
0
LINE
8
0
6
CONTINUOUS
10
-5.142666
20
6.510559
30
0.0
11
-5.169095
21
5.734352
31
0.0
0
LINE
8
0
6
CONTINUOUS
10
3.712112
20
8.176766
30
0.0
11
2.593606
21
8.669541
31
0.0
0
LINE
8
0
6
CONTINUOUS
10
4.846479
20
4.972641
30
0.0
11
5.169094
21
5.734368
31
0.0
0
LINE
8
0
6
CONTINUOUS
10
-0.723282
20
3.083595
30
0.0
11
-1.381776
21
3.102837
31
0.0
0
LINE
8
0
6
CONTINUOUS
10
-0.422621
20
0.808205
30
0.0
11
0.004803
21
0.786286
31
0.0
0
LINE
8
0
6
CONTINUOUS
10
0.737251
20
3.058548
30
0.0
11
0.006153
21
3.060456
31
0.0
0
LINE
8
0
6
CONTINUOUS
10
-1.656032
20
2.646530
30
0.0
11
-1.316513
21
1.925202
31
0.0
0
LINE
8
0
6
CONTINUOUS
10
-1.949322
20
2.928757
30
0.0
11
-1.656032
21
2.646530
31
0.0
0
LINE
8
0
6
CONTINUOUS
10
-1.381776
20
3.102837
30
0.0
11
-1.946132
21
2.929736
31
0.0
0
LINE
8
0
6
CONTINUOUS
10
1.423790
20
3.079064
30
0.0
11
2.043278
21
2.966957
31
0.0
0
LINE
8
0
6
CONTINUOUS
10
2.043278
20
2.966957
30
0.0
11
2.311121
21
3.117951
31
0.0
0
LINE
8
0
6
CONTINUOUS
10
-2.010799
20
2.946243
30
0.0
11
-1.712674
21
2.661804
31
0.0
0
LINE
8
0
6
CONTINUOUS
10
1.171020
20
1.086304
30
0.0
11
1.396550
21
1.912064
31
0.0
0
LINE
8
0
6
CONTINUOUS
10
0.004799
20
0.748017
30
0.0
11
0.428937
21
0.776116
31
0.0
0
LINE
8
0
6
CONTINUOUS
10
0.428937
20
0.776116
30
0.0
11
0.857705
21
0.874260
31
0.0
0
LINE
8
0
6
CONTINUOUS
10
-1.363507
20
1.939858
30
0.0
11
-1.153278
21
1.011109
31
0.0
0
LINE
8
0
6
CONTINUOUS
10
-0.842610
20
0.867035
30
0.0
11
-0.420601
21
0.769135
31
0.0
0
LINE
8
0
6
CONTINUOUS
10
1.396550
20
1.912064
30
0.0
11
1.768111
21
2.651879
31
0.0
0
LINE
8
0
6
CONTINUOUS
10
1.171020
20
1.086304
30
0.0
11
1.152466
21
1.119087
31
0.0
0
LINE
8
0
6
CONTINUOUS
10
0.857705
20
0.874260
30
0.0
11
1.171020
21
1.086304
31
0.0
0
LINE
8
0
6
CONTINUOUS
10
-0.420601
20
0.769135
30
0.0
11
0.004799
21
0.748017
31
0.0
0
LINE
8
0
6
CONTINUOUS
10
-1.712674
20
2.661804
30
0.0
11
-1.363507
21
1.939858
31
0.0
0
LINE
8
0
6
CONTINUOUS
10
1.768111
20
2.651879
30
0.0
11
2.043278
21
2.966957
31
0.0
0
LINE
8
0
6
CONTINUOUS
10
-1.153278
20
1.011109
30
0.0
11
-0.842610
21
0.867035
31
0.0
0
LINE
8
0
6
CONTINUOUS
10
-1.134112
20
1.046295
30
0.0
11
-1.153278
21
1.011109
31
0.0
0
LINE
8
0
6
CONTINUOUS
10
-1.978909
20
2.961144
30
0.0
11
-1.949322
21
2.928757
31
0.0
0
LINE
8
0
6
CONTINUOUS
10
-1.949322
20
2.928757
30
0.0
11
-1.381776
21
3.102837
31
0.0
0
LINE
8
0
6
CONTINUOUS
10
-1.381776
20
3.102837
30
0.0
11
-0.723282
21
3.083595
31
0.0
0
LINE
8
0
6
CONTINUOUS
10
0.006153
20
3.060456
30
0.0
11
0.737251
21
3.058548
31
0.0
0
LINE
8
0
6
CONTINUOUS
10
0.737251
20
3.058548
30
0.0
11
1.410852
21
3.048714
31
0.0
0
LINE
8
0
6
CONTINUOUS
10
-0.723282
20
3.083595
30
0.0
11
0.006153
21
3.060456
31
0.0
0
LINE
8
0
6
CONTINUOUS
10
1.410852
20
3.048714
30
0.0
11
1.980780
21
2.945732
31
0.0
0
LINE
8
0
6
CONTINUOUS
10
1.152466
20
1.119087
30
0.0
11
1.372857
21
1.928665
31
0.0
0
LINE
8
0
6
CONTINUOUS
10
1.133539
20
1.103890
30
0.0
11
1.152466
21
1.119087
31
0.0
0
LINE
8
0
6
CONTINUOUS
10
1.349045
20
1.897934
30
0.0
11
1.134334
21
1.106822
31
0.0
0
LINE
8
0
6
CONTINUOUS
10
-1.134112
20
1.046295
30
0.0
11
-1.116746
21
1.033402
31
0.0
0
LINE
8
0
6
CONTINUOUS
10
-1.338980
20
1.956200
30
0.0
11
-1.134112
21
1.046295
31
0.0
0
LINE
8
0
6
CONTINUOUS
10
-1.116746
20
1.033402
30
0.0
11
-1.316513
21
1.925202
31
0.0
0
LINE
8
0
6
CONTINUOUS
10
1.372857
20
1.928665
30
0.0
11
1.737171
21
2.665695
31
0.0
0
LINE
8
0
6
CONTINUOUS
10
1.706347
20
2.632271
30
0.0
11
1.349045
21
1.897934
31
0.0
0
LINE
8
0
6
CONTINUOUS
10
-1.678739
20
2.668381
30
0.0
11
-1.338980
21
1.956200
31
0.0
0
LINE
8
0
6
CONTINUOUS
10
-1.316513
20
1.925202
30
0.0
11
-1.656032
21
2.646530
31
0.0
0
LINE
8
0
6
CONTINUOUS
10
2.011964
20
2.979950
30
0.0
11
1.980780
21
2.945732
31
0.0
0
LINE
8
0
6
CONTINUOUS
10
1.737171
20
2.665695
30
0.0
11
2.006433
21
2.973625
31
0.0
0
LINE
8
0
6
CONTINUOUS
10
1.980780
20
2.945732
30
0.0
11
1.706347
21
2.632271
31
0.0
0
LINE
8
0
6
CONTINUOUS
10
-4.620724
20
5.161964
30
0.0
11
-4.583151
21
5.282333
31
0.0
0
LINE
8
0
6
CONTINUOUS
10
-4.620724
20
5.330010
30
0.0
11
-4.620724
21
5.161964
31
0.0
0
LINE
8
0
6
CONTINUOUS
10
-4.221053
20
5.244857
30
0.0
11
-4.221053
21
5.317918
31
0.0
0
LINE
8
0
6
CONTINUOUS
10
-4.383316
20
5.323783
30
0.0
11
-4.221053
21
5.244857
31
0.0
0
LINE
8
0
6
CONTINUOUS
10
-4.384225
20
6.776626
30
0.0
11
-4.194623
21
6.831749
31
0.0
0
LINE
8
0
6
CONTINUOUS
10
-4.194623
20
6.831749
30
0.0
11
-4.016903
21
6.764762
31
0.0
0
LINE
8
0
6
CONTINUOUS
10
-4.194623
20
6.956838
30
0.0
11
-4.194623
21
6.831749
31
0.0
0
LINE
8
0
6
CONTINUOUS
10
-4.396111
20
6.654510
30
0.0
11
-4.384225
21
6.776626
31
0.0
0
LINE
8
0
6
CONTINUOUS
10
-4.396111
20
6.799725
30
0.0
11
-4.396111
21
6.654510
31
0.0
0
LINE
8
0
6
CONTINUOUS
10
-3.695213
20
7.439140
30
0.0
11
-3.489698
21
7.470047
31
0.0
0
LINE
8
0
6
CONTINUOUS
10
-3.751495
20
7.321212
30
0.0
11
-3.695213
21
7.439140
31
0.0
0
LINE
8
0
6
CONTINUOUS
10
-3.751495
20
7.453608
30
0.0
11
-3.751495
21
7.321212
31
0.0
0
LINE
8
0
6
CONTINUOUS
10
0.023511
20
8.447853
30
0.0
11
0.167308
21
8.357849
31
0.0
0
LINE
8
0
6
CONTINUOUS
10
-0.247260
20
8.304451
30
0.0
11
-0.183774
21
8.421157
31
0.0
0
LINE
8
0
6
CONTINUOUS
10
-0.247260
20
8.394313
30
0.0
11
-0.247260
21
8.304451
31
0.0
0
LINE
8
0
6
CONTINUOUS
10
-2.683758
20
7.971870
30
0.0
11
-2.471550
21
7.977157
31
0.0
0
LINE
8
0
6
CONTINUOUS
10
-2.471550
20
7.977157
30
0.0
11
-2.357494
21
7.873977
31
0.0
0
LINE
8
0
6
CONTINUOUS
10
-2.471550
20
8.104002
30
0.0
11
-2.471550
21
7.977157
31
0.0
0
LINE
8
0
6
CONTINUOUS
10
-1.383446
20
8.288566
30
0.0
11
-1.174064
21
8.267997
31
0.0
0
LINE
8
0
6
CONTINUOUS
10
-1.174064
20
8.267997
30
0.0
11
-1.100303
21
8.153305
31
0.0
0
LINE
8
0
6
CONTINUOUS
10
-1.174064
20
8.395404
30
0.0
11
-1.174064
21
8.267997
31
0.0
0
LINE
8
0
6
CONTINUOUS
10
-1.519068
20
8.194435
30
0.0
11
-1.383446
21
8.288566
31
0.0
0
LINE
8
0
6
CONTINUOUS
10
-1.519068
20
8.316021
30
0.0
11
-1.519068
21
8.194435
31
0.0
0
LINE
8
0
6
CONTINUOUS
10
-4.705096
20
6.009544
30
0.0
11
-4.542834
21
6.088462
31
0.0
0
LINE
8
0
6
CONTINUOUS
10
-4.705096
20
6.166797
30
0.0
11
-4.705096
21
6.009544
31
0.0
0
LINE
8
0
6
CONTINUOUS
10
-4.342999
20
6.047012
30
0.0
11
-4.305426
21
5.926643
31
0.0
0
LINE
8
0
6
CONTINUOUS
10
-1.306158
20
5.365776
30
0.0
11
-1.116555
21
5.420906
31
0.0
0
LINE
8
0
6
CONTINUOUS
10
-1.116555
20
5.420906
30
0.0
11
-0.938835
21
5.353920
31
0.0
0
LINE
8
0
6
CONTINUOUS
10
-1.116555
20
5.535737
30
0.0
11
-1.116555
21
5.420906
31
0.0
0
LINE
8
0
6
CONTINUOUS
10
-1.318043
20
5.243667
30
0.0
11
-1.306158
21
5.365776
31
0.0
0
LINE
8
0
6
CONTINUOUS
10
-1.318043
20
5.366518
30
0.0
11
-1.318043
21
5.243667
31
0.0
0
LINE
8
0
6
CONTINUOUS
10
-1.921771
20
5.594658
30
0.0
11
-1.732169
21
5.649788
31
0.0
0
LINE
8
0
6
CONTINUOUS
10
-1.933657
20
5.472549
30
0.0
11
-1.921771
21
5.594658
31
0.0
0
LINE
8
0
6
CONTINUOUS
10
-1.933657
20
5.610275
30
0.0
11
-1.933657
21
5.472549
31
0.0
0
LINE
8
0
6
CONTINUOUS
10
-2.537384
20
5.858894
30
0.0
11
-2.347782
21
5.914024
31
0.0
0
LINE
8
0
6
CONTINUOUS
10
-2.549270
20
5.736786
30
0.0
11
-2.537384
21
5.858894
31
0.0
0
LINE
8
0
6
CONTINUOUS
10
-2.549270
20
5.863341
30
0.0
11
-2.549270
21
5.736786
31
0.0
0
LINE
8
0
6
CONTINUOUS
10
-3.152998
20
6.145057
30
0.0
11
-2.963396
21
6.200180
31
0.0
0
LINE
8
0
6
CONTINUOUS
10
-2.963396
20
6.200180
30
0.0
11
-2.785676
21
6.133201
31
0.0
0
LINE
8
0
6
CONTINUOUS
10
-2.963396
20
6.321489
30
0.0
11
-2.963396
21
6.200180
31
0.0
0
LINE
8
0
6
CONTINUOUS
10
-3.152998
20
6.145057
30
0.0
11
-3.152998
21
6.360168
31
0.0
0
LINE
8
0
6
CONTINUOUS
10
-3.164884
20
6.022941
30
0.0
11
-3.152998
21
6.145057
31
0.0
0
LINE
8
0
6
CONTINUOUS
10
-3.164884
20
6.165173
30
0.0
11
-3.164884
21
6.022941
31
0.0
0
LINE
8
0
6
CONTINUOUS
10
-3.768612
20
6.437950
30
0.0
11
-3.579009
21
6.493072
31
0.0
0
LINE
8
0
6
CONTINUOUS
10
-3.579009
20
6.493072
30
0.0
11
-3.401289
21
6.426101
31
0.0
0
LINE
8
0
6
CONTINUOUS
10
-3.579009
20
6.610248
30
0.0
11
-3.579009
21
6.493072
31
0.0
0
LINE
8
0
6
CONTINUOUS
10
-3.780498
20
6.315841
30
0.0
11
-3.768612
21
6.437950
31
0.0
0
LINE
8
0
6
CONTINUOUS
10
-3.780498
20
6.450573
30
0.0
11
-3.780498
21
6.315841
31
0.0
0
LINE
8
0
6
CONTINUOUS
10
-0.715189
20
5.919036
30
0.0
11
-0.509674
21
5.949936
31
0.0
0
LINE
8
0
6
CONTINUOUS
10
-0.771471
20
5.801101
30
0.0
11
-0.715189
21
5.919036
31
0.0
0
LINE
8
0
6
CONTINUOUS
10
-0.771471
20
5.914381
30
0.0
11
-0.771471
21
5.801101
31
0.0
0
LINE
8
0
6
CONTINUOUS
10
-1.105679
20
6.217186
30
0.0
11
-0.956444
21
6.130157
31
0.0
0
LINE
8
0
6
CONTINUOUS
10
-1.907198
20
6.476638
30
0.0
11
-1.701683
21
6.507537
31
0.0
0
LINE
8
0
6
CONTINUOUS
10
-1.701683
20
6.507537
30
0.0
11
-1.552449
21
6.420517
31
0.0
0
LINE
8
0
6
CONTINUOUS
10
-1.701683
20
6.626032
30
0.0
11
-1.701683
21
6.507537
31
0.0
0
LINE
8
0
6
CONTINUOUS
10
-1.963480
20
6.358711
30
0.0
11
-1.907198
21
6.476638
31
0.0
0
LINE
8
0
6
CONTINUOUS
10
-1.963480
20
6.486569
30
0.0
11
-1.963480
21
6.358711
31
0.0
0
LINE
8
0
6
CONTINUOUS
10
-2.503204
20
6.769348
30
0.0
11
-2.297689
21
6.800247
31
0.0
0
LINE
8
0
6
CONTINUOUS
10
-2.297689
20
6.800247
30
0.0
11
-2.148454
21
6.713218
31
0.0
0
LINE
8
0
6
CONTINUOUS
10
-2.297689
20
6.927460
30
0.0
11
-2.297689
21
6.800247
31
0.0
0
LINE
8
0
6
CONTINUOUS
10
-2.503204
20
6.769348
30
0.0
11
-2.503204
21
6.927401
31
0.0
0
LINE
8
0
6
CONTINUOUS
10
-2.559485
20
6.651420
30
0.0
11
-2.503204
21
6.769348
31
0.0
0
LINE
8
0
6
CONTINUOUS
10
-2.559485
20
6.770127
30
0.0
11
-2.559485
21
6.651420
31
0.0
0
LINE
8
0
6
CONTINUOUS
10
-3.099209
20
7.113647
30
0.0
11
-2.893694
21
7.144554
31
0.0
0
LINE
8
0
6
CONTINUOUS
10
-2.893694
20
7.144554
30
0.0
11
-2.744459
21
7.057525
31
0.0
0
LINE
8
0
6
CONTINUOUS
10
-2.893694
20
7.265168
30
0.0
11
-2.893694
21
7.144554
31
0.0
0
LINE
8
0
6
CONTINUOUS
10
-3.155490
20
6.995720
30
0.0
11
-3.099209
21
7.113647
31
0.0
0
LINE
8
0
6
CONTINUOUS
10
-3.155490
20
7.132731
30
0.0
11
-3.155490
21
6.995720
31
0.0
0
LINE
8
0
6
CONTINUOUS
10
-0.145651
20
6.452835
30
0.0
11
0.066557
21
6.458122
31
0.0
0
LINE
8
0
6
CONTINUOUS
10
0.180613
20
6.354950
30
0.0
11
0.180613
21
6.569765
31
0.0
0
LINE
8
0
6
CONTINUOUS
10
0.066557
20
6.458122
30
0.0
11
0.180613
21
6.354950
31
0.0
0
LINE
8
0
6
CONTINUOUS
10
0.066557
20
6.583924
30
0.0
11
0.066557
21
6.458122
31
0.0
0
LINE
8
0
6
CONTINUOUS
10
-0.145651
20
6.452835
30
0.0
11
-0.145651
21
6.573578
31
0.0
0
LINE
8
0
6
CONTINUOUS
10
-0.243804
20
6.344375
30
0.0
11
-0.191053
21
6.402666
31
0.0
0
LINE
8
0
6
CONTINUOUS
10
-0.191053
20
6.402666
30
0.0
11
-0.145651
21
6.452835
31
0.0
0
LINE
8
0
6
CONTINUOUS
10
-1.414704
20
7.160789
30
0.0
11
-1.202497
21
7.166076
31
0.0
0
LINE
8
0
6
CONTINUOUS
10
-1.202497
20
7.166076
30
0.0
11
-1.088441
21
7.062904
31
0.0
0
LINE
8
0
6
CONTINUOUS
10
-1.202497
20
7.291955
30
0.0
11
-1.202497
21
7.166076
31
0.0
0
LINE
8
0
6
CONTINUOUS
10
-1.414704
20
7.160789
30
0.0
11
-1.414704
21
7.377567
31
0.0
0
LINE
8
0
6
CONTINUOUS
10
-1.512857
20
7.052330
30
0.0
11
-1.414704
21
7.160789
31
0.0
0
LINE
8
0
6
CONTINUOUS
10
-1.512857
20
7.168432
30
0.0
11
-1.512857
21
7.052330
31
0.0
0
LINE
8
0
6
CONTINUOUS
10
-2.049231
20
7.569145
30
0.0
11
-1.837024
21
7.574432
31
0.0
0
LINE
8
0
6
CONTINUOUS
10
-1.837024
20
7.574432
30
0.0
11
-1.722967
21
7.471260
31
0.0
0
LINE
8
0
6
CONTINUOUS
10
-1.837024
20
7.692391
30
0.0
11
-1.837024
21
7.574432
31
0.0
0
LINE
8
0
6
CONTINUOUS
10
-2.147384
20
7.460678
30
0.0
11
-2.049231
21
7.569145
31
0.0
0
LINE
8
0
6
CONTINUOUS
10
-2.147384
20
7.576964
30
0.0
11
-2.147384
21
7.460678
31
0.0
0
LINE
8
0
6
CONTINUOUS
10
-0.105356
20
7.410347
30
0.0
11
0.104026
21
7.389785
31
0.0
0
LINE
8
0
6
CONTINUOUS
10
0.104026
20
7.389785
30
0.0
11
0.177787
21
7.275093
31
0.0
0
LINE
8
0
6
CONTINUOUS
10
0.104026
20
7.518530
30
0.0
11
0.104026
21
7.389785
31
0.0
0
LINE
8
0
6
CONTINUOUS
10
-0.105356
20
7.410347
30
0.0
11
-0.105356
21
7.547595
31
0.0
0
LINE
8
0
6
CONTINUOUS
10
-0.240978
20
7.316223
30
0.0
11
-0.105356
21
7.410347
31
0.0
0
LINE
8
0
6
CONTINUOUS
10
-0.240978
20
7.431027
30
0.0
11
-0.240978
21
7.316223
31
0.0
0
LINE
8
0
6
CONTINUOUS
10
-1.750138
20
4.835815
30
0.0
11
-1.587876
21
4.914741
31
0.0
0
LINE
8
0
6
CONTINUOUS
10
-1.750138
20
4.977112
30
0.0
11
-1.750138
21
4.835815
31
0.0
0
LINE
8
0
6
CONTINUOUS
10
-1.388041
20
4.873291
30
0.0
11
-1.350467
21
4.752922
31
0.0
0
LINE
8
0
6
CONTINUOUS
10
-2.488877
20
5.094101
30
0.0
11
-2.326615
21
5.173019
31
0.0
0
LINE
8
0
6
CONTINUOUS
10
-2.488877
20
5.231353
30
0.0
11
-2.488877
21
5.094101
31
0.0
0
LINE
8
0
6
CONTINUOUS
10
-2.326615
20
5.173019
30
0.0
11
-2.126780
21
5.131569
31
0.0
0
LINE
8
0
6
CONTINUOUS
10
-2.326615
20
5.291865
30
0.0
11
-2.326615
21
5.173019
31
0.0
0
LINE
8
0
6
CONTINUOUS
10
-3.227617
20
5.365600
30
0.0
11
-3.065355
21
5.444511
31
0.0
0
LINE
8
0
6
CONTINUOUS
10
-3.227617
20
5.512896
30
0.0
11
-3.227617
21
5.365600
31
0.0
0
LINE
8
0
6
CONTINUOUS
10
-3.065355
20
5.444511
30
0.0
11
-2.865520
21
5.403068
31
0.0
0
LINE
8
0
6
CONTINUOUS
10
-3.065355
20
5.563267
30
0.0
11
-3.065355
21
5.444511
31
0.0
0
LINE
8
0
6
CONTINUOUS
10
-2.865520
20
5.403068
30
0.0
11
-2.827947
21
5.282692
31
0.0
0
LINE
8
0
6
CONTINUOUS
10
-2.865520
20
5.491889
30
0.0
11
-2.865520
21
5.403068
31
0.0
0
LINE
8
0
6
CONTINUOUS
10
-3.966356
20
5.651085
30
0.0
11
-3.804095
21
5.730011
31
0.0
0
LINE
8
0
6
CONTINUOUS
10
-3.966356
20
5.809169
30
0.0
11
-3.966356
21
5.651085
31
0.0
0
LINE
8
0
6
CONTINUOUS
10
-3.804095
20
5.730011
30
0.0
11
-3.604259
21
5.688560
31
0.0
0
LINE
8
0
6
CONTINUOUS
10
-3.804095
20
5.856467
30
0.0
11
-3.804095
21
5.730011
31
0.0
0
LINE
8
0
6
CONTINUOUS
10
-3.604259
20
5.688560
30
0.0
11
-3.566686
21
5.568191
31
0.0
0
LINE
8
0
6
CONTINUOUS
10
-3.604259
20
5.779542
30
0.0
11
-3.604259
21
5.688560
31
0.0
0
LINE
8
0
6
CONTINUOUS
10
-2.228250
20
3.403039
30
0.0
11
-2.065987
21
3.481965
31
0.0
0
LINE
8
0
6
CONTINUOUS
10
-2.228250
20
3.547229
30
0.0
11
-2.228250
21
3.403039
31
0.0
0
LINE
8
0
6
CONTINUOUS
10
-2.065987
20
3.481965
30
0.0
11
-1.866152
21
3.440514
31
0.0
0
LINE
8
0
6
CONTINUOUS
10
-2.065987
20
3.589598
30
0.0
11
-2.065987
21
3.481965
31
0.0
0
LINE
8
0
6
CONTINUOUS
10
-2.108721
20
3.709557
30
0.0
11
-1.946459
21
3.788483
31
0.0
0
LINE
8
0
6
CONTINUOUS
10
-2.108721
20
3.860380
30
0.0
11
-2.108721
21
3.709557
31
0.0
0
LINE
8
0
6
CONTINUOUS
10
-1.946459
20
3.788483
30
0.0
11
-1.746624
21
3.747033
31
0.0
0
LINE
8
0
6
CONTINUOUS
10
-1.946459
20
3.893347
30
0.0
11
-1.946459
21
3.788483
31
0.0
0
LINE
8
0
6
CONTINUOUS
10
-1.746624
20
3.747033
30
0.0
11
-1.709051
21
3.626664
31
0.0
0
LINE
8
0
6
CONTINUOUS
10
-1.746624
20
3.844102
30
0.0
11
-1.746624
21
3.747033
31
0.0
0
LINE
8
0
6
CONTINUOUS
10
-1.989194
20
4.072373
30
0.0
11
-1.826931
21
4.151299
31
0.0
0
LINE
8
0
6
CONTINUOUS
10
-1.989194
20
4.209621
30
0.0
11
-1.989194
21
4.072373
31
0.0
0
LINE
8
0
6
CONTINUOUS
10
-1.826931
20
4.151299
30
0.0
11
-1.627096
21
4.109849
31
0.0
0
LINE
8
0
6
CONTINUOUS
10
-1.826931
20
4.264459
30
0.0
11
-1.826931
21
4.151299
31
0.0
0
LINE
8
0
6
CONTINUOUS
10
-1.869666
20
4.448997
30
0.0
11
-1.707403
21
4.527923
31
0.0
0
LINE
8
0
6
CONTINUOUS
10
-1.869666
20
4.586033
30
0.0
11
-1.869666
21
4.448997
31
0.0
0
LINE
8
0
6
CONTINUOUS
10
-1.707403
20
4.527923
30
0.0
11
-1.507568
21
4.486473
31
0.0
0
LINE
8
0
6
CONTINUOUS
10
-1.707403
20
4.638584
30
0.0
11
-1.707403
21
4.527923
31
0.0
0
LINE
8
0
6
CONTINUOUS
10
-1.469995
20
4.366104
30
0.0
11
-1.469995
21
4.568897
31
0.0
0
LINE
8
0
6
CONTINUOUS
10
-1.507568
20
4.486473
30
0.0
11
-1.469995
21
4.366104
31
0.0
0
LINE
8
0
6
CONTINUOUS
10
-1.507568
20
4.586314
30
0.0
11
-1.507568
21
4.486473
31
0.0
0
LINE
8
0
6
CONTINUOUS
10
-3.776998
20
4.815475
30
0.0
11
-3.739425
21
4.935844
31
0.0
0
LINE
8
0
6
CONTINUOUS
10
-3.776998
20
4.983229
30
0.0
11
-3.776998
21
4.815475
31
0.0
0
LINE
8
0
6
CONTINUOUS
10
-3.739425
20
4.935844
30
0.0
11
-3.539589
21
4.977295
31
0.0
0
LINE
8
0
6
CONTINUOUS
10
-3.739425
20
5.085079
30
0.0
11
-3.739425
21
4.935844
31
0.0
0
LINE
8
0
6
CONTINUOUS
10
-3.377327
20
4.898376
30
0.0
11
-3.377327
21
4.984631
31
0.0
0
LINE
8
0
6
CONTINUOUS
10
-3.539589
20
4.977295
30
0.0
11
-3.377327
21
4.898376
31
0.0
0
LINE
8
0
6
CONTINUOUS
10
-3.539589
20
5.085505
30
0.0
11
-3.539589
21
4.977295
31
0.0
0
LINE
8
0
6
CONTINUOUS
10
-2.989520
20
4.562042
30
0.0
11
-2.951947
21
4.682411
31
0.0
0
LINE
8
0
6
CONTINUOUS
10
-2.989520
20
4.722758
30
0.0
11
-2.989520
21
4.562042
31
0.0
0
LINE
8
0
6
CONTINUOUS
10
-2.951947
20
4.682411
30
0.0
11
-2.752111
21
4.723861
31
0.0
0
LINE
8
0
6
CONTINUOUS
10
-2.951947
20
4.820533
30
0.0
11
-2.951947
21
4.682411
31
0.0
0
LINE
8
0
6
CONTINUOUS
10
-3.186389
20
4.160935
30
0.0
11
-3.148816
21
4.281304
31
0.0
0
LINE
8
0
6
CONTINUOUS
10
-3.186389
20
4.325143
30
0.0
11
-3.186389
21
4.160935
31
0.0
0
LINE
8
0
6
CONTINUOUS
10
-3.148816
20
4.281304
30
0.0
11
-2.948981
21
4.322754
31
0.0
0
LINE
8
0
6
CONTINUOUS
10
-3.148816
20
4.419129
30
0.0
11
-3.148816
21
4.281304
31
0.0
0
LINE
8
0
6
CONTINUOUS
10
-2.786718
20
4.243836
30
0.0
11
-2.786718
21
4.335672
31
0.0
0
LINE
8
0
6
CONTINUOUS
10
-2.948981
20
4.322754
30
0.0
11
-2.786718
21
4.243836
31
0.0
0
LINE
8
0
6
CONTINUOUS
10
-2.948981
20
4.425911
30
0.0
11
-2.948981
21
4.322754
31
0.0
0
LINE
8
0
6
CONTINUOUS
10
-3.270761
20
3.809418
30
0.0
11
-3.233189
21
3.929795
31
0.0
0
LINE
8
0
6
CONTINUOUS
10
-3.270761
20
3.995973
30
0.0
11
-3.270761
21
3.809418
31
0.0
0
LINE
8
0
6
CONTINUOUS
10
-3.233189
20
3.929795
30
0.0
11
-3.033353
21
3.971238
31
0.0
0
LINE
8
0
6
CONTINUOUS
10
-3.233189
20
4.076538
30
0.0
11
-3.233189
21
3.929795
31
0.0
0
LINE
8
0
6
CONTINUOUS
10
-2.871091
20
3.892319
30
0.0
11
-2.871091
21
3.974049
31
0.0
0
LINE
8
0
6
CONTINUOUS
10
-3.033353
20
3.971238
30
0.0
11
-2.871091
21
3.892319
31
0.0
0
LINE
8
0
6
CONTINUOUS
10
-3.033353
20
4.065145
30
0.0
11
-3.033353
21
3.971238
31
0.0
0
LINE
8
0
6
CONTINUOUS
10
-4.156675
20
4.449142
30
0.0
11
-4.119102
21
4.569519
31
0.0
0
LINE
8
0
6
CONTINUOUS
10
-4.156675
20
4.626723
30
0.0
11
-4.156675
21
4.449142
31
0.0
0
LINE
8
0
6
CONTINUOUS
10
-4.119102
20
4.569519
30
0.0
11
-3.919266
21
4.610969
31
0.0
0
LINE
8
0
6
CONTINUOUS
10
-4.119102
20
4.715362
30
0.0
11
-4.119102
21
4.569519
31
0.0
0
LINE
8
0
6
CONTINUOUS
10
-0.789243
20
4.741684
30
0.0
11
-0.626981
21
4.820610
31
0.0
0
LINE
8
0
6
CONTINUOUS
10
-0.789243
20
4.866877
30
0.0
11
-0.789243
21
4.741684
31
0.0
0
LINE
8
0
6
CONTINUOUS
10
-0.626981
20
4.820610
30
0.0
11
-0.427145
21
4.779159
31
0.0
0
LINE
8
0
6
CONTINUOUS
10
-0.626981
20
4.939691
30
0.0
11
-0.626981
21
4.820610
31
0.0
0
LINE
8
0
6
CONTINUOUS
10
-0.427145
20
4.779159
30
0.0
11
-0.389572
21
4.658790
31
0.0
0
LINE
8
0
6
CONTINUOUS
10
-0.427145
20
4.891179
30
0.0
11
-0.427145
21
4.779159
31
0.0
0
LINE
8
0
6
CONTINUOUS
10
-0.920728
20
3.392304
30
0.0
11
-0.758466
21
3.471230
31
0.0
0
LINE
8
0
6
CONTINUOUS
10
-0.920728
20
3.525220
30
0.0
11
-0.920728
21
3.392304
31
0.0
0
LINE
8
0
6
CONTINUOUS
10
-0.887857
20
3.701195
30
0.0
11
-0.725594
21
3.780121
31
0.0
0
LINE
8
0
6
CONTINUOUS
10
-0.887857
20
3.828718
30
0.0
11
-0.887857
21
3.701195
31
0.0
0
LINE
8
0
6
CONTINUOUS
10
-0.854985
20
4.044640
30
0.0
11
-0.692723
21
4.123566
31
0.0
0
LINE
8
0
6
CONTINUOUS
10
-0.854985
20
4.172405
30
0.0
11
-0.854985
21
4.044640
31
0.0
0
LINE
8
0
6
CONTINUOUS
10
-0.692723
20
4.123566
30
0.0
11
-0.492888
21
4.082116
31
0.0
0
LINE
8
0
6
CONTINUOUS
10
-0.692723
20
4.235565
30
0.0
11
-0.692723
21
4.123566
31
0.0
0
LINE
8
0
6
CONTINUOUS
10
-0.492888
20
4.082116
30
0.0
11
-0.455315
21
3.961739
31
0.0
0
LINE
8
0
6
CONTINUOUS
10
-0.492888
20
4.191968
30
0.0
11
-0.492888
21
4.082116
31
0.0
0
LINE
8
0
6
CONTINUOUS
10
-0.822114
20
4.394050
30
0.0
11
-0.659852
21
4.472969
31
0.0
0
LINE
8
0
6
CONTINUOUS
10
-0.822114
20
4.519959
30
0.0
11
-0.822114
21
4.394050
31
0.0
0
LINE
8
0
6
CONTINUOUS
10
-0.659852
20
4.472969
30
0.0
11
-0.460017
21
4.431518
31
0.0
0
LINE
8
0
6
CONTINUOUS
10
-0.659852
20
4.582925
30
0.0
11
-0.659852
21
4.472969
31
0.0
0
LINE
8
0
6
CONTINUOUS
10
-0.460017
20
4.431518
30
0.0
11
-0.422443
21
4.311149
31
0.0
0
LINE
8
0
6
CONTINUOUS
10
-0.460017
20
4.539864
30
0.0
11
-0.460017
21
4.431518
31
0.0
0
LINE
8
0
6
CONTINUOUS
10
0.758924
20
4.392158
30
0.0
11
0.758924
21
4.517814
31
0.0
0
LINE
8
0
6
CONTINUOUS
10
0.596661
20
4.471077
30
0.0
11
0.758924
21
4.392158
31
0.0
0
LINE
8
0
6
CONTINUOUS
10
0.596661
20
4.471077
30
0.0
11
0.596661
21
4.580779
31
0.0
0
LINE
8
0
6
CONTINUOUS
10
0.396826
20
4.429634
30
0.0
11
0.596661
21
4.471077
31
0.0
0
LINE
8
0
6
CONTINUOUS
10
0.396826
20
4.429634
30
0.0
11
0.396826
21
4.537553
31
0.0
0
LINE
8
0
6
CONTINUOUS
10
0.359253
20
4.309257
30
0.0
11
0.396826
21
4.429634
31
0.0
0
LINE
8
0
6
CONTINUOUS
10
0.359253
20
4.431238
30
0.0
11
0.359253
21
4.309257
31
0.0
0
LINE
8
0
6
CONTINUOUS
10
0.791795
20
4.043824
30
0.0
11
0.791795
21
4.171026
31
0.0
0
LINE
8
0
6
CONTINUOUS
10
0.629533
20
4.122750
30
0.0
11
0.791795
21
4.043824
31
0.0
0
LINE
8
0
6
CONTINUOUS
10
0.629533
20
4.122750
30
0.0
11
0.629533
21
4.233252
31
0.0
0
LINE
8
0
6
CONTINUOUS
10
0.429698
20
4.081299
30
0.0
11
0.629533
21
4.122750
31
0.0
0
LINE
8
0
6
CONTINUOUS
10
0.429698
20
4.081299
30
0.0
11
0.429698
21
4.190126
31
0.0
0
LINE
8
0
6
CONTINUOUS
10
0.392124
20
3.960930
30
0.0
11
0.429698
21
4.081299
31
0.0
0
LINE
8
0
6
CONTINUOUS
10
0.392124
20
4.085076
30
0.0
11
0.392124
21
3.960930
31
0.0
0
LINE
8
0
6
CONTINUOUS
10
0.824666
20
3.703011
30
0.0
11
0.824666
21
3.831184
31
0.0
0
LINE
8
0
6
CONTINUOUS
10
0.662404
20
3.781922
30
0.0
11
0.824666
21
3.703011
31
0.0
0
LINE
8
0
6
CONTINUOUS
10
0.662404
20
3.781922
30
0.0
11
0.662404
21
3.889516
31
0.0
0
LINE
8
0
6
CONTINUOUS
10
0.462569
20
3.740479
30
0.0
11
0.662404
21
3.781922
31
0.0
0
LINE
8
0
6
CONTINUOUS
10
0.462569
20
3.740479
30
0.0
11
0.462569
21
3.848190
31
0.0
0
LINE
8
0
6
CONTINUOUS
10
0.424995
20
3.620103
30
0.0
11
0.462569
21
3.740479
31
0.0
0
LINE
8
0
6
CONTINUOUS
10
0.424995
20
3.750091
30
0.0
11
0.424995
21
3.620103
31
0.0
0
LINE
8
0
6
CONTINUOUS
10
0.857537
20
3.380921
30
0.0
11
0.857537
21
3.507609
31
0.0
0
LINE
8
0
6
CONTINUOUS
10
0.695275
20
3.459839
30
0.0
11
0.857537
21
3.380921
31
0.0
0
LINE
8
0
6
CONTINUOUS
10
0.695275
20
3.459839
30
0.0
11
0.695275
21
3.566367
31
0.0
0
LINE
8
0
6
CONTINUOUS
10
0.495440
20
3.418397
30
0.0
11
0.695275
21
3.459839
31
0.0
0
LINE
8
0
6
CONTINUOUS
10
0.495440
20
3.418397
30
0.0
11
0.495440
21
3.529023
31
0.0
0
LINE
8
0
6
CONTINUOUS
10
0.457867
20
3.298020
30
0.0
11
0.495440
21
3.418397
31
0.0
0
LINE
8
0
6
CONTINUOUS
10
0.457867
20
3.433764
30
0.0
11
0.457867
21
3.298020
31
0.0
0
LINE
8
0
6
CONTINUOUS
10
0.726052
20
4.739875
30
0.0
11
0.726052
21
4.864598
31
0.0
0
LINE
8
0
6
CONTINUOUS
10
0.563790
20
4.818801
30
0.0
11
0.726052
21
4.739875
31
0.0
0
LINE
8
0
6
CONTINUOUS
10
0.563790
20
4.818801
30
0.0
11
0.563790
21
4.937413
31
0.0
0
LINE
8
0
6
CONTINUOUS
10
0.363955
20
4.777351
30
0.0
11
0.563790
21
4.818801
31
0.0
0
LINE
8
0
6
CONTINUOUS
10
4.055911
20
4.557022
30
0.0
11
4.093484
21
4.436653
31
0.0
0
LINE
8
0
6
CONTINUOUS
10
3.856075
20
4.598480
30
0.0
11
4.055911
21
4.557022
31
0.0
0
LINE
8
0
6
CONTINUOUS
10
3.693813
20
4.519554
30
0.0
11
3.856075
21
4.598480
31
0.0
0
LINE
8
0
6
CONTINUOUS
10
3.693813
20
4.595582
30
0.0
11
3.693813
21
4.519554
31
0.0
0
LINE
8
0
6
CONTINUOUS
10
3.169998
20
3.912613
30
0.0
11
3.207571
21
3.792237
31
0.0
0
LINE
8
0
6
CONTINUOUS
10
2.885790
20
4.317924
30
0.0
11
3.085626
21
4.276467
31
0.0
0
LINE
8
0
6
CONTINUOUS
10
2.885790
20
4.317924
30
0.0
11
2.885790
21
4.482431
31
0.0
0
LINE
8
0
6
CONTINUOUS
10
2.723528
20
4.238999
30
0.0
11
2.885790
21
4.317924
31
0.0
0
LINE
8
0
6
CONTINUOUS
10
2.723528
20
4.329595
30
0.0
11
2.723528
21
4.238999
31
0.0
0
LINE
8
0
6
CONTINUOUS
10
2.926329
20
4.554771
30
0.0
11
2.926329
21
4.851132
31
0.0
0
LINE
8
0
6
CONTINUOUS
10
2.888757
20
4.675148
30
0.0
11
2.926329
21
4.554771
31
0.0
0
LINE
8
0
6
CONTINUOUS
10
2.888757
20
4.675148
30
0.0
11
2.888757
21
4.858927
31
0.0
0
LINE
8
0
6
CONTINUOUS
10
2.688921
20
4.716591
30
0.0
11
2.888757
21
4.675148
31
0.0
0
LINE
8
0
6
CONTINUOUS
10
3.676234
20
4.925354
30
0.0
11
3.713807
21
4.804977
31
0.0
0
LINE
8
0
6
CONTINUOUS
10
3.476399
20
4.966796
30
0.0
11
3.676234
21
4.925354
31
0.0
0
LINE
8
0
6
CONTINUOUS
10
3.314137
20
4.887878
30
0.0
11
3.476399
21
4.966796
31
0.0
0
LINE
8
0
6
CONTINUOUS
10
3.314137
20
4.974151
30
0.0
11
3.314137
21
4.887878
31
0.0
0
LINE
8
0
6
CONTINUOUS
10
1.406805
20
4.361038
30
0.0
11
1.444378
21
4.481407
31
0.0
0
LINE
8
0
6
CONTINUOUS
10
1.406805
20
4.475060
30
0.0
11
1.406805
21
4.361038
31
0.0
0
LINE
8
0
6
CONTINUOUS
10
1.926003
20
4.073403
30
0.0
11
1.926003
21
4.209663
31
0.0
0
LINE
8
0
6
CONTINUOUS
10
1.763741
20
4.152321
30
0.0
11
1.926003
21
4.073403
31
0.0
0
LINE
8
0
6
CONTINUOUS
10
1.763741
20
4.152321
30
0.0
11
1.763741
21
4.259805
31
0.0
0
LINE
8
0
6
CONTINUOUS
10
1.563906
20
4.110871
30
0.0
11
1.763741
21
4.152321
31
0.0
0
LINE
8
0
6
CONTINUOUS
10
1.563906
20
4.110871
30
0.0
11
1.563906
21
4.210282
31
0.0
0
LINE
8
0
6
CONTINUOUS
10
1.526332
20
3.990502
30
0.0
11
1.563906
21
4.110871
31
0.0
0
LINE
8
0
6
CONTINUOUS
10
1.526332
20
4.110407
30
0.0
11
1.526332
21
3.990502
31
0.0
0
LINE
8
0
6
CONTINUOUS
10
2.165059
20
3.359406
30
0.0
11
2.165059
21
3.505700
31
0.0
0
LINE
8
0
6
CONTINUOUS
10
2.002797
20
3.438332
30
0.0
11
2.165059
21
3.359406
31
0.0
0
LINE
8
0
6
CONTINUOUS
10
2.002797
20
3.438332
30
0.0
11
2.002797
21
3.548771
31
0.0
0
LINE
8
0
6
CONTINUOUS
10
1.802962
20
3.396874
30
0.0
11
2.002797
21
3.438332
31
0.0
0
LINE
8
0
6
CONTINUOUS
10
1.802962
20
3.396874
30
0.0
11
1.802962
21
3.491865
31
0.0
0
LINE
8
0
6
CONTINUOUS
10
1.765389
20
3.276505
30
0.0
11
1.802962
21
3.396874
31
0.0
0
LINE
8
0
6
CONTINUOUS
10
1.765389
20
3.393751
30
0.0
11
1.765389
21
3.276505
31
0.0
0
LINE
8
0
6
CONTINUOUS
10
3.903166
20
5.639778
30
0.0
11
3.903166
21
5.793868
31
0.0
0
LINE
8
0
6
CONTINUOUS
10
3.740904
20
5.718696
30
0.0
11
3.903166
21
5.639778
31
0.0
0
LINE
8
0
6
CONTINUOUS
10
3.740904
20
5.718696
30
0.0
11
3.740904
21
5.848009
31
0.0
0
LINE
8
0
6
CONTINUOUS
10
3.541069
20
5.677253
30
0.0
11
3.740904
21
5.718696
31
0.0
0
LINE
8
0
6
CONTINUOUS
10
3.541069
20
5.677253
30
0.0
11
3.541069
21
5.767991
31
0.0
0
LINE
8
0
6
CONTINUOUS
10
3.503495
20
5.556877
30
0.0
11
3.541069
21
5.677253
31
0.0
0
LINE
8
0
6
CONTINUOUS
10
3.503495
20
5.644576
30
0.0
11
3.503495
21
5.556877
31
0.0
0
LINE
8
0
6
CONTINUOUS
10
2.802330
20
5.393516
30
0.0
11
3.002165
21
5.434967
31
0.0
0
LINE
8
0
6
CONTINUOUS
10
2.802330
20
5.393516
30
0.0
11
2.802330
21
5.481407
31
0.0
0
LINE
8
0
6
CONTINUOUS
10
2.764756
20
5.273140
30
0.0
11
2.802330
21
5.393516
31
0.0
0
LINE
8
0
6
CONTINUOUS
10
2.764756
20
5.359819
30
0.0
11
2.764756
21
5.273140
31
0.0
0
LINE
8
0
6
CONTINUOUS
10
2.063590
20
5.124839
30
0.0
11
2.263425
21
5.166290
31
0.0
0
LINE
8
0
6
CONTINUOUS
10
2.063590
20
5.124839
30
0.0
11
2.063590
21
5.224324
31
0.0
0
LINE
8
0
6
CONTINUOUS
10
2.026016
20
5.004470
30
0.0
11
2.063590
21
5.124839
31
0.0
0
LINE
8
0
6
CONTINUOUS
10
2.026016
20
5.101819
30
0.0
11
2.026016
21
5.004470
31
0.0
0
LINE
8
0
6
CONTINUOUS
10
1.686947
20
4.830780
30
0.0
11
1.686947
21
4.970122
31
0.0
0
LINE
8
0
6
CONTINUOUS
10
1.524685
20
4.909698
30
0.0
11
1.686947
21
4.830780
31
0.0
0
LINE
8
0
6
CONTINUOUS
10
1.524685
20
4.909698
30
0.0
11
1.524685
21
5.029763
31
0.0
0
LINE
8
0
6
CONTINUOUS
10
1.324850
20
4.868255
30
0.0
11
1.524685
21
4.909698
31
0.0
0
LINE
8
0
6
CONTINUOUS
10
1.324850
20
4.868255
30
0.0
11
1.324850
21
4.970135
31
0.0
0
LINE
8
0
6
CONTINUOUS
10
1.287277
20
4.747879
30
0.0
11
1.324850
21
4.868255
31
0.0
0
LINE
8
0
6
CONTINUOUS
10
1.287277
20
4.852089
30
0.0
11
1.287277
21
4.747879
31
0.0
0
LINE
8
0
6
CONTINUOUS
10
2.084194
20
7.455169
30
0.0
11
2.084194
21
7.572646
31
0.0
0
LINE
8
0
6
CONTINUOUS
10
1.986041
20
7.563629
30
0.0
11
2.084194
21
7.455169
31
0.0
0
LINE
8
0
6
CONTINUOUS
10
1.025250
20
7.059700
30
0.0
11
1.139307
21
7.162872
31
0.0
0
LINE
8
0
6
CONTINUOUS
10
1.025250
20
7.158928
30
0.0
11
1.025250
21
7.059700
31
0.0
0
LINE
8
0
6
CONTINUOUS
10
0.390724
20
6.694275
30
0.0
11
0.504780
21
6.797447
31
0.0
0
LINE
8
0
6
CONTINUOUS
10
0.390724
20
6.796903
30
0.0
11
0.390724
21
6.694275
31
0.0
0
LINE
8
0
6
CONTINUOUS
10
2.681269
20
7.047653
30
0.0
11
2.830504
21
7.134681
31
0.0
0
LINE
8
0
6
CONTINUOUS
10
2.681269
20
7.119283
30
0.0
11
2.681269
21
7.047653
31
0.0
0
LINE
8
0
6
CONTINUOUS
10
3.092300
20
6.985855
30
0.0
11
3.092300
21
7.120901
31
0.0
0
LINE
8
0
6
CONTINUOUS
10
3.036018
20
7.103782
30
0.0
11
3.092300
21
6.985855
31
0.0
0
LINE
8
0
6
CONTINUOUS
10
2.234498
20
6.793327
30
0.0
11
2.440013
21
6.762420
31
0.0
0
LINE
8
0
6
CONTINUOUS
10
2.234498
20
6.793327
30
0.0
11
2.234498
21
6.920603
31
0.0
0
LINE
8
0
6
CONTINUOUS
10
2.085264
20
6.706291
30
0.0
11
2.234498
21
6.793327
31
0.0
0
LINE
8
0
6
CONTINUOUS
10
2.085264
20
6.797890
30
0.0
11
2.085264
21
6.706291
31
0.0
0
LINE
8
0
6
CONTINUOUS
10
2.496295
20
6.644493
30
0.0
11
2.496295
21
6.764292
31
0.0
0
LINE
8
0
6
CONTINUOUS
10
2.440013
20
6.762420
30
0.0
11
2.496295
21
6.644493
31
0.0
0
LINE
8
0
6
CONTINUOUS
10
2.440013
20
6.904344
30
0.0
11
2.440013
21
6.762420
31
0.0
0
LINE
8
0
6
CONTINUOUS
10
1.638494
20
6.501617
30
0.0
11
1.844008
21
6.470710
31
0.0
0
LINE
8
0
6
CONTINUOUS
10
1.638494
20
6.501617
30
0.0
11
1.638494
21
6.618422
31
0.0
0
LINE
8
0
6
CONTINUOUS
10
1.489259
20
6.414581
30
0.0
11
1.638494
21
6.501617
31
0.0
0
LINE
8
0
6
CONTINUOUS
10
1.489259
20
6.501865
30
0.0
11
1.489259
21
6.414581
31
0.0
0
LINE
8
0
6
CONTINUOUS
10
1.900290
20
6.352783
30
0.0
11
1.900290
21
6.481395
31
0.0
0
LINE
8
0
6
CONTINUOUS
10
1.844008
20
6.470710
30
0.0
11
1.900290
21
6.352783
31
0.0
0
LINE
8
0
6
CONTINUOUS
10
1.844008
20
6.604861
30
0.0
11
1.844008
21
6.470710
31
0.0
0
LINE
8
0
6
CONTINUOUS
10
1.042489
20
6.214195
30
0.0
11
1.248004
21
6.183296
31
0.0
0
LINE
8
0
6
CONTINUOUS
10
1.042489
20
6.214195
30
0.0
11
1.042489
21
6.338137
31
0.0
0
LINE
8
0
6
CONTINUOUS
10
0.893254
20
6.127166
30
0.0
11
1.042489
21
6.214195
31
0.0
0
LINE
8
0
6
CONTINUOUS
10
0.893254
20
6.235591
30
0.0
11
0.893254
21
6.127166
31
0.0
0
LINE
8
0
6
CONTINUOUS
10
1.304285
20
6.065368
30
0.0
11
1.304285
21
6.177377
31
0.0
0
LINE
8
0
6
CONTINUOUS
10
1.248004
20
6.183296
30
0.0
11
1.304285
21
6.065368
31
0.0
0
LINE
8
0
6
CONTINUOUS
10
1.248004
20
6.309007
30
0.0
11
1.248004
21
6.183296
31
0.0
0
LINE
8
0
6
CONTINUOUS
10
0.446483
20
5.948173
30
0.0
11
0.651998
21
5.917274
31
0.0
0
LINE
8
0
6
CONTINUOUS
10
0.446483
20
5.948173
30
0.0
11
0.446483
21
6.072506
31
0.0
0
LINE
8
0
6
CONTINUOUS
10
0.297249
20
5.861145
30
0.0
11
0.446483
21
5.948173
31
0.0
0
LINE
8
0
6
CONTINUOUS
10
0.297249
20
5.967809
30
0.0
11
0.297249
21
5.861145
31
0.0
0
LINE
8
0
6
CONTINUOUS
10
0.708280
20
5.799347
30
0.0
11
0.708280
21
5.912102
31
0.0
0
LINE
8
0
6
CONTINUOUS
10
0.651998
20
5.917274
30
0.0
11
0.708280
21
5.799347
31
0.0
0
LINE
8
0
6
CONTINUOUS
10
0.651998
20
6.044654
30
0.0
11
0.651998
21
5.917274
31
0.0
0
LINE
8
0
6
CONTINUOUS
10
3.515819
20
6.482544
30
0.0
11
3.705421
21
6.427414
31
0.0
0
LINE
8
0
6
CONTINUOUS
10
3.515819
20
6.482544
30
0.0
11
3.515819
21
6.599598
31
0.0
0
LINE
8
0
6
CONTINUOUS
10
3.338099
20
6.415565
30
0.0
11
3.515819
21
6.482544
31
0.0
0
LINE
8
0
6
CONTINUOUS
10
3.338099
20
6.506096
30
0.0
11
3.338099
21
6.415565
31
0.0
0
LINE
8
0
6
CONTINUOUS
10
2.900206
20
6.190483
30
0.0
11
3.089808
21
6.135360
31
0.0
0
LINE
8
0
6
CONTINUOUS
10
2.900206
20
6.190483
30
0.0
11
2.900206
21
6.309936
31
0.0
0
LINE
8
0
6
CONTINUOUS
10
2.722486
20
6.123497
30
0.0
11
2.900206
21
6.190483
31
0.0
0
LINE
8
0
6
CONTINUOUS
10
2.722486
20
6.204604
30
0.0
11
2.722486
21
6.123497
31
0.0
0
LINE
8
0
6
CONTINUOUS
10
3.101694
20
6.013244
30
0.0
11
3.101694
21
6.153621
31
0.0
0
LINE
8
0
6
CONTINUOUS
10
3.089808
20
6.135360
30
0.0
11
3.101694
21
6.013244
31
0.0
0
LINE
8
0
6
CONTINUOUS
10
3.089808
20
6.284529
30
0.0
11
3.089808
21
6.135360
31
0.0
0
LINE
8
0
6
CONTINUOUS
10
2.284592
20
5.906921
30
0.0
11
2.474194
21
5.851799
31
0.0
0
LINE
8
0
6
CONTINUOUS
10
2.284592
20
5.906921
30
0.0
11
2.284592
21
6.032192
31
0.0
0
LINE
8
0
6
CONTINUOUS
10
2.106872
20
5.839943
30
0.0
11
2.284592
21
5.906921
31
0.0
0
LINE
8
0
6
CONTINUOUS
10
2.106872
20
5.934914
30
0.0
11
2.106872
21
5.839943
31
0.0
0
LINE
8
0
6
CONTINUOUS
10
2.486080
20
5.729690
30
0.0
11
2.486080
21
5.855725
31
0.0
0
LINE
8
0
6
CONTINUOUS
10
2.474194
20
5.851799
30
0.0
11
2.486080
21
5.729690
31
0.0
0
LINE
8
0
6
CONTINUOUS
10
2.474194
20
5.992599
30
0.0
11
2.474194
21
5.851799
31
0.0
0
LINE
8
0
6
CONTINUOUS
10
1.668979
20
5.644249
30
0.0
11
1.858581
21
5.589111
31
0.0
0
LINE
8
0
6
CONTINUOUS
10
1.668979
20
5.644249
30
0.0
11
1.668979
21
5.756121
31
0.0
0
LINE
8
0
6
CONTINUOUS
10
1.491259
20
5.577262
30
0.0
11
1.668979
21
5.644249
31
0.0
0
LINE
8
0
6
CONTINUOUS
10
1.491259
20
5.671931
30
0.0
11
1.491259
21
5.577262
31
0.0
0
LINE
8
0
6
CONTINUOUS
10
1.870467
20
5.467002
30
0.0
11
1.870467
21
5.603968
31
0.0
0
LINE
8
0
6
CONTINUOUS
10
1.858581
20
5.589111
30
0.0
11
1.870467
21
5.467002
31
0.0
0
LINE
8
0
6
CONTINUOUS
10
1.858581
20
5.721458
30
0.0
11
1.858581
21
5.589111
31
0.0
0
LINE
8
0
6
CONTINUOUS
10
1.053365
20
5.417877
30
0.0
11
1.242967
21
5.362739
31
0.0
0
LINE
8
0
6
CONTINUOUS
10
1.053365
20
5.417877
30
0.0
11
1.053365
21
5.533739
31
0.0
0
LINE
8
0
6
CONTINUOUS
10
0.875645
20
5.350891
30
0.0
11
1.053365
21
5.417877
31
0.0
0
LINE
8
0
6
CONTINUOUS
10
0.875645
20
5.461770
30
0.0
11
0.875645
21
5.350891
31
0.0
0
LINE
8
0
6
CONTINUOUS
10
1.254853
20
5.240631
30
0.0
11
1.254853
21
5.364519
31
0.0
0
LINE
8
0
6
CONTINUOUS
10
1.242967
20
5.362739
30
0.0
11
1.254853
21
5.240631
31
0.0
0
LINE
8
0
6
CONTINUOUS
10
1.242967
20
5.485111
30
0.0
11
1.242967
21
5.362739
31
0.0
0
LINE
8
0
6
CONTINUOUS
10
4.641906
20
5.995216
30
0.0
11
4.641906
21
6.154161
31
0.0
0
LINE
8
0
6
CONTINUOUS
10
4.479644
20
6.074142
30
0.0
11
4.641906
21
5.995216
31
0.0
0
LINE
8
0
6
CONTINUOUS
10
4.479644
20
6.074142
30
0.0
11
4.479644
21
6.200012
31
0.0
0
LINE
8
0
6
CONTINUOUS
10
4.279809
20
6.032692
30
0.0
11
4.479644
21
6.074142
31
0.0
0
LINE
8
0
6
CONTINUOUS
10
4.279809
20
6.032692
30
0.0
11
4.279809
21
6.110791
31
0.0
0
LINE
8
0
6
CONTINUOUS
10
4.242235
20
5.912315
30
0.0
11
4.279809
21
6.032692
31
0.0
0
LINE
8
0
6
CONTINUOUS
10
4.242235
20
5.976008
30
0.0
11
4.242235
21
5.912315
31
0.0
0
LINE
8
0
6
CONTINUOUS
10
1.110874
20
8.264656
30
0.0
11
1.320256
21
8.285217
31
0.0
0
LINE
8
0
6
CONTINUOUS
10
1.110874
20
8.264656
30
0.0
11
1.110874
21
8.393192
31
0.0
0
LINE
8
0
6
CONTINUOUS
10
1.037112
20
8.149963
30
0.0
11
1.110874
21
8.264656
31
0.0
0
LINE
8
0
6
CONTINUOUS
10
1.037112
20
8.228991
30
0.0
11
1.037112
21
8.149963
31
0.0
0
LINE
8
0
6
CONTINUOUS
10
1.455877
20
8.191093
30
0.0
11
1.455877
21
8.309830
31
0.0
0
LINE
8
0
6
CONTINUOUS
10
1.320256
20
8.285217
30
0.0
11
1.455877
21
8.191093
31
0.0
0
LINE
8
0
6
CONTINUOUS
10
1.320256
20
8.429505
30
0.0
11
1.320256
21
8.285217
31
0.0
0
LINE
8
0
6
CONTINUOUS
10
2.408360
20
7.969764
30
0.0
11
2.620567
21
7.964470
31
0.0
0
LINE
8
0
6
CONTINUOUS
10
2.408360
20
7.969764
30
0.0
11
2.408360
21
8.097336
31
0.0
0
LINE
8
0
6
CONTINUOUS
10
2.294304
20
7.866592
30
0.0
11
2.408360
21
7.969764
31
0.0
0
LINE
8
0
6
CONTINUOUS
10
2.294304
20
7.942789
30
0.0
11
2.294304
21
7.866592
31
0.0
0
LINE
8
0
6
CONTINUOUS
10
2.718720
20
7.856010
30
0.0
11
2.718720
21
7.981315
31
0.0
0
LINE
8
0
6
CONTINUOUS
10
2.620567
20
7.964470
30
0.0
11
2.718720
21
7.856010
31
0.0
0
LINE
8
0
6
CONTINUOUS
10
2.620567
20
8.115044
30
0.0
11
2.620567
21
7.964470
31
0.0
0
LINE
8
0
6
CONTINUOUS
10
3.426508
20
7.460266
30
0.0
11
3.632023
21
7.429367
31
0.0
0
LINE
8
0
6
CONTINUOUS
10
3.426508
20
7.460266
30
0.0
11
3.426508
21
7.580428
31
0.0
0
LINE
8
0
6
CONTINUOUS
10
3.277273
20
7.373237
30
0.0
11
3.426508
21
7.460266
31
0.0
0
LINE
8
0
6
CONTINUOUS
10
3.277273
20
7.465922
30
0.0
11
3.277273
21
7.373237
31
0.0
0
LINE
8
0
6
CONTINUOUS
10
3.688304
20
7.311439
30
0.0
11
3.688304
21
7.439936
31
0.0
0
LINE
8
0
6
CONTINUOUS
10
3.632023
20
7.429367
30
0.0
11
3.688304
21
7.311439
31
0.0
0
LINE
8
0
6
CONTINUOUS
10
3.632023
20
7.574076
30
0.0
11
3.632023
21
7.429367
31
0.0
0
LINE
8
0
6
CONTINUOUS
10
4.131434
20
6.818122
30
0.0
11
4.321035
21
6.763000
31
0.0
0
LINE
8
0
6
CONTINUOUS
10
4.131434
20
6.818122
30
0.0
11
4.131434
21
6.941758
31
0.0
0
LINE
8
0
6
CONTINUOUS
10
3.953713
20
6.751152
30
0.0
11
4.131434
21
6.818122
31
0.0
0
LINE
8
0
6
CONTINUOUS
10
3.953713
20
6.821798
30
0.0
11
3.953713
21
6.751152
31
0.0
0
LINE
8
0
6
CONTINUOUS
10
4.519961
20
5.268608
30
0.0
11
4.557533
21
5.148239
31
0.0
0
LINE
8
0
6
CONTINUOUS
10
4.320127
20
5.310058
30
0.0
11
4.519961
21
5.268608
31
0.0
0
LINE
8
0
6
CONTINUOUS
10
-4.383316
20
5.323783
30
0.0
11
-4.383316
21
5.425525
31
0.0
0
LINE
8
0
6
CONTINUOUS
10
-4.583151
20
5.282333
30
0.0
11
-4.383316
21
5.323783
31
0.0
0
LINE
8
0
6
CONTINUOUS
10
-4.583151
20
5.430326
30
0.0
11
-4.583151
21
5.282333
31
0.0
0
LINE
8
0
6
CONTINUOUS
10
-3.489698
20
7.470047
30
0.0
11
-3.340464
21
7.383018
31
0.0
0
LINE
8
0
6
CONTINUOUS
10
-3.489698
20
7.590947
30
0.0
11
-3.489698
21
7.470047
31
0.0
0
LINE
8
0
6
CONTINUOUS
10
-0.183774
20
8.421157
30
0.0
11
0.023511
21
8.447853
31
0.0
0
LINE
8
0
6
CONTINUOUS
10
-0.183774
20
8.557389
30
0.0
11
-0.183774
21
8.421157
31
0.0
0
LINE
8
0
6
CONTINUOUS
10
-2.781911
20
7.863411
30
0.0
11
-2.683758
21
7.971870
31
0.0
0
LINE
8
0
6
CONTINUOUS
10
-2.781911
20
7.991470
30
0.0
11
-2.781911
21
7.863411
31
0.0
0
LINE
8
0
6
CONTINUOUS
10
-4.542834
20
6.088462
30
0.0
11
-4.342999
21
6.047012
31
0.0
0
LINE
8
0
6
CONTINUOUS
10
-4.542834
20
6.212648
30
0.0
11
-4.542834
21
6.088462
31
0.0
0
LINE
8
0
6
CONTINUOUS
10
-1.732169
20
5.649788
30
0.0
11
-1.554449
21
5.582801
31
0.0
0
LINE
8
0
6
CONTINUOUS
10
-1.732169
20
5.762427
30
0.0
11
-1.732169
21
5.649788
31
0.0
0
LINE
8
0
6
CONTINUOUS
10
-2.347782
20
5.914024
30
0.0
11
-2.170062
21
5.847038
31
0.0
0
LINE
8
0
6
CONTINUOUS
10
-2.347782
20
6.039810
30
0.0
11
-2.347782
21
5.914024
31
0.0
0
LINE
8
0
6
CONTINUOUS
10
-0.509674
20
5.949936
30
0.0
11
-0.360439
21
5.862907
31
0.0
0
LINE
8
0
6
CONTINUOUS
10
-0.509674
20
6.074787
30
0.0
11
-0.509674
21
5.949936
31
0.0
0
LINE
8
0
6
CONTINUOUS
10
-1.105679
20
6.217186
30
0.0
11
-1.105679
21
6.400236
31
0.0
0
LINE
8
0
6
CONTINUOUS
10
-1.311194
20
6.186287
30
0.0
11
-1.105679
21
6.217186
31
0.0
0
LINE
8
0
6
CONTINUOUS
10
-1.311194
20
6.186287
30
0.0
11
-1.311194
21
6.316376
31
0.0
0
LINE
8
0
6
CONTINUOUS
10
-1.367475
20
6.068359
30
0.0
11
-1.311194
21
6.186287
31
0.0
0
LINE
8
0
6
CONTINUOUS
10
-1.367475
20
6.179154
30
0.0
11
-1.367475
21
6.068359
31
0.0
0
LINE
8
0
6
CONTINUOUS
10
-0.780178
20
6.794090
30
0.0
11
-0.567970
21
6.799369
31
0.0
0
LINE
8
0
6
CONTINUOUS
10
-0.567970
20
6.799369
30
0.0
11
-0.453914
21
6.696197
31
0.0
0
LINE
8
0
6
CONTINUOUS
10
-0.567970
20
6.920962
30
0.0
11
-0.567970
21
6.799369
31
0.0
0
LINE
8
0
6
CONTINUOUS
10
-0.878330
20
6.685623
30
0.0
11
-0.780178
21
6.794090
31
0.0
0
LINE
8
0
6
CONTINUOUS
10
-0.878330
20
6.798662
30
0.0
11
-0.878330
21
6.685623
31
0.0
0
LINE
8
0
6
CONTINUOUS
10
-0.744401
20
7.838279
30
0.0
11
-0.535019
21
7.817718
31
0.0
0
LINE
8
0
6
CONTINUOUS
10
-0.535019
20
7.817718
30
0.0
11
-0.461257
21
7.703025
31
0.0
0
LINE
8
0
6
CONTINUOUS
10
-0.535019
20
7.937985
30
0.0
11
-0.535019
21
7.817718
31
0.0
0
LINE
8
0
6
CONTINUOUS
10
-0.880023
20
7.744156
30
0.0
11
-0.744401
21
7.838279
31
0.0
0
LINE
8
0
6
CONTINUOUS
10
-0.880023
20
7.855414
30
0.0
11
-0.880023
21
7.744156
31
0.0
0
LINE
8
0
6
CONTINUOUS
10
-1.587876
20
4.914741
30
0.0
11
-1.388041
21
4.873291
31
0.0
0
LINE
8
0
6
CONTINUOUS
10
-1.587876
20
5.036756
30
0.0
11
-1.587876
21
4.914741
31
0.0
0
LINE
8
0
6
CONTINUOUS
10
-2.126780
20
5.131569
30
0.0
11
-2.089207
21
5.011192
31
0.0
0
LINE
8
0
6
CONTINUOUS
10
-2.126780
20
5.231313
30
0.0
11
-2.126780
21
5.131569
31
0.0
0
LINE
8
0
6
CONTINUOUS
10
-1.866152
20
3.440514
30
0.0
11
-1.828579
21
3.320145
31
0.0
0
LINE
8
0
6
CONTINUOUS
10
-1.866152
20
3.537357
30
0.0
11
-1.866152
21
3.440514
31
0.0
0
LINE
8
0
6
CONTINUOUS
10
-1.627096
20
4.109849
30
0.0
11
-1.589523
21
3.989480
31
0.0
0
LINE
8
0
6
CONTINUOUS
10
-1.627096
20
4.211641
30
0.0
11
-1.627096
21
4.109849
31
0.0
0
LINE
8
0
6
CONTINUOUS
10
-2.589849
20
4.644935
30
0.0
11
-2.589849
21
4.735026
31
0.0
0
LINE
8
0
6
CONTINUOUS
10
-2.752111
20
4.723861
30
0.0
11
-2.589849
21
4.644935
31
0.0
0
LINE
8
0
6
CONTINUOUS
10
-2.752111
20
4.826047
30
0.0
11
-2.752111
21
4.723861
31
0.0
0
LINE
8
0
6
CONTINUOUS
10
-3.757004
20
4.532051
30
0.0
11
-3.757004
21
4.608283
31
0.0
0
LINE
8
0
6
CONTINUOUS
10
-3.919266
20
4.610969
30
0.0
11
-3.757004
21
4.532051
31
0.0
0
LINE
8
0
6
CONTINUOUS
10
-3.919266
20
4.707292
30
0.0
11
-3.919266
21
4.610969
31
0.0
0
LINE
8
0
6
CONTINUOUS
10
-0.758466
20
3.471230
30
0.0
11
-0.558631
21
3.429772
31
0.0
0
LINE
8
0
6
CONTINUOUS
10
-0.758466
20
3.573536
30
0.0
11
-0.758466
21
3.471230
31
0.0
0
LINE
8
0
6
CONTINUOUS
10
-0.558631
20
3.429772
30
0.0
11
-0.521057
21
3.309403
31
0.0
0
LINE
8
0
6
CONTINUOUS
10
-0.558631
20
3.534853
30
0.0
11
-0.558631
21
3.429772
31
0.0
0
LINE
8
0
6
CONTINUOUS
10
-0.725594
20
3.780121
30
0.0
11
-0.525759
21
3.738663
31
0.0
0
LINE
8
0
6
CONTINUOUS
10
-0.725594
20
3.887669
30
0.0
11
-0.725594
21
3.780121
31
0.0
0
LINE
8
0
6
CONTINUOUS
10
-0.525759
20
3.738663
30
0.0
11
-0.488186
21
3.618294
31
0.0
0
LINE
8
0
6
CONTINUOUS
10
-0.525759
20
3.847407
30
0.0
11
-0.525759
21
3.738663
31
0.0
0
LINE
8
0
6
CONTINUOUS
10
0.363955
20
4.777351
30
0.0
11
0.363955
21
4.888901
31
0.0
0
LINE
8
0
6
CONTINUOUS
10
0.326382
20
4.656982
30
0.0
11
0.363955
21
4.777351
31
0.0
0
LINE
8
0
6
CONTINUOUS
10
0.326382
20
4.778495
30
0.0
11
0.326382
21
4.656982
31
0.0
0
LINE
8
0
6
CONTINUOUS
10
2.970163
20
3.954056
30
0.0
11
3.169998
21
3.912613
31
0.0
0
LINE
8
0
6
CONTINUOUS
10
2.807900
20
3.875146
30
0.0
11
2.970163
21
3.954056
31
0.0
0
LINE
8
0
6
CONTINUOUS
10
2.807900
20
3.955050
30
0.0
11
2.807900
21
3.875146
31
0.0
0
LINE
8
0
6
CONTINUOUS
10
3.123199
20
4.156090
30
0.0
11
3.123199
21
4.463938
31
0.0
0
LINE
8
0
6
CONTINUOUS
10
3.085626
20
4.276467
30
0.0
11
3.123199
21
4.156090
31
0.0
0
LINE
8
0
6
CONTINUOUS
10
3.085626
20
4.414283
30
0.0
11
3.085626
21
4.276467
31
0.0
0
LINE
8
0
6
CONTINUOUS
10
2.526659
20
4.637664
30
0.0
11
2.688921
21
4.716591
31
0.0
0
LINE
8
0
6
CONTINUOUS
10
2.526659
20
4.726375
30
0.0
11
2.526659
21
4.637664
31
0.0
0
LINE
8
0
6
CONTINUOUS
10
1.806476
20
4.443939
30
0.0
11
1.806476
21
4.579650
31
0.0
0
LINE
8
0
6
CONTINUOUS
10
1.644214
20
4.522865
30
0.0
11
1.806476
21
4.443939
31
0.0
0
LINE
8
0
6
CONTINUOUS
10
1.644214
20
4.522865
30
0.0
11
1.644214
21
4.633153
31
0.0
0
LINE
8
0
6
CONTINUOUS
10
1.444378
20
4.481407
30
0.0
11
1.644214
21
4.522865
31
0.0
0
LINE
8
0
6
CONTINUOUS
10
1.444378
20
4.581028
30
0.0
11
1.444378
21
4.481407
31
0.0
0
LINE
8
0
6
CONTINUOUS
10
2.045531
20
3.711182
30
0.0
11
2.045531
21
3.856106
31
0.0
0
LINE
8
0
6
CONTINUOUS
10
1.883269
20
3.790101
30
0.0
11
2.045531
21
3.711182
31
0.0
0
LINE
8
0
6
CONTINUOUS
10
1.883269
20
3.790101
30
0.0
11
1.883269
21
3.904272
31
0.0
0
LINE
8
0
6
CONTINUOUS
10
1.683434
20
3.748650
30
0.0
11
1.883269
21
3.790101
31
0.0
0
LINE
8
0
6
CONTINUOUS
10
1.683434
20
3.748650
30
0.0
11
1.683434
21
3.852843
31
0.0
0
LINE
8
0
6
CONTINUOUS
10
1.645861
20
3.628274
30
0.0
11
1.683434
21
3.748650
31
0.0
0
LINE
8
0
6
CONTINUOUS
10
1.645861
20
3.745590
30
0.0
11
1.645861
21
3.628274
31
0.0
0
LINE
8
0
6
CONTINUOUS
10
3.164427
20
5.356048
30
0.0
11
3.164427
21
5.503468
31
0.0
0
LINE
8
0
6
CONTINUOUS
10
3.002165
20
5.434967
30
0.0
11
3.164427
21
5.356048
31
0.0
0
LINE
8
0
6
CONTINUOUS
10
3.002165
20
5.553841
30
0.0
11
3.002165
21
5.434967
31
0.0
0
LINE
8
0
6
CONTINUOUS
10
2.425687
20
5.087371
30
0.0
11
2.425687
21
5.225050
31
0.0
0
LINE
8
0
6
CONTINUOUS
10
2.263425
20
5.166290
30
0.0
11
2.425687
21
5.087371
31
0.0
0
LINE
8
0
6
CONTINUOUS
10
2.263425
20
5.285562
30
0.0
11
2.263425
21
5.166290
31
0.0
0
LINE
8
0
6
CONTINUOUS
10
0.471829
20
7.815826
30
0.0
11
0.681211
21
7.836387
31
0.0
0
LINE
8
0
6
CONTINUOUS
10
0.471829
20
7.815826
30
0.0
11
0.471829
21
7.936396
31
0.0
0
LINE
8
0
6
CONTINUOUS
10
0.398067
20
7.701133
30
0.0
11
0.471829
21
7.815826
31
0.0
0
LINE
8
0
6
CONTINUOUS
10
0.398067
20
7.792275
30
0.0
11
0.398067
21
7.701133
31
0.0
0
LINE
8
0
6
CONTINUOUS
10
0.816832
20
7.742271
30
0.0
11
0.816832
21
7.853828
31
0.0
0
LINE
8
0
6
CONTINUOUS
10
0.681211
20
7.836387
30
0.0
11
0.816832
21
7.742271
31
0.0
0
LINE
8
0
6
CONTINUOUS
10
0.681211
20
7.967169
30
0.0
11
0.681211
21
7.836387
31
0.0
0
LINE
8
0
6
CONTINUOUS
10
1.986041
20
7.563629
30
0.0
11
1.986041
21
7.696230
31
0.0
0
LINE
8
0
6
CONTINUOUS
10
1.773833
20
7.568916
30
0.0
11
1.986041
21
7.563629
31
0.0
0
LINE
8
0
6
CONTINUOUS
10
1.773833
20
7.568916
30
0.0
11
1.773833
21
7.688071
31
0.0
0
LINE
8
0
6
CONTINUOUS
10
1.659777
20
7.465744
30
0.0
11
1.773833
21
7.568916
31
0.0
0
LINE
8
0
6
CONTINUOUS
10
1.659777
20
7.548559
30
0.0
11
1.659777
21
7.465744
31
0.0
0
LINE
8
0
6
CONTINUOUS
10
1.139307
20
7.162872
30
0.0
11
1.351514
21
7.157585
31
0.0
0
LINE
8
0
6
CONTINUOUS
10
1.139307
20
7.290365
30
0.0
11
1.139307
21
7.162872
31
0.0
0
LINE
8
0
6
CONTINUOUS
10
1.449667
20
7.049133
30
0.0
11
1.449667
21
7.161578
31
0.0
0
LINE
8
0
6
CONTINUOUS
10
1.351514
20
7.157585
30
0.0
11
1.449667
21
7.049133
31
0.0
0
LINE
8
0
6
CONTINUOUS
10
1.351514
20
7.289146
30
0.0
11
1.351514
21
7.157585
31
0.0
0
LINE
8
0
6
CONTINUOUS
10
0.504780
20
6.797447
30
0.0
11
0.716987
21
6.792160
31
0.0
0
LINE
8
0
6
CONTINUOUS
10
0.504780
20
6.918864
30
0.0
11
0.504780
21
6.797447
31
0.0
0
LINE
8
0
6
CONTINUOUS
10
0.815140
20
6.683700
30
0.0
11
0.815140
21
6.796886
31
0.0
0
LINE
8
0
6
CONTINUOUS
10
0.716987
20
6.792160
30
0.0
11
0.815140
21
6.683700
31
0.0
0
LINE
8
0
6
CONTINUOUS
10
0.716987
20
6.919296
30
0.0
11
0.716987
21
6.792160
31
0.0
0
LINE
8
0
6
CONTINUOUS
10
-0.129747
20
6.458122
30
0.0
11
0.082460
21
6.452835
31
0.0
0
LINE
8
0
6
CONTINUOUS
10
-0.129747
20
6.458122
30
0.0
11
-0.129747
21
6.586202
31
0.0
0
LINE
8
0
6
CONTINUOUS
10
-0.243803
20
6.354950
30
0.0
11
-0.129747
21
6.458122
31
0.0
0
LINE
8
0
6
CONTINUOUS
10
-0.243803
20
6.472573
30
0.0
11
-0.243803
21
6.354950
31
0.0
0
LINE
8
0
6
CONTINUOUS
10
0.082460
20
6.452835
30
0.0
11
0.180613
21
6.344375
31
0.0
0
LINE
8
0
6
CONTINUOUS
10
0.082460
20
6.578463
30
0.0
11
0.082460
21
6.452835
31
0.0
0
LINE
8
0
6
CONTINUOUS
10
3.036018
20
7.103782
30
0.0
11
3.036018
21
7.254141
31
0.0
0
LINE
8
0
6
CONTINUOUS
10
2.830504
20
7.134681
30
0.0
11
3.036018
21
7.103782
31
0.0
0
LINE
8
0
6
CONTINUOUS
10
2.830504
20
7.253333
30
0.0
11
2.830504
21
7.134681
31
0.0
0
LINE
8
0
6
CONTINUOUS
10
3.717307
20
6.305305
30
0.0
11
3.717307
21
6.442115
31
0.0
0
LINE
8
0
6
CONTINUOUS
10
3.705421
20
6.427414
30
0.0
11
3.717307
21
6.305305
31
0.0
0
LINE
8
0
6
CONTINUOUS
10
3.705421
20
6.567608
30
0.0
11
3.705421
21
6.427414
31
0.0
0
LINE
8
0
6
CONTINUOUS
10
4.332920
20
6.640892
30
0.0
11
4.332920
21
6.784649
31
0.0
0
LINE
8
0
6
CONTINUOUS
10
4.321035
20
6.763000
30
0.0
11
4.332920
21
6.640892
31
0.0
0
LINE
8
0
6
CONTINUOUS
10
4.321035
20
6.923185
30
0.0
11
4.321035
21
6.763000
31
0.0
0
LINE
8
0
6
CONTINUOUS
10
4.157864
20
5.231132
30
0.0
11
4.320127
21
5.310058
31
0.0
0
LINE
8
0
6
CONTINUOUS
10
4.157864
20
5.303344
30
0.0
11
4.157864
21
5.231132
31
0.0
0
LINE
8
0
6
CONTINUOUS
10
2.457926
20
4.171319
30
0.0
11
2.755569
21
4.369468
31
0.0
0
LINE
8
0
6
CONTINUOUS
10
2.385407
20
4.130715
30
0.0
11
2.457926
21
4.171319
31
0.0
0
LINE
8
0
6
CONTINUOUS
10
2.674421
20
4.323120
30
0.0
11
2.385407
21
4.130715
31
0.0
0
LINE
8
0
6
CONTINUOUS
10
2.755569
20
4.369468
30
0.0
11
3.008540
21
4.588913
31
0.0
0
LINE
8
0
6
CONTINUOUS
10
2.920034
20
4.536178
30
0.0
11
2.674421
21
4.323120
31
0.0
0
LINE
8
0
6
CONTINUOUS
10
3.008540
20
4.588913
30
0.0
11
3.212637
21
4.827217
31
0.0
0
LINE
8
0
6
CONTINUOUS
10
3.118167
20
4.767517
30
0.0
11
2.920034
21
4.536178
31
0.0
0
LINE
8
0
6
CONTINUOUS
10
3.212637
20
4.827217
30
0.0
11
3.363636
21
5.081886
31
0.0
0
LINE
8
0
6
CONTINUOUS
10
3.264740
20
5.014701
30
0.0
11
3.118167
21
4.767517
31
0.0
0
LINE
8
0
6
CONTINUOUS
10
3.363636
20
5.081886
30
0.0
11
3.457308
21
5.350433
31
0.0
0
LINE
8
0
6
CONTINUOUS
10
3.355676
20
5.275390
30
0.0
11
3.264740
21
5.014701
31
0.0
0
LINE
8
0
6
CONTINUOUS
10
3.457308
20
5.350433
30
0.0
11
3.489451
21
5.630264
31
0.0
0
LINE
8
0
6
CONTINUOUS
10
3.386894
20
5.547165
30
0.0
11
3.355676
21
5.275390
31
0.0
0
LINE
8
0
6
CONTINUOUS
10
3.489451
20
5.630264
30
0.0
11
3.457308
21
5.910102
31
0.0
0
LINE
8
0
6
CONTINUOUS
10
3.355675
20
5.818939
30
0.0
11
3.386894
21
5.547165
31
0.0
0
LINE
8
0
6
CONTINUOUS
10
3.457308
20
5.910102
30
0.0
11
3.363636
21
6.178642
31
0.0
0
LINE
8
0
6
CONTINUOUS
10
3.264740
20
6.079620
30
0.0
11
3.355675
21
5.818939
31
0.0
0
LINE
8
0
6
CONTINUOUS
10
3.363636
20
6.178642
30
0.0
11
3.212637
21
6.433311
31
0.0
0
LINE
8
0
6
CONTINUOUS
10
3.118166
20
6.326812
30
0.0
11
3.264740
21
6.079620
31
0.0
0
LINE
8
0
6
CONTINUOUS
10
3.212637
20
6.433311
30
0.0
11
3.008539
21
6.671615
31
0.0
0
LINE
8
0
6
CONTINUOUS
10
2.920034
20
6.558143
30
0.0
11
3.118166
21
6.326812
31
0.0
0
LINE
8
0
6
CONTINUOUS
10
3.008539
20
6.671615
30
0.0
11
2.755569
21
6.891067
31
0.0
0
LINE
8
0
6
CONTINUOUS
10
2.674421
20
6.771209
30
0.0
11
2.920034
21
6.558143
31
0.0
0
LINE
8
0
6
CONTINUOUS
10
2.755569
20
6.891067
30
0.0
11
2.457925
21
7.089210
31
0.0
0
LINE
8
0
6
CONTINUOUS
10
2.385406
20
6.963615
30
0.0
11
2.674421
21
6.771209
31
0.0
0
LINE
8
0
6
CONTINUOUS
10
2.457925
20
7.089210
30
0.0
11
2.119782
21
7.263641
31
0.0
0
LINE
8
0
6
CONTINUOUS
10
2.057069
20
7.132980
30
0.0
11
2.385406
21
6.963615
31
0.0
0
LINE
8
0
6
CONTINUOUS
10
2.119782
20
7.263641
30
0.0
11
1.745303
21
7.411888
31
0.0
0
LINE
8
0
6
CONTINUOUS
10
1.693487
20
7.276916
30
0.0
11
2.057069
21
7.132980
31
0.0
0
LINE
8
0
6
CONTINUOUS
10
1.745303
20
7.411888
30
0.0
11
1.338660
21
7.531494
31
0.0
0
LINE
8
0
6
CONTINUOUS
10
1.298741
20
7.393028
30
0.0
11
1.693487
21
7.276916
31
0.0
0
LINE
8
0
6
CONTINUOUS
10
1.338660
20
7.531494
30
0.0
11
0.904069
21
7.619972
31
0.0
0
LINE
8
0
6
CONTINUOUS
10
0.876908
20
7.478920
30
0.0
11
1.298741
21
7.393028
31
0.0
0
LINE
8
0
6
CONTINUOUS
10
0.432068
20
7.532211
30
0.0
11
0.876908
21
7.478920
31
0.0
0
LINE
8
0
6
CONTINUOUS
10
0.445814
20
7.674873
30
0.0
11
-0.031700
21
7.693702
31
0.0
0
LINE
8
0
6
CONTINUOUS
10
-0.031700
20
7.550499
30
0.0
11
0.432068
21
7.532211
31
0.0
0
LINE
8
0
6
CONTINUOUS
10
-0.031700
20
7.693702
30
0.0
11
-0.509213
21
7.674873
31
0.0
0
LINE
8
0
6
CONTINUOUS
10
-0.495468
20
7.532211
30
0.0
11
-0.031700
21
7.550499
31
0.0
0
LINE
8
0
6
CONTINUOUS
10
-0.940308
20
7.478920
30
0.0
11
-0.495468
21
7.532211
31
0.0
0
LINE
8
0
6
CONTINUOUS
10
-0.967469
20
7.619972
30
0.0
11
-1.402060
21
7.531494
31
0.0
0
LINE
8
0
6
CONTINUOUS
10
-1.362141
20
7.393028
30
0.0
11
-0.940308
21
7.478920
31
0.0
0
LINE
8
0
6
CONTINUOUS
10
-1.402060
20
7.531494
30
0.0
11
-1.808703
21
7.411888
31
0.0
0
LINE
8
0
6
CONTINUOUS
10
-1.756887
20
7.276916
30
0.0
11
-1.362141
21
7.393028
31
0.0
0
LINE
8
0
6
CONTINUOUS
10
-1.808703
20
7.411888
30
0.0
11
-2.183182
21
7.263641
31
0.0
0
LINE
8
0
6
CONTINUOUS
10
-2.120468
20
7.132980
30
0.0
11
-1.756887
21
7.276916
31
0.0
0
LINE
8
0
6
CONTINUOUS
10
-2.183182
20
7.263641
30
0.0
11
-2.521325
21
7.089210
31
0.0
0
LINE
8
0
6
CONTINUOUS
10
-2.448806
20
6.963615
30
0.0
11
-2.120468
21
7.132980
31
0.0
0
LINE
8
0
6
CONTINUOUS
10
-2.521325
20
7.089210
30
0.0
11
-2.818969
21
6.891067
31
0.0
0
LINE
8
0
6
CONTINUOUS
10
-2.737821
20
6.771209
30
0.0
11
-2.448806
21
6.963615
31
0.0
0
LINE
8
0
6
CONTINUOUS
10
-2.818969
20
6.891067
30
0.0
11
-3.071939
21
6.671615
31
0.0
0
LINE
8
0
6
CONTINUOUS
10
-2.983434
20
6.558143
30
0.0
11
-2.737821
21
6.771209
31
0.0
0
LINE
8
0
6
CONTINUOUS
10
-3.071939
20
6.671615
30
0.0
11
-3.276036
21
6.433311
31
0.0
0
LINE
8
0
6
CONTINUOUS
10
-3.181567
20
6.326812
30
0.0
11
-2.983434
21
6.558143
31
0.0
0
LINE
8
0
6
CONTINUOUS
10
-3.276036
20
6.433311
30
0.0
11
-3.427036
21
6.178642
31
0.0
0
LINE
8
0
6
CONTINUOUS
10
-3.328140
20
6.079620
30
0.0
11
-3.181567
21
6.326812
31
0.0
0
LINE
8
0
6
CONTINUOUS
10
-3.427036
20
6.178642
30
0.0
11
-3.520707
21
5.910102
31
0.0
0
LINE
8
0
6
CONTINUOUS
10
-3.419075
20
5.818939
30
0.0
11
-3.328140
21
6.079620
31
0.0
0
LINE
8
0
6
CONTINUOUS
10
-3.520707
20
5.910102
30
0.0
11
-3.552851
21
5.630264
31
0.0
0
LINE
8
0
6
CONTINUOUS
10
-3.450293
20
5.547165
30
0.0
11
-3.419075
21
5.818939
31
0.0
0
LINE
8
0
6
CONTINUOUS
10
-3.552851
20
5.630264
30
0.0
11
-3.520707
21
5.350433
31
0.0
0
LINE
8
0
6
CONTINUOUS
10
-3.419075
20
5.275390
30
0.0
11
-3.450293
21
5.547165
31
0.0
0
LINE
8
0
6
CONTINUOUS
10
-3.520707
20
5.350433
30
0.0
11
-3.427036
21
5.081886
31
0.0
0
LINE
8
0
6
CONTINUOUS
10
-3.328140
20
5.014701
30
0.0
11
-3.419075
21
5.275390
31
0.0
0
LINE
8
0
6
CONTINUOUS
10
-3.427036
20
5.081886
30
0.0
11
-3.276036
21
4.827217
31
0.0
0
LINE
8
0
6
CONTINUOUS
10
-3.181566
20
4.767517
30
0.0
11
-3.328140
21
5.014701
31
0.0
0
LINE
8
0
6
CONTINUOUS
10
-3.276036
20
4.827217
30
0.0
11
-3.071939
21
4.588913
31
0.0
0
LINE
8
0
6
CONTINUOUS
10
-2.983433
20
4.536178
30
0.0
11
-3.181566
21
4.767517
31
0.0
0
LINE
8
0
6
CONTINUOUS
10
-3.071939
20
4.588913
30
0.0
11
-2.818969
21
4.369468
31
0.0
0
LINE
8
0
6
CONTINUOUS
10
-2.737820
20
4.323120
30
0.0
11
-2.983433
21
4.536178
31
0.0
0
LINE
8
0
6
CONTINUOUS
10
-2.521325
20
4.171319
30
0.0
11
-2.448806
21
4.130715
31
0.0
0
LINE
8
0
6
CONTINUOUS
10
-2.818969
20
4.369468
30
0.0
11
-2.521325
21
4.171319
31
0.0
0
LINE
8
0
6
CONTINUOUS
10
-2.448806
20
4.130715
30
0.0
11
-2.737820
21
4.323120
31
0.0
0
LINE
8
0
6
CONTINUOUS
10
1.256537
20
4.492843
30
0.0
11
1.459006
21
4.595459
31
0.0
0
LINE
8
0
6
CONTINUOUS
10
1.214541
20
4.473938
30
0.0
11
1.256537
21
4.492843
31
0.0
0
LINE
8
0
6
CONTINUOUS
10
1.410441
20
4.573219
30
0.0
11
1.214541
21
4.473938
31
0.0
0
LINE
8
0
6
CONTINUOUS
10
1.459006
20
4.595459
30
0.0
11
1.637225
21
4.712043
31
0.0
0
LINE
8
0
6
CONTINUOUS
10
1.582877
20
4.686020
30
0.0
11
1.410441
21
4.573219
31
0.0
0
LINE
8
0
6
CONTINUOUS
10
1.637225
20
4.712043
30
0.0
11
1.788695
21
4.841148
31
0.0
0
LINE
8
0
6
CONTINUOUS
10
1.788695
20
4.841148
30
0.0
11
1.910902
21
4.981346
31
0.0
0
LINE
8
0
6
CONTINUOUS
10
1.847633
20
4.946533
30
0.0
11
1.729420
21
4.810920
31
0.0
0
LINE
8
0
6
CONTINUOUS
10
1.910902
20
4.981346
30
0.0
11
2.001315
21
5.131172
31
0.0
0
LINE
8
0
6
CONTINUOUS
10
1.935085
20
5.091446
30
0.0
11
1.847633
21
4.946533
31
0.0
0
LINE
8
0
6
CONTINUOUS
10
2.001315
20
5.131172
30
0.0
11
2.057403
21
5.289169
31
0.0
0
LINE
8
0
6
CONTINUOUS
10
1.989341
20
5.244262
30
0.0
11
1.935085
21
5.091446
31
0.0
0
LINE
8
0
6
CONTINUOUS
10
2.057403
20
5.289169
30
0.0
11
2.076649
21
5.453796
31
0.0
0
LINE
8
0
6
CONTINUOUS
10
2.007966
20
5.403579
30
0.0
11
1.989341
21
5.244262
31
0.0
0
LINE
8
0
6
CONTINUOUS
10
2.076649
20
5.453796
30
0.0
11
2.057403
21
5.618423
31
0.0
0
LINE
8
0
6
CONTINUOUS
10
1.989341
20
5.562912
30
0.0
11
2.007966
21
5.403579
31
0.0
0
LINE
8
0
6
CONTINUOUS
10
2.057403
20
5.618423
30
0.0
11
2.001315
21
5.776413
31
0.0
0
LINE
8
0
6
CONTINUOUS
10
1.935085
20
5.715728
30
0.0
11
1.989341
21
5.562912
31
0.0
0
LINE
8
0
6
CONTINUOUS
10
2.001315
20
5.776413
30
0.0
11
1.910902
21
5.926239
31
0.0
0
LINE
8
0
6
CONTINUOUS
10
1.847633
20
5.860633
30
0.0
11
1.935085
21
5.715728
31
0.0
0
LINE
8
0
6
CONTINUOUS
10
1.910902
20
5.926239
30
0.0
11
1.788695
21
6.066436
31
0.0
0
LINE
8
0
6
CONTINUOUS
10
1.729420
20
5.996254
30
0.0
11
1.847633
21
5.860633
31
0.0
0
LINE
8
0
6
CONTINUOUS
10
1.788695
20
6.066436
30
0.0
11
1.637225
21
6.195533
31
0.0
0
LINE
8
0
6
CONTINUOUS
10
1.582876
20
6.121154
30
0.0
11
1.729420
21
5.996254
31
0.0
0
LINE
8
0
6
CONTINUOUS
10
1.637225
20
6.195533
30
0.0
11
1.459005
21
6.312118
31
0.0
0
LINE
8
0
6
CONTINUOUS
10
1.410441
20
6.233947
30
0.0
11
1.582876
21
6.121154
31
0.0
0
LINE
8
0
6
CONTINUOUS
10
1.459005
20
6.312118
30
0.0
11
1.256537
21
6.414734
31
0.0
0
LINE
8
0
6
CONTINUOUS
10
1.214541
20
6.333229
30
0.0
11
1.410441
21
6.233947
31
0.0
0
LINE
8
0
6
CONTINUOUS
10
1.256537
20
6.414734
30
0.0
11
1.032311
21
6.501945
31
0.0
0
LINE
8
0
6
CONTINUOUS
10
0.997614
20
6.417610
30
0.0
11
1.214541
21
6.333229
31
0.0
0
LINE
8
0
6
CONTINUOUS
10
1.032311
20
6.501945
30
0.0
11
0.788826
21
6.572311
31
0.0
0
LINE
8
0
6
CONTINUOUS
10
0.762093
20
6.485672
30
0.0
11
0.997614
21
6.417610
31
0.0
0
LINE
8
0
6
CONTINUOUS
10
0.510412
20
6.536033
30
0.0
11
0.762093
21
6.485672
31
0.0
0
LINE
8
0
6
CONTINUOUS
10
0.528608
20
6.624374
30
0.0
11
0.254220
21
6.656669
31
0.0
0
LINE
8
0
6
CONTINUOUS
10
0.245002
20
6.567268
30
0.0
11
0.510412
21
6.536033
31
0.0
0
LINE
8
0
6
CONTINUOUS
10
0.254220
20
6.656669
30
0.0
11
-0.031700
21
6.667747
31
0.0
0
LINE
8
0
6
CONTINUOUS
10
-0.031700
20
6.577995
30
0.0
11
0.245002
21
6.567268
31
0.0
0
LINE
8
0
6
CONTINUOUS
10
-0.031700
20
6.667747
30
0.0
11
-0.317619
21
6.656669
31
0.0
0
LINE
8
0
6
CONTINUOUS
10
-0.308402
20
6.567268
30
0.0
11
-0.031700
21
6.577995
31
0.0
0
LINE
8
0
6
CONTINUOUS
10
-0.317619
20
6.656669
30
0.0
11
-0.592007
21
6.624374
31
0.0
0
LINE
8
0
6
CONTINUOUS
10
-0.573811
20
6.536026
30
0.0
11
-0.308402
21
6.567268
31
0.0
0
LINE
8
0
6
CONTINUOUS
10
-0.825493
20
6.485672
30
0.0
11
-0.573811
21
6.536026
31
0.0
0
LINE
8
0
6
CONTINUOUS
10
-0.852226
20
6.572311
30
0.0
11
-1.095710
21
6.501945
31
0.0
0
LINE
8
0
6
CONTINUOUS
10
-1.061014
20
6.417610
30
0.0
11
-0.825493
21
6.485672
31
0.0
0
LINE
8
0
6
CONTINUOUS
10
-1.095710
20
6.501945
30
0.0
11
-1.319937
21
6.414734
31
0.0
0
LINE
8
0
6
CONTINUOUS
10
-1.277940
20
6.333229
30
0.0
11
-1.061014
21
6.417610
31
0.0
0
LINE
8
0
6
CONTINUOUS
10
-1.319937
20
6.414734
30
0.0
11
-1.522405
21
6.312118
31
0.0
0
LINE
8
0
6
CONTINUOUS
10
-1.473839
20
6.233947
30
0.0
11
-1.277940
21
6.333229
31
0.0
0
LINE
8
0
6
CONTINUOUS
10
-1.522405
20
6.312118
30
0.0
11
-1.700625
21
6.195533
31
0.0
0
LINE
8
0
6
CONTINUOUS
10
-1.646277
20
6.121154
30
0.0
11
-1.473839
21
6.233947
31
0.0
0
LINE
8
0
6
CONTINUOUS
10
-1.700625
20
6.195533
30
0.0
11
-1.852095
21
6.066436
31
0.0
0
LINE
8
0
6
CONTINUOUS
10
-1.792819
20
5.996254
30
0.0
11
-1.646277
21
6.121154
31
0.0
0
LINE
8
0
6
CONTINUOUS
10
-1.852095
20
6.066436
30
0.0
11
-1.974301
21
5.926239
31
0.0
0
LINE
8
0
6
CONTINUOUS
10
-1.911033
20
5.860633
30
0.0
11
-1.792819
21
5.996254
31
0.0
0
LINE
8
0
6
CONTINUOUS
10
-1.974301
20
5.926239
30
0.0
11
-2.064715
21
5.776413
31
0.0
0
LINE
8
0
6
CONTINUOUS
10
-1.998484
20
5.715728
30
0.0
11
-1.911033
21
5.860633
31
0.0
0
LINE
8
0
6
CONTINUOUS
10
-2.064715
20
5.776413
30
0.0
11
-2.120802
21
5.618423
31
0.0
0
LINE
8
0
6
CONTINUOUS
10
-2.052740
20
5.562912
30
0.0
11
-1.998484
21
5.715728
31
0.0
0
LINE
8
0
6
CONTINUOUS
10
-2.120802
20
5.618423
30
0.0
11
-2.140049
21
5.453796
31
0.0
0
LINE
8
0
6
CONTINUOUS
10
-2.071366
20
5.403579
30
0.0
11
-2.052740
21
5.562912
31
0.0
0
LINE
8
0
6
CONTINUOUS
10
-2.140049
20
5.453796
30
0.0
11
-2.120802
21
5.289169
31
0.0
0
LINE
8
0
6
CONTINUOUS
10
-2.052740
20
5.244262
30
0.0
11
-2.071366
21
5.403579
31
0.0
0
LINE
8
0
6
CONTINUOUS
10
-2.120802
20
5.289169
30
0.0
11
-2.064715
21
5.131172
31
0.0
0
LINE
8
0
6
CONTINUOUS
10
-1.998484
20
5.091446
30
0.0
11
-2.052740
21
5.244262
31
0.0
0
LINE
8
0
6
CONTINUOUS
10
-2.064715
20
5.131172
30
0.0
11
-1.974301
21
4.981346
31
0.0
0
LINE
8
0
6
CONTINUOUS
10
-1.911033
20
4.946533
30
0.0
11
-1.998484
21
5.091446
31
0.0
0
LINE
8
0
6
CONTINUOUS
10
-1.974301
20
4.981346
30
0.0
11
-1.852095
21
4.841148
31
0.0
0
LINE
8
0
6
CONTINUOUS
10
-1.792818
20
4.810920
30
0.0
11
-1.911033
21
4.946533
31
0.0
0
LINE
8
0
6
CONTINUOUS
10
-1.852095
20
4.841148
30
0.0
11
-1.700624
21
4.712043
31
0.0
0
LINE
8
0
6
CONTINUOUS
10
-1.700624
20
4.712043
30
0.0
11
-1.522405
21
4.595459
31
0.0
0
LINE
8
0
6
CONTINUOUS
10
-1.473839
20
4.573219
30
0.0
11
-1.646276
21
4.686020
31
0.0
0
LINE
8
0
6
CONTINUOUS
10
-1.319936
20
4.492843
30
0.0
11
-1.277940
21
4.473938
31
0.0
0
LINE
8
0
6
CONTINUOUS
10
-1.522405
20
4.595459
30
0.0
11
-1.319936
21
4.492843
31
0.0
0
LINE
8
0
6
CONTINUOUS
10
-1.277940
20
4.473938
30
0.0
11
-1.473839
21
4.573219
31
0.0
0
LINE
8
0
6
CONTINUOUS
10
2.263425
20
5.166290
30
0.0
11
2.063590
21
5.124839
31
0.0
0
LINE
8
0
6
CONTINUOUS
10
2.425687
20
5.087371
30
0.0
11
2.263425
21
5.166290
31
0.0
0
LINE
8
0
6
CONTINUOUS
10
2.388114
20
4.966995
30
0.0
11
2.425687
21
5.087371
31
0.0
0
LINE
8
0
6
CONTINUOUS
10
2.188279
20
4.925544
30
0.0
11
2.388114
21
4.966995
31
0.0
0
LINE
8
0
6
CONTINUOUS
10
2.026016
20
5.004470
30
0.0
11
2.188279
21
4.925544
31
0.0
0
LINE
8
0
6
CONTINUOUS
10
2.063590
20
5.124839
30
0.0
11
2.026016
21
5.004470
31
0.0
0
LINE
8
0
6
CONTINUOUS
10
-0.596878
20
7.608902
30
0.0
11
-0.461257
21
7.703025
31
0.0
0
LINE
8
0
6
CONTINUOUS
10
-0.806261
20
7.629463
30
0.0
11
-0.596878
21
7.608902
31
0.0
0
LINE
8
0
6
CONTINUOUS
10
-0.880023
20
7.744156
30
0.0
11
-0.806261
21
7.629463
31
0.0
0
LINE
8
0
6
CONTINUOUS
10
-0.744401
20
7.838279
30
0.0
11
-0.880023
21
7.744156
31
0.0
0
LINE
8
0
6
CONTINUOUS
10
-0.535019
20
7.817718
30
0.0
11
-0.744401
21
7.838279
31
0.0
0
LINE
8
0
6
CONTINUOUS
10
-0.461257
20
7.703025
30
0.0
11
-0.535019
21
7.817718
31
0.0
0
LINE
8
0
6
CONTINUOUS
10
-2.893694
20
7.144554
30
0.0
11
-3.099209
21
7.113647
31
0.0
0
LINE
8
0
6
CONTINUOUS
10
-2.744459
20
7.057525
30
0.0
11
-2.893694
21
7.144554
31
0.0
0
LINE
8
0
6
CONTINUOUS
10
-2.800739
20
6.939598
30
0.0
11
-2.744459
21
7.057525
31
0.0
0
LINE
8
0
6
CONTINUOUS
10
-3.006254
20
6.908699
30
0.0
11
-2.800739
21
6.939598
31
0.0
0
LINE
8
0
6
CONTINUOUS
10
-3.155490
20
6.995720
30
0.0
11
-3.006254
21
6.908699
31
0.0
0
LINE
8
0
6
CONTINUOUS
10
-3.099209
20
7.113647
30
0.0
11
-3.155490
21
6.995720
31
0.0
0
LINE
8
0
6
CONTINUOUS
10
1.155049
20
5.978340
30
0.0
11
1.304285
21
6.065368
31
0.0
0
LINE
8
0
6
CONTINUOUS
10
0.949534
20
6.009239
30
0.0
11
1.155049
21
5.978340
31
0.0
0
LINE
8
0
6
CONTINUOUS
10
0.893254
20
6.127166
30
0.0
11
0.949534
21
6.009239
31
0.0
0
LINE
8
0
6
CONTINUOUS
10
1.042489
20
6.214195
30
0.0
11
0.893254
21
6.127166
31
0.0
0
LINE
8
0
6
CONTINUOUS
10
1.248004
20
6.183296
30
0.0
11
1.042489
21
6.214195
31
0.0
0
LINE
8
0
6
CONTINUOUS
10
1.304285
20
6.065368
30
0.0
11
1.248004
21
6.183296
31
0.0
0
LINE
8
0
6
CONTINUOUS
10
1.444378
20
4.481407
30
0.0
11
1.406805
21
4.361038
31
0.0
0
LINE
8
0
6
CONTINUOUS
10
1.644214
20
4.522865
30
0.0
11
1.444378
21
4.481407
31
0.0
0
LINE
8
0
6
CONTINUOUS
10
1.806476
20
4.443939
30
0.0
11
1.644214
21
4.522865
31
0.0
0
LINE
8
0
6
CONTINUOUS
10
1.768903
20
4.323570
30
0.0
11
1.806476
21
4.443939
31
0.0
0
LINE
8
0
6
CONTINUOUS
10
1.569068
20
4.282120
30
0.0
11
1.768903
21
4.323570
31
0.0
0
LINE
8
0
6
CONTINUOUS
10
1.406805
20
4.361038
30
0.0
11
1.569068
21
4.282120
31
0.0
0
LINE
8
0
6
CONTINUOUS
10
3.856075
20
4.598480
30
0.0
11
3.693813
21
4.519554
31
0.0
0
LINE
8
0
6
CONTINUOUS
10
4.055911
20
4.557022
30
0.0
11
3.856075
21
4.598480
31
0.0
0
LINE
8
0
6
CONTINUOUS
10
4.093484
20
4.436653
30
0.0
11
4.055911
21
4.557022
31
0.0
0
LINE
8
0
6
CONTINUOUS
10
3.931222
20
4.357734
30
0.0
11
4.093484
21
4.436653
31
0.0
0
LINE
8
0
6
CONTINUOUS
10
3.731386
20
4.399185
30
0.0
11
3.931222
21
4.357734
31
0.0
0
LINE
8
0
6
CONTINUOUS
10
3.693813
20
4.519554
30
0.0
11
3.731386
21
4.399185
31
0.0
0
LINE
8
0
6
CONTINUOUS
10
-1.632257
20
4.287179
30
0.0
11
-1.469995
21
4.366104
31
0.0
0
LINE
8
0
6
CONTINUOUS
10
-1.832093
20
4.328628
30
0.0
11
-1.632257
21
4.287179
31
0.0
0
LINE
8
0
6
CONTINUOUS
10
-1.869666
20
4.448997
30
0.0
11
-1.832093
21
4.328628
31
0.0
0
LINE
8
0
6
CONTINUOUS
10
-1.707403
20
4.527923
30
0.0
11
-1.869666
21
4.448997
31
0.0
0
LINE
8
0
6
CONTINUOUS
10
-1.507568
20
4.486473
30
0.0
11
-1.707403
21
4.527923
31
0.0
0
LINE
8
0
6
CONTINUOUS
10
-1.469995
20
4.366104
30
0.0
11
-1.507568
21
4.486473
31
0.0
0
LINE
8
0
6
CONTINUOUS
10
1.757928
20
7.357277
30
0.0
11
1.970137
21
7.351989
31
0.0
0
LINE
8
0
6
CONTINUOUS
10
1.659777
20
7.465744
30
0.0
11
1.757928
21
7.357277
31
0.0
0
LINE
8
0
6
CONTINUOUS
10
1.773833
20
7.568916
30
0.0
11
1.659777
21
7.465744
31
0.0
0
LINE
8
0
6
CONTINUOUS
10
1.986041
20
7.563629
30
0.0
11
1.773833
21
7.568916
31
0.0
0
LINE
8
0
6
CONTINUOUS
10
2.084194
20
7.455169
30
0.0
11
1.986041
21
7.563629
31
0.0
0
LINE
8
0
6
CONTINUOUS
10
1.970137
20
7.351989
30
0.0
11
2.084194
21
7.455169
31
0.0
0
LINE
8
0
6
CONTINUOUS
10
-4.458461
20
5.083038
30
0.0
11
-4.258627
21
5.124488
31
0.0
0
LINE
8
0
6
CONTINUOUS
10
-4.620724
20
5.161964
30
0.0
11
-4.458461
21
5.083038
31
0.0
0
LINE
8
0
6
CONTINUOUS
10
-4.583151
20
5.282333
30
0.0
11
-4.620724
21
5.161964
31
0.0
0
LINE
8
0
6
CONTINUOUS
10
-4.383316
20
5.323783
30
0.0
11
-4.583151
21
5.282333
31
0.0
0
LINE
8
0
6
CONTINUOUS
10
-4.221053
20
5.244857
30
0.0
11
-4.383316
21
5.323783
31
0.0
0
LINE
8
0
6
CONTINUOUS
10
-4.258627
20
5.124488
30
0.0
11
-4.221053
21
5.244857
31
0.0
0
LINE
8
0
6
CONTINUOUS
10
-2.347782
20
5.914024
30
0.0
11
-2.537384
21
5.858894
31
0.0
0
LINE
8
0
6
CONTINUOUS
10
-2.170062
20
5.847038
30
0.0
11
-2.347782
21
5.914024
31
0.0
0
LINE
8
0
6
CONTINUOUS
10
-2.181946
20
5.724937
30
0.0
11
-2.170062
21
5.847038
31
0.0
0
LINE
8
0
6
CONTINUOUS
10
-2.371550
20
5.669799
30
0.0
11
-2.181946
21
5.724937
31
0.0
0
LINE
8
0
6
CONTINUOUS
10
-2.549270
20
5.736786
30
0.0
11
-2.371550
21
5.669799
31
0.0
0
LINE
8
0
6
CONTINUOUS
10
-2.537384
20
5.858894
30
0.0
11
-2.549270
21
5.736786
31
0.0
0
LINE
8
0
6
CONTINUOUS
10
-0.551835
20
4.579864
30
0.0
11
-0.389572
21
4.658790
31
0.0
0
LINE
8
0
6
CONTINUOUS
10
-0.751670
20
4.621307
30
0.0
11
-0.551835
21
4.579864
31
0.0
0
LINE
8
0
6
CONTINUOUS
10
-0.789243
20
4.741684
30
0.0
11
-0.751670
21
4.621307
31
0.0
0
LINE
8
0
6
CONTINUOUS
10
-0.626981
20
4.820610
30
0.0
11
-0.789243
21
4.741684
31
0.0
0
LINE
8
0
6
CONTINUOUS
10
-0.427145
20
4.779159
30
0.0
11
-0.626981
21
4.820610
31
0.0
0
LINE
8
0
6
CONTINUOUS
10
-0.389572
20
4.658790
30
0.0
11
-0.427145
21
4.779159
31
0.0
0
LINE
8
0
6
CONTINUOUS
10
2.885790
20
4.317924
30
0.0
11
2.723528
21
4.238999
31
0.0
0
LINE
8
0
6
CONTINUOUS
10
3.085626
20
4.276467
30
0.0
11
2.885790
21
4.317924
31
0.0
0
LINE
8
0
6
CONTINUOUS
10
3.123199
20
4.156090
30
0.0
11
3.085626
21
4.276467
31
0.0
0
LINE
8
0
6
CONTINUOUS
10
2.960937
20
4.077180
30
0.0
11
3.123199
21
4.156090
31
0.0
0
LINE
8
0
6
CONTINUOUS
10
2.761101
20
4.118622
30
0.0
11
2.960937
21
4.077180
31
0.0
0
LINE
8
0
6
CONTINUOUS
10
2.723528
20
4.238999
30
0.0
11
2.761101
21
4.118622
31
0.0
0
LINE
8
0
6
CONTINUOUS
10
0.587258
20
3.541184
30
0.0
11
0.787093
21
3.582627
31
0.0
0
LINE
8
0
6
CONTINUOUS
10
0.424995
20
3.620103
30
0.0
11
0.587258
21
3.541184
31
0.0
0
LINE
8
0
6
CONTINUOUS
10
0.462569
20
3.740479
30
0.0
11
0.424995
21
3.620103
31
0.0
0
LINE
8
0
6
CONTINUOUS
10
0.662404
20
3.781922
30
0.0
11
0.462569
21
3.740479
31
0.0
0
LINE
8
0
6
CONTINUOUS
10
0.824666
20
3.703011
30
0.0
11
0.662404
21
3.781922
31
0.0
0
LINE
8
0
6
CONTINUOUS
10
0.787093
20
3.582627
30
0.0
11
0.824666
21
3.703011
31
0.0
0
LINE
8
0
6
CONTINUOUS
10
-0.183774
20
8.421157
30
0.0
11
-0.247260
21
8.304451
31
0.0
0
LINE
8
0
6
CONTINUOUS
10
0.023511
20
8.447853
30
0.0
11
-0.183774
21
8.421157
31
0.0
0
LINE
8
0
6
CONTINUOUS
10
0.167308
20
8.357849
30
0.0
11
0.023511
21
8.447853
31
0.0
0
LINE
8
0
6
CONTINUOUS
10
0.103821
20
8.241134
30
0.0
11
0.167308
21
8.357849
31
0.0
0
LINE
8
0
6
CONTINUOUS
10
-0.103462
20
8.214439
30
0.0
11
0.103821
21
8.241134
31
0.0
0
LINE
8
0
6
CONTINUOUS
10
-0.247260
20
8.304451
30
0.0
11
-0.103462
21
8.214439
31
0.0
0
LINE
8
0
6
CONTINUOUS
10
2.118756
20
5.717834
30
0.0
11
2.308359
21
5.662704
31
0.0
0
LINE
8
0
6
CONTINUOUS
10
2.106872
20
5.839943
30
0.0
11
2.118756
21
5.717834
31
0.0
0
LINE
8
0
6
CONTINUOUS
10
2.284592
20
5.906921
30
0.0
11
2.106872
21
5.839943
31
0.0
0
LINE
8
0
6
CONTINUOUS
10
2.474194
20
5.851799
30
0.0
11
2.284592
21
5.906921
31
0.0
0
LINE
8
0
6
CONTINUOUS
10
2.486080
20
5.729690
30
0.0
11
2.474194
21
5.851799
31
0.0
0
LINE
8
0
6
CONTINUOUS
10
2.308359
20
5.662704
30
0.0
11
2.486080
21
5.729690
31
0.0
0
LINE
8
0
6
CONTINUOUS
10
-1.445306
20
8.079750
30
0.0
11
-1.235923
21
8.059181
31
0.0
0
LINE
8
0
6
CONTINUOUS
10
-1.519068
20
8.194435
30
0.0
11
-1.445306
21
8.079750
31
0.0
0
LINE
8
0
6
CONTINUOUS
10
-1.383446
20
8.288566
30
0.0
11
-1.519068
21
8.194435
31
0.0
0
LINE
8
0
6
CONTINUOUS
10
-1.174064
20
8.267997
30
0.0
11
-1.383446
21
8.288566
31
0.0
0
LINE
8
0
6
CONTINUOUS
10
-1.100303
20
8.153305
30
0.0
11
-1.174064
21
8.267997
31
0.0
0
LINE
8
0
6
CONTINUOUS
10
-1.235923
20
8.059181
30
0.0
11
-1.100303
21
8.153305
31
0.0
0
LINE
8
0
6
CONTINUOUS
10
-3.768612
20
6.437950
30
0.0
11
-3.780498
21
6.315841
31
0.0
0
LINE
8
0
6
CONTINUOUS
10
-3.579009
20
6.493072
30
0.0
11
-3.768612
21
6.437950
31
0.0
0
LINE
8
0
6
CONTINUOUS
10
-3.401289
20
6.426101
30
0.0
11
-3.579009
21
6.493072
31
0.0
0
LINE
8
0
6
CONTINUOUS
10
-3.413173
20
6.303985
30
0.0
11
-3.401289
21
6.426101
31
0.0
0
LINE
8
0
6
CONTINUOUS
10
-3.602777
20
6.248863
30
0.0
11
-3.413173
21
6.303985
31
0.0
0
LINE
8
0
6
CONTINUOUS
10
-3.780498
20
6.315841
30
0.0
11
-3.602777
21
6.248863
31
0.0
0
LINE
8
0
6
CONTINUOUS
10
-0.129747
20
6.458122
30
0.0
11
-0.191055
21
6.402665
31
0.0
0
LINE
8
0
6
CONTINUOUS
10
-0.191055
20
6.402665
30
0.0
11
-0.243803
21
6.354950
31
0.0
0
LINE
8
0
6
CONTINUOUS
10
0.082460
20
6.452835
30
0.0
11
-0.129747
21
6.458122
31
0.0
0
LINE
8
0
6
CONTINUOUS
10
0.180613
20
6.344375
30
0.0
11
0.082460
21
6.452835
31
0.0
0
LINE
8
0
6
CONTINUOUS
10
0.066556
20
6.241203
30
0.0
11
0.180613
21
6.344375
31
0.0
0
LINE
8
0
6
CONTINUOUS
10
-0.145652
20
6.246498
30
0.0
11
0.066556
21
6.241203
31
0.0
0
LINE
8
0
6
CONTINUOUS
10
-0.243803
20
6.354950
30
0.0
11
-0.239020
21
6.349665
31
0.0
0
LINE
8
0
6
CONTINUOUS
10
-0.239020
20
6.349665
30
0.0
11
-0.145652
21
6.246498
31
0.0
0
LINE
8
0
6
CONTINUOUS
10
0.695275
20
3.459839
30
0.0
11
0.495440
21
3.418397
31
0.0
0
LINE
8
0
6
CONTINUOUS
10
0.857537
20
3.380921
30
0.0
11
0.695275
21
3.459839
31
0.0
0
LINE
8
0
6
CONTINUOUS
10
0.819965
20
3.260544
30
0.0
11
0.857537
21
3.380921
31
0.0
0
LINE
8
0
6
CONTINUOUS
10
0.620129
20
3.219094
30
0.0
11
0.819965
21
3.260544
31
0.0
0
LINE
8
0
6
CONTINUOUS
10
0.457867
20
3.298020
30
0.0
11
0.620129
21
3.219094
31
0.0
0
LINE
8
0
6
CONTINUOUS
10
0.495440
20
3.418397
30
0.0
11
0.457867
21
3.298020
31
0.0
0
LINE
8
0
6
CONTINUOUS
10
-3.065355
20
5.444511
30
0.0
11
-3.227617
21
5.365600
31
0.0
0
LINE
8
0
6
CONTINUOUS
10
-2.865520
20
5.403068
30
0.0
11
-3.065355
21
5.444511
31
0.0
0
LINE
8
0
6
CONTINUOUS
10
-2.827947
20
5.282692
30
0.0
11
-2.865520
21
5.403068
31
0.0
0
LINE
8
0
6
CONTINUOUS
10
-2.990209
20
5.203765
30
0.0
11
-2.827947
21
5.282692
31
0.0
0
LINE
8
0
6
CONTINUOUS
10
-3.190045
20
5.245224
30
0.0
11
-2.990209
21
5.203765
31
0.0
0
LINE
8
0
6
CONTINUOUS
10
-3.227617
20
5.365600
30
0.0
11
-3.190045
21
5.245224
31
0.0
0
LINE
8
0
6
CONTINUOUS
10
0.504780
20
6.797447
30
0.0
11
0.390724
21
6.694275
31
0.0
0
LINE
8
0
6
CONTINUOUS
10
0.716987
20
6.792160
30
0.0
11
0.504780
21
6.797447
31
0.0
0
LINE
8
0
6
CONTINUOUS
10
0.815140
20
6.683700
30
0.0
11
0.716987
21
6.792160
31
0.0
0
LINE
8
0
6
CONTINUOUS
10
0.701083
20
6.580528
30
0.0
11
0.815140
21
6.683700
31
0.0
0
LINE
8
0
6
CONTINUOUS
10
0.488875
20
6.585815
30
0.0
11
0.701083
21
6.580528
31
0.0
0
LINE
8
0
6
CONTINUOUS
10
0.390724
20
6.694275
30
0.0
11
0.488875
21
6.585815
31
0.0
0
LINE
8
0
6
CONTINUOUS
10
-3.489698
20
7.470047
30
0.0
11
-3.695213
21
7.439140
31
0.0
0
LINE
8
0
6
CONTINUOUS
10
-3.340464
20
7.383018
30
0.0
11
-3.489698
21
7.470047
31
0.0
0
LINE
8
0
6
CONTINUOUS
10
-3.396743
20
7.265091
30
0.0
11
-3.340464
21
7.383018
31
0.0
0
LINE
8
0
6
CONTINUOUS
10
-3.602259
20
7.234184
30
0.0
11
-3.396743
21
7.265091
31
0.0
0
LINE
8
0
6
CONTINUOUS
10
-3.751495
20
7.321212
30
0.0
11
-3.602259
21
7.234184
31
0.0
0
LINE
8
0
6
CONTINUOUS
10
-3.695213
20
7.439140
30
0.0
11
-3.751495
21
7.321212
31
0.0
0
LINE
8
0
6
CONTINUOUS
10
1.524685
20
4.909698
30
0.0
11
1.324850
21
4.868255
31
0.0
0
LINE
8
0
6
CONTINUOUS
10
1.686947
20
4.830780
30
0.0
11
1.524685
21
4.909698
31
0.0
0
LINE
8
0
6
CONTINUOUS
10
1.649375
20
4.710403
30
0.0
11
1.686947
21
4.830780
31
0.0
0
LINE
8
0
6
CONTINUOUS
10
1.449539
20
4.668953
30
0.0
11
1.649375
21
4.710403
31
0.0
0
LINE
8
0
6
CONTINUOUS
10
1.287277
20
4.747879
30
0.0
11
1.449539
21
4.668953
31
0.0
0
LINE
8
0
6
CONTINUOUS
10
1.324850
20
4.868255
30
0.0
11
1.287277
21
4.747879
31
0.0
0
LINE
8
0
6
CONTINUOUS
10
-0.780178
20
6.794090
30
0.0
11
-0.878330
21
6.685623
31
0.0
0
LINE
8
0
6
CONTINUOUS
10
-0.567970
20
6.799369
30
0.0
11
-0.780178
21
6.794090
31
0.0
0
LINE
8
0
6
CONTINUOUS
10
-0.453914
20
6.696197
30
0.0
11
-0.567970
21
6.799369
31
0.0
0
LINE
8
0
6
CONTINUOUS
10
-0.552065
20
6.587738
30
0.0
11
-0.453914
21
6.696197
31
0.0
0
LINE
8
0
6
CONTINUOUS
10
-0.764273
20
6.582450
30
0.0
11
-0.552065
21
6.587738
31
0.0
0
LINE
8
0
6
CONTINUOUS
10
-0.878330
20
6.685623
30
0.0
11
-0.764273
21
6.582450
31
0.0
0
LINE
8
0
6
CONTINUOUS
10
3.539586
20
6.238327
30
0.0
11
3.717307
21
6.305305
31
0.0
0
LINE
8
0
6
CONTINUOUS
10
3.349983
20
6.293457
30
0.0
11
3.539586
21
6.238327
31
0.0
0
LINE
8
0
6
CONTINUOUS
10
3.338099
20
6.415565
30
0.0
11
3.349983
21
6.293457
31
0.0
0
LINE
8
0
6
CONTINUOUS
10
3.515819
20
6.482544
30
0.0
11
3.338099
21
6.415565
31
0.0
0
LINE
8
0
6
CONTINUOUS
10
3.705421
20
6.427414
30
0.0
11
3.515819
21
6.482544
31
0.0
0
LINE
8
0
6
CONTINUOUS
10
3.717307
20
6.305305
30
0.0
11
3.705421
21
6.427414
31
0.0
0
LINE
8
0
6
CONTINUOUS
10
-4.119102
20
4.569519
30
0.0
11
-4.156675
21
4.449142
31
0.0
0
LINE
8
0
6
CONTINUOUS
10
-3.919266
20
4.610969
30
0.0
11
-4.119102
21
4.569519
31
0.0
0
LINE
8
0
6
CONTINUOUS
10
-3.757004
20
4.532051
30
0.0
11
-3.919266
21
4.610969
31
0.0
0
LINE
8
0
6
CONTINUOUS
10
-3.794577
20
4.411674
30
0.0
11
-3.757004
21
4.532051
31
0.0
0
LINE
8
0
6
CONTINUOUS
10
-3.994412
20
4.370224
30
0.0
11
-3.794577
21
4.411674
31
0.0
0
LINE
8
0
6
CONTINUOUS
10
-4.156675
20
4.449142
30
0.0
11
-3.994412
21
4.370224
31
0.0
0
LINE
8
0
6
CONTINUOUS
10
-1.701683
20
6.507537
30
0.0
11
-1.907198
21
6.476638
31
0.0
0
LINE
8
0
6
CONTINUOUS
10
-1.552449
20
6.420517
30
0.0
11
-1.701683
21
6.507537
31
0.0
0
LINE
8
0
6
CONTINUOUS
10
-1.608729
20
6.302589
30
0.0
11
-1.552449
21
6.420517
31
0.0
0
LINE
8
0
6
CONTINUOUS
10
-1.814244
20
6.271690
30
0.0
11
-1.608729
21
6.302589
31
0.0
0
LINE
8
0
6
CONTINUOUS
10
-1.963480
20
6.358711
30
0.0
11
-1.814244
21
6.271690
31
0.0
0
LINE
8
0
6
CONTINUOUS
10
-1.907198
20
6.476638
30
0.0
11
-1.963480
21
6.358711
31
0.0
0
LINE
8
0
6
CONTINUOUS
10
0.559044
20
5.712310
30
0.0
11
0.708280
21
5.799347
31
0.0
0
LINE
8
0
6
CONTINUOUS
10
0.353529
20
5.743217
30
0.0
11
0.559044
21
5.712310
31
0.0
0
LINE
8
0
6
CONTINUOUS
10
0.297249
20
5.861145
30
0.0
11
0.353529
21
5.743217
31
0.0
0
LINE
8
0
6
CONTINUOUS
10
0.446483
20
5.948173
30
0.0
11
0.297249
21
5.861145
31
0.0
0
LINE
8
0
6
CONTINUOUS
10
0.651998
20
5.917274
30
0.0
11
0.446483
21
5.948173
31
0.0
0
LINE
8
0
6
CONTINUOUS
10
0.708280
20
5.799347
30
0.0
11
0.651998
21
5.917274
31
0.0
0
LINE
8
0
6
CONTINUOUS
10
-2.071149
20
3.589188
30
0.0
11
-1.871313
21
3.547738
31
0.0
0
LINE
8
0
6
CONTINUOUS
10
-2.108721
20
3.709557
30
0.0
11
-2.071149
21
3.589188
31
0.0
0
LINE
8
0
6
CONTINUOUS
10
-1.946459
20
3.788483
30
0.0
11
-2.108721
21
3.709557
31
0.0
0
LINE
8
0
6
CONTINUOUS
10
-1.746624
20
3.747033
30
0.0
11
-1.946459
21
3.788483
31
0.0
0
LINE
8
0
6
CONTINUOUS
10
-1.709051
20
3.626664
30
0.0
11
-1.746624
21
3.747033
31
0.0
0
LINE
8
0
6
CONTINUOUS
10
-1.871313
20
3.547738
30
0.0
11
-1.709051
21
3.626664
31
0.0
0
LINE
8
0
6
CONTINUOUS
10
-0.167216
20
7.201538
30
0.0
11
0.042167
21
7.180969
31
0.0
0
LINE
8
0
6
CONTINUOUS
10
-0.240978
20
7.316223
30
0.0
11
-0.167216
21
7.201538
31
0.0
0
LINE
8
0
6
CONTINUOUS
10
-0.105356
20
7.410347
30
0.0
11
-0.240978
21
7.316223
31
0.0
0
LINE
8
0
6
CONTINUOUS
10
0.104026
20
7.389785
30
0.0
11
-0.105356
21
7.410347
31
0.0
0
LINE
8
0
6
CONTINUOUS
10
0.177787
20
7.275093
30
0.0
11
0.104026
21
7.389785
31
0.0
0
LINE
8
0
6
CONTINUOUS
10
0.042167
20
7.180969
30
0.0
11
0.177787
21
7.275093
31
0.0
0
LINE
8
0
6
CONTINUOUS
10
-1.826931
20
4.151299
30
0.0
11
-1.989194
21
4.072373
31
0.0
0
LINE
8
0
6
CONTINUOUS
10
-1.627096
20
4.109849
30
0.0
11
-1.826931
21
4.151299
31
0.0
0
LINE
8
0
6
CONTINUOUS
10
-1.589523
20
3.989480
30
0.0
11
-1.627096
21
4.109849
31
0.0
0
LINE
8
0
6
CONTINUOUS
10
-1.751785
20
3.910554
30
0.0
11
-1.589523
21
3.989480
31
0.0
0
LINE
8
0
6
CONTINUOUS
10
-1.951621
20
3.952004
30
0.0
11
-1.751785
21
3.910554
31
0.0
0
LINE
8
0
6
CONTINUOUS
10
-1.989194
20
4.072373
30
0.0
11
-1.951621
21
3.952004
31
0.0
0
LINE
8
0
6
CONTINUOUS
10
0.066557
20
6.458122
30
0.0
11
-0.145651
21
6.452835
31
0.0
0
LINE
8
0
6
CONTINUOUS
10
0.180613
20
6.354950
30
0.0
11
0.066557
21
6.458122
31
0.0
0
LINE
8
0
6
CONTINUOUS
10
0.082461
20
6.246498
30
0.0
11
0.180613
21
6.354950
31
0.0
0
LINE
8
0
6
CONTINUOUS
10
-0.129747
20
6.241203
30
0.0
11
0.082461
21
6.246498
31
0.0
0
LINE
8
0
6
CONTINUOUS
10
-0.243804
20
6.344375
30
0.0
11
-0.129747
21
6.241203
31
0.0
0
LINE
8
0
6
CONTINUOUS
10
-0.145651
20
6.452835
30
0.0
11
-0.243804
21
6.344375
31
0.0
0
LINE
8
0
6
CONTINUOUS
10
1.139307
20
7.162872
30
0.0
11
1.025250
21
7.059700
31
0.0
0
LINE
8
0
6
CONTINUOUS
10
1.351514
20
7.157585
30
0.0
11
1.139307
21
7.162872
31
0.0
0
LINE
8
0
6
CONTINUOUS
10
1.449667
20
7.049133
30
0.0
11
1.351514
21
7.157585
31
0.0
0
LINE
8
0
6
CONTINUOUS
10
1.335610
20
6.945953
30
0.0
11
1.449667
21
7.049133
31
0.0
0
LINE
8
0
6
CONTINUOUS
10
1.123402
20
6.951240
30
0.0
11
1.335610
21
6.945953
31
0.0
0
LINE
8
0
6
CONTINUOUS
10
1.025250
20
7.059700
30
0.0
11
1.123402
21
6.951240
31
0.0
0
LINE
8
0
6
CONTINUOUS
10
2.234498
20
6.793327
30
0.0
11
2.085264
21
6.706291
31
0.0
0
LINE
8
0
6
CONTINUOUS
10
2.440013
20
6.762420
30
0.0
11
2.234498
21
6.793327
31
0.0
0
LINE
8
0
6
CONTINUOUS
10
2.496295
20
6.644493
30
0.0
11
2.440013
21
6.762420
31
0.0
0
LINE
8
0
6
CONTINUOUS
10
2.347059
20
6.557464
30
0.0
11
2.496295
21
6.644493
31
0.0
0
LINE
8
0
6
CONTINUOUS
10
2.141543
20
6.588363
30
0.0
11
2.347059
21
6.557464
31
0.0
0
LINE
8
0
6
CONTINUOUS
10
2.085264
20
6.706291
30
0.0
11
2.141543
21
6.588363
31
0.0
0
LINE
8
0
6
CONTINUOUS
10
-3.928784
20
5.530716
30
0.0
11
-3.728948
21
5.489265
31
0.0
0
LINE
8
0
6
CONTINUOUS
10
-3.966356
20
5.651085
30
0.0
11
-3.928784
21
5.530716
31
0.0
0
LINE
8
0
6
CONTINUOUS
10
-3.804095
20
5.730011
30
0.0
11
-3.966356
21
5.651085
31
0.0
0
LINE
8
0
6
CONTINUOUS
10
-3.604259
20
5.688560
30
0.0
11
-3.804095
21
5.730011
31
0.0
0
LINE
8
0
6
CONTINUOUS
10
-3.566686
20
5.568191
30
0.0
11
-3.604259
21
5.688560
31
0.0
0
LINE
8
0
6
CONTINUOUS
10
-3.728948
20
5.489265
30
0.0
11
-3.566686
21
5.568191
31
0.0
0
LINE
8
0
6
CONTINUOUS
10
-1.732169
20
5.649788
30
0.0
11
-1.921771
21
5.594658
31
0.0
0
LINE
8
0
6
CONTINUOUS
10
-1.554449
20
5.582801
30
0.0
11
-1.732169
21
5.649788
31
0.0
0
LINE
8
0
6
CONTINUOUS
10
-1.566333
20
5.460701
30
0.0
11
-1.554449
21
5.582801
31
0.0
0
LINE
8
0
6
CONTINUOUS
10
-1.755936
20
5.405563
30
0.0
11
-1.566333
21
5.460701
31
0.0
0
LINE
8
0
6
CONTINUOUS
10
-1.933657
20
5.472549
30
0.0
11
-1.755936
21
5.405563
31
0.0
0
LINE
8
0
6
CONTINUOUS
10
-1.921771
20
5.594658
30
0.0
11
-1.933657
21
5.472549
31
0.0
0
LINE
8
0
6
CONTINUOUS
10
2.923973
20
5.946266
30
0.0
11
3.101694
21
6.013244
31
0.0
0
LINE
8
0
6
CONTINUOUS
10
2.734369
20
6.001396
30
0.0
11
2.923973
21
5.946266
31
0.0
0
LINE
8
0
6
CONTINUOUS
10
2.722486
20
6.123497
30
0.0
11
2.734369
21
6.001396
31
0.0
0
LINE
8
0
6
CONTINUOUS
10
2.900206
20
6.190483
30
0.0
11
2.722486
21
6.123497
31
0.0
0
LINE
8
0
6
CONTINUOUS
10
3.089808
20
6.135360
30
0.0
11
2.900206
21
6.190483
31
0.0
0
LINE
8
0
6
CONTINUOUS
10
3.101694
20
6.013244
30
0.0
11
3.089808
21
6.135360
31
0.0
0
LINE
8
0
6
CONTINUOUS
10
-1.202497
20
7.166076
30
0.0
11
-1.414704
21
7.160789
31
0.0
0
LINE
8
0
6
CONTINUOUS
10
-1.088441
20
7.062904
30
0.0
11
-1.202497
21
7.166076
31
0.0
0
LINE
8
0
6
CONTINUOUS
10
-1.186592
20
6.954445
30
0.0
11
-1.088441
21
7.062904
31
0.0
0
LINE
8
0
6
CONTINUOUS
10
-1.398800
20
6.949157
30
0.0
11
-1.186592
21
6.954445
31
0.0
0
LINE
8
0
6
CONTINUOUS
10
-1.512857
20
7.052330
30
0.0
11
-1.398800
21
6.949157
31
0.0
0
LINE
8
0
6
CONTINUOUS
10
-1.414704
20
7.160789
30
0.0
11
-1.512857
21
7.052330
31
0.0
0
LINE
8
0
6
CONTINUOUS
10
0.887529
20
5.228782
30
0.0
11
1.077132
21
5.173652
31
0.0
0
LINE
8
0
6
CONTINUOUS
10
0.875645
20
5.350891
30
0.0
11
0.887529
21
5.228782
31
0.0
0
LINE
8
0
6
CONTINUOUS
10
1.053365
20
5.417877
30
0.0
11
0.875645
21
5.350891
31
0.0
0
LINE
8
0
6
CONTINUOUS
10
1.242967
20
5.362739
30
0.0
11
1.053365
21
5.417877
31
0.0
0
LINE
8
0
6
CONTINUOUS
10
1.254853
20
5.240631
30
0.0
11
1.242967
21
5.362739
31
0.0
0
LINE
8
0
6
CONTINUOUS
10
1.077132
20
5.173652
30
0.0
11
1.254853
21
5.240631
31
0.0
0
LINE
8
0
6
CONTINUOUS
10
-1.837024
20
7.574432
30
0.0
11
-2.049231
21
7.569145
31
0.0
0
LINE
8
0
6
CONTINUOUS
10
-1.722967
20
7.471260
30
0.0
11
-1.837024
21
7.574432
31
0.0
0
LINE
8
0
6
CONTINUOUS
10
-1.821119
20
7.362793
30
0.0
11
-1.722967
21
7.471260
31
0.0
0
LINE
8
0
6
CONTINUOUS
10
-2.033327
20
7.357505
30
0.0
11
-1.821119
21
7.362793
31
0.0
0
LINE
8
0
6
CONTINUOUS
10
-2.147384
20
7.460678
30
0.0
11
-2.033327
21
7.357505
31
0.0
0
LINE
8
0
6
CONTINUOUS
10
-2.049231
20
7.569145
30
0.0
11
-2.147384
21
7.460678
31
0.0
0
LINE
8
0
6
CONTINUOUS
10
-3.108499
20
3.730492
30
0.0
11
-2.908664
21
3.771943
31
0.0
0
LINE
8
0
6
CONTINUOUS
10
-3.270761
20
3.809418
30
0.0
11
-3.108499
21
3.730492
31
0.0
0
LINE
8
0
6
CONTINUOUS
10
-3.233189
20
3.929795
30
0.0
11
-3.270761
21
3.809418
31
0.0
0
LINE
8
0
6
CONTINUOUS
10
-3.033353
20
3.971238
30
0.0
11
-3.233189
21
3.929795
31
0.0
0
LINE
8
0
6
CONTINUOUS
10
-2.871091
20
3.892319
30
0.0
11
-3.033353
21
3.971238
31
0.0
0
LINE
8
0
6
CONTINUOUS
10
-2.908664
20
3.771943
30
0.0
11
-2.871091
21
3.892319
31
0.0
0
LINE
8
0
6
CONTINUOUS
10
-0.758466
20
3.471230
30
0.0
11
-0.920728
21
3.392304
31
0.0
0
LINE
8
0
6
CONTINUOUS
10
-0.558631
20
3.429772
30
0.0
11
-0.758466
21
3.471230
31
0.0
0
LINE
8
0
6
CONTINUOUS
10
-0.521057
20
3.309403
30
0.0
11
-0.558631
21
3.429772
31
0.0
0
LINE
8
0
6
CONTINUOUS
10
-0.683320
20
3.230485
30
0.0
11
-0.521057
21
3.309403
31
0.0
0
LINE
8
0
6
CONTINUOUS
10
-0.883155
20
3.271935
30
0.0
11
-0.683320
21
3.230485
31
0.0
0
LINE
8
0
6
CONTINUOUS
10
-0.920728
20
3.392304
30
0.0
11
-0.883155
21
3.271935
31
0.0
0
LINE
8
0
6
CONTINUOUS
10
-4.384225
20
6.776626
30
0.0
11
-4.396111
21
6.654510
31
0.0
0
LINE
8
0
6
CONTINUOUS
10
-4.194623
20
6.831749
30
0.0
11
-4.384225
21
6.776626
31
0.0
0
LINE
8
0
6
CONTINUOUS
10
-4.016903
20
6.764762
30
0.0
11
-4.194623
21
6.831749
31
0.0
0
LINE
8
0
6
CONTINUOUS
10
-4.028787
20
6.642662
30
0.0
11
-4.016903
21
6.764762
31
0.0
0
LINE
8
0
6
CONTINUOUS
10
-4.218390
20
6.587532
30
0.0
11
-4.028787
21
6.642662
31
0.0
0
LINE
8
0
6
CONTINUOUS
10
-4.396111
20
6.654510
30
0.0
11
-4.218390
21
6.587532
31
0.0
0
LINE
8
0
6
CONTINUOUS
10
3.426508
20
7.460266
30
0.0
11
3.277273
21
7.373237
31
0.0
0
LINE
8
0
6
CONTINUOUS
10
3.632023
20
7.429367
30
0.0
11
3.426508
21
7.460266
31
0.0
0
LINE
8
0
6
CONTINUOUS
10
3.688304
20
7.311439
30
0.0
11
3.632023
21
7.429367
31
0.0
0
LINE
8
0
6
CONTINUOUS
10
3.539069
20
7.224411
30
0.0
11
3.688304
21
7.311439
31
0.0
0
LINE
8
0
6
CONTINUOUS
10
3.333553
20
7.255317
30
0.0
11
3.539069
21
7.224411
31
0.0
0
LINE
8
0
6
CONTINUOUS
10
3.277273
20
7.373237
30
0.0
11
3.333553
21
7.255317
31
0.0
0
LINE
8
0
6
CONTINUOUS
10
-1.990841
20
3.241219
30
0.0
11
-1.828579
21
3.320145
31
0.0
0
LINE
8
0
6
CONTINUOUS
10
-2.190677
20
3.282670
30
0.0
11
-1.990841
21
3.241219
31
0.0
0
LINE
8
0
6
CONTINUOUS
10
-2.228250
20
3.403039
30
0.0
11
-2.190677
21
3.282670
31
0.0
0
LINE
8
0
6
CONTINUOUS
10
-2.065987
20
3.481965
30
0.0
11
-2.228250
21
3.403039
31
0.0
0
LINE
8
0
6
CONTINUOUS
10
-1.866152
20
3.440514
30
0.0
11
-2.065987
21
3.481965
31
0.0
0
LINE
8
0
6
CONTINUOUS
10
-1.828579
20
3.320145
30
0.0
11
-1.866152
21
3.440514
31
0.0
0
LINE
8
0
6
CONTINUOUS
10
2.564232
20
4.517303
30
0.0
11
2.764067
21
4.475845
31
0.0
0
LINE
8
0
6
CONTINUOUS
10
2.526659
20
4.637664
30
0.0
11
2.564232
21
4.517303
31
0.0
0
LINE
8
0
6
CONTINUOUS
10
2.688921
20
4.716591
30
0.0
11
2.526659
21
4.637664
31
0.0
0
LINE
8
0
6
CONTINUOUS
10
2.888757
20
4.675148
30
0.0
11
2.688921
21
4.716591
31
0.0
0
LINE
8
0
6
CONTINUOUS
10
2.926329
20
4.554771
30
0.0
11
2.888757
21
4.675148
31
0.0
0
LINE
8
0
6
CONTINUOUS
10
2.764067
20
4.475845
30
0.0
11
2.926329
21
4.554771
31
0.0
0
LINE
8
0
6
CONTINUOUS
10
3.965596
20
6.629043
30
0.0
11
4.155200
21
6.573913
31
0.0
0
LINE
8
0
6
CONTINUOUS
10
3.953713
20
6.751152
30
0.0
11
3.965596
21
6.629043
31
0.0
0
LINE
8
0
6
CONTINUOUS
10
4.131434
20
6.818122
30
0.0
11
3.953713
21
6.751152
31
0.0
0
LINE
8
0
6
CONTINUOUS
10
4.321035
20
6.763000
30
0.0
11
4.131434
21
6.818122
31
0.0
0
LINE
8
0
6
CONTINUOUS
10
4.332920
20
6.640892
30
0.0
11
4.321035
21
6.763000
31
0.0
0
LINE
8
0
6
CONTINUOUS
10
4.155200
20
6.573913
30
0.0
11
4.332920
21
6.640892
31
0.0
0
LINE
8
0
6
CONTINUOUS
10
2.408360
20
7.969764
30
0.0
11
2.294304
21
7.866592
31
0.0
0
LINE
8
0
6
CONTINUOUS
10
2.620567
20
7.964470
30
0.0
11
2.408360
21
7.969764
31
0.0
0
LINE
8
0
6
CONTINUOUS
10
2.718720
20
7.856010
30
0.0
11
2.620567
21
7.964470
31
0.0
0
LINE
8
0
6
CONTINUOUS
10
2.604663
20
7.752845
30
0.0
11
2.718720
21
7.856010
31
0.0
0
LINE
8
0
6
CONTINUOUS
10
2.392455
20
7.758125
30
0.0
11
2.604663
21
7.752845
31
0.0
0
LINE
8
0
6
CONTINUOUS
10
2.294304
20
7.866592
30
0.0
11
2.392455
21
7.758125
31
0.0
0
LINE
8
0
6
CONTINUOUS
10
-2.410249
20
6.564392
30
0.0
11
-2.204734
21
6.595291
31
0.0
0
LINE
8
0
6
CONTINUOUS
10
-2.559485
20
6.651420
30
0.0
11
-2.410249
21
6.564392
31
0.0
0
LINE
8
0
6
CONTINUOUS
10
-2.503204
20
6.769348
30
0.0
11
-2.559485
21
6.651420
31
0.0
0
LINE
8
0
6
CONTINUOUS
10
-2.297689
20
6.800247
30
0.0
11
-2.503204
21
6.769348
31
0.0
0
LINE
8
0
6
CONTINUOUS
10
-2.148454
20
6.713218
30
0.0
11
-2.297689
21
6.800247
31
0.0
0
LINE
8
0
6
CONTINUOUS
10
-2.204734
20
6.595291
30
0.0
11
-2.148454
21
6.713218
31
0.0
0
LINE
8
0
6
CONTINUOUS
10
2.830504
20
7.134681
30
0.0
11
2.681269
21
7.047653
31
0.0
0
LINE
8
0
6
CONTINUOUS
10
3.036018
20
7.103782
30
0.0
11
2.830504
21
7.134681
31
0.0
0
LINE
8
0
6
CONTINUOUS
10
3.092300
20
6.985855
30
0.0
11
3.036018
21
7.103782
31
0.0
0
LINE
8
0
6
CONTINUOUS
10
2.943064
20
6.898826
30
0.0
11
3.092300
21
6.985855
31
0.0
0
LINE
8
0
6
CONTINUOUS
10
2.737548
20
6.929733
30
0.0
11
2.943064
21
6.898826
31
0.0
0
LINE
8
0
6
CONTINUOUS
10
2.681269
20
7.047653
30
0.0
11
2.737548
21
6.929733
31
0.0
0
LINE
8
0
6
CONTINUOUS
10
-1.306158
20
5.365776
30
0.0
11
-1.318043
21
5.243667
31
0.0
0
LINE
8
0
6
CONTINUOUS
10
-1.116555
20
5.420906
30
0.0
11
-1.306158
21
5.365776
31
0.0
0
LINE
8
0
6
CONTINUOUS
10
-0.938835
20
5.353920
30
0.0
11
-1.116555
21
5.420906
31
0.0
0
LINE
8
0
6
CONTINUOUS
10
-0.950719
20
5.231819
30
0.0
11
-0.938835
21
5.353920
31
0.0
0
LINE
8
0
6
CONTINUOUS
10
-1.140323
20
5.176681
30
0.0
11
-0.950719
21
5.231819
31
0.0
0
LINE
8
0
6
CONTINUOUS
10
-1.318043
20
5.243667
30
0.0
11
-1.140323
21
5.176681
31
0.0
0
LINE
8
0
6
CONTINUOUS
10
-1.512730
20
4.673996
30
0.0
11
-1.350467
21
4.752922
31
0.0
0
LINE
8
0
6
CONTINUOUS
10
-1.712565
20
4.715446
30
0.0
11
-1.512730
21
4.673996
31
0.0
0
LINE
8
0
6
CONTINUOUS
10
-1.750138
20
4.835815
30
0.0
11
-1.712565
21
4.715446
31
0.0
0
LINE
8
0
6
CONTINUOUS
10
-1.587876
20
4.914741
30
0.0
11
-1.750138
21
4.835815
31
0.0
0
LINE
8
0
6
CONTINUOUS
10
-1.388041
20
4.873291
30
0.0
11
-1.587876
21
4.914741
31
0.0
0
LINE
8
0
6
CONTINUOUS
10
-1.350467
20
4.752922
30
0.0
11
-1.388041
21
4.873291
31
0.0
0
LINE
8
0
6
CONTINUOUS
10
1.683434
20
3.748650
30
0.0
11
1.645861
21
3.628274
31
0.0
0
LINE
8
0
6
CONTINUOUS
10
1.883269
20
3.790101
30
0.0
11
1.683434
21
3.748650
31
0.0
0
LINE
8
0
6
CONTINUOUS
10
2.045531
20
3.711182
30
0.0
11
1.883269
21
3.790101
31
0.0
0
LINE
8
0
6
CONTINUOUS
10
2.007958
20
3.590806
30
0.0
11
2.045531
21
3.711182
31
0.0
0
LINE
8
0
6
CONTINUOUS
10
1.808123
20
3.549363
30
0.0
11
2.007958
21
3.590806
31
0.0
0
LINE
8
0
6
CONTINUOUS
10
1.645861
20
3.628274
30
0.0
11
1.808123
21
3.549363
31
0.0
0
LINE
8
0
6
CONTINUOUS
10
0.681211
20
7.836387
30
0.0
11
0.471829
21
7.815826
31
0.0
0
LINE
8
0
6
CONTINUOUS
10
0.816832
20
7.742271
30
0.0
11
0.681211
21
7.836387
31
0.0
0
LINE
8
0
6
CONTINUOUS
10
0.743070
20
7.627578
30
0.0
11
0.816832
21
7.742271
31
0.0
0
LINE
8
0
6
CONTINUOUS
10
0.533688
20
7.607010
30
0.0
11
0.743070
21
7.627578
31
0.0
0
LINE
8
0
6
CONTINUOUS
10
0.398067
20
7.701133
30
0.0
11
0.533688
21
7.607010
31
0.0
0
LINE
8
0
6
CONTINUOUS
10
0.471829
20
7.815826
30
0.0
11
0.398067
21
7.701133
31
0.0
0
LINE
8
0
6
CONTINUOUS
10
3.002165
20
5.434967
30
0.0
11
2.802330
21
5.393516
31
0.0
0
LINE
8
0
6
CONTINUOUS
10
3.164427
20
5.356048
30
0.0
11
3.002165
21
5.434967
31
0.0
0
LINE
8
0
6
CONTINUOUS
10
3.126854
20
5.235672
30
0.0
11
3.164427
21
5.356048
31
0.0
0
LINE
8
0
6
CONTINUOUS
10
2.927019
20
5.194229
30
0.0
11
3.126854
21
5.235672
31
0.0
0
LINE
8
0
6
CONTINUOUS
10
2.764756
20
5.273140
30
0.0
11
2.927019
21
5.194229
31
0.0
0
LINE
8
0
6
CONTINUOUS
10
2.802330
20
5.393516
30
0.0
11
2.764756
21
5.273140
31
0.0
0
LINE
8
0
6
CONTINUOUS
10
-2.326615
20
5.173019
30
0.0
11
-2.488877
21
5.094101
31
0.0
0
LINE
8
0
6
CONTINUOUS
10
-2.126780
20
5.131569
30
0.0
11
-2.326615
21
5.173019
31
0.0
0
LINE
8
0
6
CONTINUOUS
10
-2.089207
20
5.011192
30
0.0
11
-2.126780
21
5.131569
31
0.0
0
LINE
8
0
6
CONTINUOUS
10
-2.251469
20
4.932273
30
0.0
11
-2.089207
21
5.011192
31
0.0
0
LINE
8
0
6
CONTINUOUS
10
-2.451305
20
4.973724
30
0.0
11
-2.251469
21
4.932273
31
0.0
0
LINE
8
0
6
CONTINUOUS
10
-2.488877
20
5.094101
30
0.0
11
-2.451305
21
4.973724
31
0.0
0
LINE
8
0
6
CONTINUOUS
10
-1.218240
20
5.981330
30
0.0
11
-1.012724
21
6.012230
31
0.0
0
LINE
8
0
6
CONTINUOUS
10
-1.367475
20
6.068359
30
0.0
11
-1.218240
21
5.981330
31
0.0
0
LINE
8
0
6
CONTINUOUS
10
-1.311194
20
6.186287
30
0.0
11
-1.367475
21
6.068359
31
0.0
0
LINE
8
0
6
CONTINUOUS
10
-1.105679
20
6.217186
30
0.0
11
-1.311194
21
6.186287
31
0.0
0
LINE
8
0
6
CONTINUOUS
10
-0.956444
20
6.130157
30
0.0
11
-1.105679
21
6.217186
31
0.0
0
LINE
8
0
6
CONTINUOUS
10
-1.012724
20
6.012230
30
0.0
11
-0.956444
21
6.130157
31
0.0
0
LINE
8
0
6
CONTINUOUS
10
0.521515
20
4.230340
30
0.0
11
0.721351
21
4.271790
31
0.0
0
LINE
8
0
6
CONTINUOUS
10
0.359253
20
4.309257
30
0.0
11
0.521515
21
4.230340
31
0.0
0
LINE
8
0
6
CONTINUOUS
10
0.396826
20
4.429634
30
0.0
11
0.359253
21
4.309257
31
0.0
0
LINE
8
0
6
CONTINUOUS
10
0.596661
20
4.471077
30
0.0
11
0.396826
21
4.429634
31
0.0
0
LINE
8
0
6
CONTINUOUS
10
0.758924
20
4.392158
30
0.0
11
0.596661
21
4.471077
31
0.0
0
LINE
8
0
6
CONTINUOUS
10
0.721351
20
4.271790
30
0.0
11
0.758924
21
4.392158
31
0.0
0
LINE
8
0
6
CONTINUOUS
10
2.845474
20
3.754769
30
0.0
11
3.045309
21
3.713311
31
0.0
0
LINE
8
0
6
CONTINUOUS
10
2.807900
20
3.875146
30
0.0
11
2.845474
21
3.754769
31
0.0
0
LINE
8
0
6
CONTINUOUS
10
2.970163
20
3.954056
30
0.0
11
2.807900
21
3.875146
31
0.0
0
LINE
8
0
6
CONTINUOUS
10
3.169998
20
3.912613
30
0.0
11
2.970163
21
3.954056
31
0.0
0
LINE
8
0
6
CONTINUOUS
10
3.207571
20
3.792237
30
0.0
11
3.169998
21
3.912613
31
0.0
0
LINE
8
0
6
CONTINUOUS
10
3.045309
20
3.713311
30
0.0
11
3.207571
21
3.792237
31
0.0
0
LINE
8
0
6
CONTINUOUS
10
3.740904
20
5.718696
30
0.0
11
3.541069
21
5.677253
31
0.0
0
LINE
8
0
6
CONTINUOUS
10
3.903166
20
5.639778
30
0.0
11
3.740904
21
5.718696
31
0.0
0
LINE
8
0
6
CONTINUOUS
10
3.865593
20
5.519401
30
0.0
11
3.903166
21
5.639778
31
0.0
0
LINE
8
0
6
CONTINUOUS
10
3.665758
20
5.477958
30
0.0
11
3.865593
21
5.519401
31
0.0
0
LINE
8
0
6
CONTINUOUS
10
3.503495
20
5.556877
30
0.0
11
3.665758
21
5.477958
31
0.0
0
LINE
8
0
6
CONTINUOUS
10
3.541069
20
5.677253
30
0.0
11
3.503495
21
5.556877
31
0.0
0
LINE
8
0
6
CONTINUOUS
10
-2.963396
20
6.200180
30
0.0
11
-3.152998
21
6.145057
31
0.0
0
LINE
8
0
6
CONTINUOUS
10
-2.785676
20
6.133201
30
0.0
11
-2.963396
21
6.200180
31
0.0
0
LINE
8
0
6
CONTINUOUS
10
-2.797560
20
6.011093
30
0.0
11
-2.785676
21
6.133201
31
0.0
0
LINE
8
0
6
CONTINUOUS
10
-2.987163
20
5.955970
30
0.0
11
-2.797560
21
6.011093
31
0.0
0
LINE
8
0
6
CONTINUOUS
10
-3.164884
20
6.022941
30
0.0
11
-2.987163
21
5.955970
31
0.0
0
LINE
8
0
6
CONTINUOUS
10
-3.152998
20
6.145057
30
0.0
11
-3.164884
21
6.022941
31
0.0
0
LINE
8
0
6
CONTINUOUS
10
4.279809
20
6.032692
30
0.0
11
4.242235
21
5.912315
31
0.0
0
LINE
8
0
6
CONTINUOUS
10
4.479644
20
6.074142
30
0.0
11
4.279809
21
6.032692
31
0.0
0
LINE
8
0
6
CONTINUOUS
10
4.641906
20
5.995216
30
0.0
11
4.479644
21
6.074142
31
0.0
0
LINE
8
0
6
CONTINUOUS
10
4.604333
20
5.874839
30
0.0
11
4.641906
21
5.995216
31
0.0
0
LINE
8
0
6
CONTINUOUS
10
4.404498
20
5.833397
30
0.0
11
4.604333
21
5.874839
31
0.0
0
LINE
8
0
6
CONTINUOUS
10
4.242235
20
5.912315
30
0.0
11
4.404498
21
5.833397
31
0.0
0
LINE
8
0
6
CONTINUOUS
10
-0.617577
20
3.882821
30
0.0
11
-0.455315
21
3.961739
31
0.0
0
LINE
8
0
6
CONTINUOUS
10
-0.817413
20
3.924264
30
0.0
11
-0.617577
21
3.882821
31
0.0
0
LINE
8
0
6
CONTINUOUS
10
-0.854985
20
4.044640
30
0.0
11
-0.817413
21
3.924264
31
0.0
0
LINE
8
0
6
CONTINUOUS
10
-0.692723
20
4.123566
30
0.0
11
-0.854985
21
4.044640
31
0.0
0
LINE
8
0
6
CONTINUOUS
10
-0.492888
20
4.082116
30
0.0
11
-0.692723
21
4.123566
31
0.0
0
LINE
8
0
6
CONTINUOUS
10
-0.455315
20
3.961739
30
0.0
11
-0.492888
21
4.082116
31
0.0
0
LINE
8
0
6
CONTINUOUS
10
0.629533
20
4.122750
30
0.0
11
0.429698
21
4.081299
31
0.0
0
LINE
8
0
6
CONTINUOUS
10
0.791795
20
4.043824
30
0.0
11
0.629533
21
4.122750
31
0.0
0
LINE
8
0
6
CONTINUOUS
10
0.754222
20
3.923455
30
0.0
11
0.791795
21
4.043824
31
0.0
0
LINE
8
0
6
CONTINUOUS
10
0.554387
20
3.882004
30
0.0
11
0.754222
21
3.923455
31
0.0
0
LINE
8
0
6
CONTINUOUS
10
0.392124
20
3.960930
30
0.0
11
0.554387
21
3.882004
31
0.0
0
LINE
8
0
6
CONTINUOUS
10
0.429698
20
4.081299
30
0.0
11
0.392124
21
3.960930
31
0.0
0
LINE
8
0
6
CONTINUOUS
10
-0.850284
20
3.580826
30
0.0
11
-0.650449
21
3.539376
31
0.0
0
LINE
8
0
6
CONTINUOUS
10
-0.887857
20
3.701195
30
0.0
11
-0.850284
21
3.580826
31
0.0
0
LINE
8
0
6
CONTINUOUS
10
-0.725594
20
3.780121
30
0.0
11
-0.887857
21
3.701195
31
0.0
0
LINE
8
0
6
CONTINUOUS
10
-0.525759
20
3.738663
30
0.0
11
-0.725594
21
3.780121
31
0.0
0
LINE
8
0
6
CONTINUOUS
10
-0.488186
20
3.618294
30
0.0
11
-0.525759
21
3.738663
31
0.0
0
LINE
8
0
6
CONTINUOUS
10
-0.650449
20
3.539376
30
0.0
11
-0.488186
21
3.618294
31
0.0
0
LINE
8
0
6
CONTINUOUS
10
-3.539589
20
4.977295
30
0.0
11
-3.739425
21
4.935844
31
0.0
0
LINE
8
0
6
CONTINUOUS
10
-3.377327
20
4.898376
30
0.0
11
-3.539589
21
4.977295
31
0.0
0
LINE
8
0
6
CONTINUOUS
10
-3.414900
20
4.778007
30
0.0
11
-3.377327
21
4.898376
31
0.0
0
LINE
8
0
6
CONTINUOUS
10
-3.614735
20
4.736549
30
0.0
11
-3.414900
21
4.778007
31
0.0
0
LINE
8
0
6
CONTINUOUS
10
-3.776998
20
4.815475
30
0.0
11
-3.614735
21
4.736549
31
0.0
0
LINE
8
0
6
CONTINUOUS
10
-3.739425
20
4.935844
30
0.0
11
-3.776998
21
4.815475
31
0.0
0
LINE
8
0
6
CONTINUOUS
10
1.503143
20
5.455154
30
0.0
11
1.692746
21
5.400024
31
0.0
0
LINE
8
0
6
CONTINUOUS
10
1.491259
20
5.577262
30
0.0
11
1.503143
21
5.455154
31
0.0
0
LINE
8
0
6
CONTINUOUS
10
1.668979
20
5.644249
30
0.0
11
1.491259
21
5.577262
31
0.0
0
LINE
8
0
6
CONTINUOUS
10
1.858581
20
5.589111
30
0.0
11
1.668979
21
5.644249
31
0.0
0
LINE
8
0
6
CONTINUOUS
10
1.870467
20
5.467002
30
0.0
11
1.858581
21
5.589111
31
0.0
0
LINE
8
0
6
CONTINUOUS
10
1.692746
20
5.400024
30
0.0
11
1.870467
21
5.467002
31
0.0
0
LINE
8
0
6
CONTINUOUS
10
1.110874
20
8.264656
30
0.0
11
1.037112
21
8.149963
31
0.0
0
LINE
8
0
6
CONTINUOUS
10
1.320256
20
8.285217
30
0.0
11
1.110874
21
8.264656
31
0.0
0
LINE
8
0
6
CONTINUOUS
10
1.455877
20
8.191093
30
0.0
11
1.320256
21
8.285217
31
0.0
0
LINE
8
0
6
CONTINUOUS
10
1.382115
20
8.076408
30
0.0
11
1.455877
21
8.191093
31
0.0
0
LINE
8
0
6
CONTINUOUS
10
1.172733
20
8.055839
30
0.0
11
1.382115
21
8.076408
31
0.0
0
LINE
8
0
6
CONTINUOUS
10
1.037112
20
8.149963
30
0.0
11
1.172733
21
8.055839
31
0.0
0
LINE
8
0
6
CONTINUOUS
10
-2.951947
20
4.682411
30
0.0
11
-2.989520
21
4.562042
31
0.0
0
LINE
8
0
6
CONTINUOUS
10
-2.752111
20
4.723861
30
0.0
11
-2.951947
21
4.682411
31
0.0
0
LINE
8
0
6
CONTINUOUS
10
-2.589849
20
4.644935
30
0.0
11
-2.752111
21
4.723861
31
0.0
0
LINE
8
0
6
CONTINUOUS
10
-2.627422
20
4.524566
30
0.0
11
-2.589849
21
4.644935
31
0.0
0
LINE
8
0
6
CONTINUOUS
10
-2.827257
20
4.483116
30
0.0
11
-2.627422
21
4.524566
31
0.0
0
LINE
8
0
6
CONTINUOUS
10
-2.989520
20
4.562042
30
0.0
11
-2.827257
21
4.483116
31
0.0
0
LINE
8
0
6
CONTINUOUS
10
-2.471550
20
7.977157
30
0.0
11
-2.683758
21
7.971870
31
0.0
0
LINE
8
0
6
CONTINUOUS
10
-2.357494
20
7.873977
30
0.0
11
-2.471550
21
7.977157
31
0.0
0
LINE
8
0
6
CONTINUOUS
10
-2.455646
20
7.765525
30
0.0
11
-2.357494
21
7.873977
31
0.0
0
LINE
8
0
6
CONTINUOUS
10
-2.667854
20
7.760238
30
0.0
11
-2.455646
21
7.765525
31
0.0
0
LINE
8
0
6
CONTINUOUS
10
-2.781911
20
7.863411
30
0.0
11
-2.667854
21
7.760238
31
0.0
0
LINE
8
0
6
CONTINUOUS
10
-2.683758
20
7.971870
30
0.0
11
-2.781911
21
7.863411
31
0.0
0
LINE
8
0
6
CONTINUOUS
10
3.351710
20
4.767501
30
0.0
11
3.551545
21
4.726051
31
0.0
0
LINE
8
0
6
CONTINUOUS
10
3.314137
20
4.887878
30
0.0
11
3.351710
21
4.767501
31
0.0
0
LINE
8
0
6
CONTINUOUS
10
3.476399
20
4.966796
30
0.0
11
3.314137
21
4.887878
31
0.0
0
LINE
8
0
6
CONTINUOUS
10
3.676234
20
4.925354
30
0.0
11
3.476399
21
4.966796
31
0.0
0
LINE
8
0
6
CONTINUOUS
10
3.713807
20
4.804977
30
0.0
11
3.676234
21
4.925354
31
0.0
0
LINE
8
0
6
CONTINUOUS
10
3.551545
20
4.726051
30
0.0
11
3.713807
21
4.804977
31
0.0
0
LINE
8
0
6
CONTINUOUS
10
-0.584706
20
4.232224
30
0.0
11
-0.422443
21
4.311149
31
0.0
0
LINE
8
0
6
CONTINUOUS
10
-0.784541
20
4.273682
30
0.0
11
-0.584706
21
4.232224
31
0.0
0
LINE
8
0
6
CONTINUOUS
10
-0.822114
20
4.394050
30
0.0
11
-0.784541
21
4.273682
31
0.0
0
LINE
8
0
6
CONTINUOUS
10
-0.659852
20
4.472969
30
0.0
11
-0.822114
21
4.394050
31
0.0
0
LINE
8
0
6
CONTINUOUS
10
-0.460017
20
4.431518
30
0.0
11
-0.659852
21
4.472969
31
0.0
0
LINE
8
0
6
CONTINUOUS
10
-0.422443
20
4.311149
30
0.0
11
-0.460017
21
4.431518
31
0.0
0
LINE
8
0
6
CONTINUOUS
10
-3.148816
20
4.281304
30
0.0
11
-3.186389
21
4.160935
31
0.0
0
LINE
8
0
6
CONTINUOUS
10
-2.948981
20
4.322754
30
0.0
11
-3.148816
21
4.281304
31
0.0
0
LINE
8
0
6
CONTINUOUS
10
-2.786718
20
4.243836
30
0.0
11
-2.948981
21
4.322754
31
0.0
0
LINE
8
0
6
CONTINUOUS
10
-2.824291
20
4.123467
30
0.0
11
-2.786718
21
4.243836
31
0.0
0
LINE
8
0
6
CONTINUOUS
10
-3.024126
20
4.082017
30
0.0
11
-2.824291
21
4.123467
31
0.0
0
LINE
8
0
6
CONTINUOUS
10
-3.186389
20
4.160935
30
0.0
11
-3.024126
21
4.082017
31
0.0
0
LINE
8
0
6
CONTINUOUS
10
0.563790
20
4.818801
30
0.0
11
0.363955
21
4.777351
31
0.0
0
LINE
8
0
6
CONTINUOUS
10
0.726052
20
4.739875
30
0.0
11
0.563790
21
4.818801
31
0.0
0
LINE
8
0
6
CONTINUOUS
10
0.688480
20
4.619506
30
0.0
11
0.726052
21
4.739875
31
0.0
0
LINE
8
0
6
CONTINUOUS
10
0.488644
20
4.578056
30
0.0
11
0.688480
21
4.619506
31
0.0
0
LINE
8
0
6
CONTINUOUS
10
0.326382
20
4.656982
30
0.0
11
0.488644
21
4.578056
31
0.0
0
LINE
8
0
6
CONTINUOUS
10
0.363955
20
4.777351
30
0.0
11
0.326382
21
4.656982
31
0.0
0
LINE
8
0
6
CONTINUOUS
10
1.545538
20
6.296653
30
0.0
11
1.751054
21
6.265754
31
0.0
0
LINE
8
0
6
CONTINUOUS
10
1.489259
20
6.414581
30
0.0
11
1.545538
21
6.296653
31
0.0
0
LINE
8
0
6
CONTINUOUS
10
1.638494
20
6.501617
30
0.0
11
1.489259
21
6.414581
31
0.0
0
LINE
8
0
6
CONTINUOUS
10
1.844008
20
6.470710
30
0.0
11
1.638494
21
6.501617
31
0.0
0
LINE
8
0
6
CONTINUOUS
10
1.900290
20
6.352783
30
0.0
11
1.844008
21
6.470710
31
0.0
0
LINE
8
0
6
CONTINUOUS
10
1.751054
20
6.265754
30
0.0
11
1.900290
21
6.352783
31
0.0
0
LINE
8
0
6
CONTINUOUS
10
1.763741
20
4.152321
30
0.0
11
1.563906
21
4.110871
31
0.0
0
LINE
8
0
6
CONTINUOUS
10
1.926003
20
4.073403
30
0.0
11
1.763741
21
4.152321
31
0.0
0
LINE
8
0
6
CONTINUOUS
10
1.888431
20
3.953034
30
0.0
11
1.926003
21
4.073403
31
0.0
0
LINE
8
0
6
CONTINUOUS
10
1.688595
20
3.911584
30
0.0
11
1.888431
21
3.953034
31
0.0
0
LINE
8
0
6
CONTINUOUS
10
1.526332
20
3.990502
30
0.0
11
1.688595
21
3.911584
31
0.0
0
LINE
8
0
6
CONTINUOUS
10
1.563906
20
4.110871
30
0.0
11
1.526332
21
3.990502
31
0.0
0
LINE
8
0
6
CONTINUOUS
10
4.320127
20
5.310058
30
0.0
11
4.157864
21
5.231132
31
0.0
0
LINE
8
0
6
CONTINUOUS
10
4.519961
20
5.268608
30
0.0
11
4.320127
21
5.310058
31
0.0
0
LINE
8
0
6
CONTINUOUS
10
4.557533
20
5.148239
30
0.0
11
4.519961
21
5.268608
31
0.0
0
LINE
8
0
6
CONTINUOUS
10
4.395271
20
5.069313
30
0.0
11
4.557533
21
5.148239
31
0.0
0
LINE
8
0
6
CONTINUOUS
10
4.195438
20
5.110763
30
0.0
11
4.395271
21
5.069313
31
0.0
0
LINE
8
0
6
CONTINUOUS
10
4.157864
20
5.231132
30
0.0
11
4.195438
21
5.110763
31
0.0
0
LINE
8
0
6
CONTINUOUS
10
-4.467688
20
5.847717
30
0.0
11
-4.305426
21
5.926643
31
0.0
0
LINE
8
0
6
CONTINUOUS
10
-4.667524
20
5.889175
30
0.0
11
-4.467688
21
5.847717
31
0.0
0
LINE
8
0
6
CONTINUOUS
10
-4.705096
20
6.009544
30
0.0
11
-4.667524
21
5.889175
31
0.0
0
LINE
8
0
6
CONTINUOUS
10
-4.542834
20
6.088462
30
0.0
11
-4.705096
21
6.009544
31
0.0
0
LINE
8
0
6
CONTINUOUS
10
-4.342999
20
6.047012
30
0.0
11
-4.542834
21
6.088462
31
0.0
0
LINE
8
0
6
CONTINUOUS
10
-4.305426
20
5.926643
30
0.0
11
-4.342999
21
6.047012
31
0.0
0
LINE
8
0
6
CONTINUOUS
10
1.802962
20
3.396874
30
0.0
11
1.765389
21
3.276505
31
0.0
0
LINE
8
0
6
CONTINUOUS
10
2.002797
20
3.438332
30
0.0
11
1.802962
21
3.396874
31
0.0
0
LINE
8
0
6
CONTINUOUS
10
2.165059
20
3.359406
30
0.0
11
2.002797
21
3.438332
31
0.0
0
LINE
8
0
6
CONTINUOUS
10
2.127486
20
3.239030
30
0.0
11
2.165059
21
3.359406
31
0.0
0
LINE
8
0
6
CONTINUOUS
10
1.927651
20
3.197587
30
0.0
11
2.127486
21
3.239030
31
0.0
0
LINE
8
0
6
CONTINUOUS
10
1.765389
20
3.276505
30
0.0
11
1.927651
21
3.197587
31
0.0
0
LINE
8
0
6
CONTINUOUS
10
-0.715189
20
5.919036
30
0.0
11
-0.771471
21
5.801101
31
0.0
0
LINE
8
0
6
CONTINUOUS
10
-0.509674
20
5.949936
30
0.0
11
-0.715189
21
5.919036
31
0.0
0
LINE
8
0
6
CONTINUOUS
10
-0.360439
20
5.862907
30
0.0
11
-0.509674
21
5.949936
31
0.0
0
LINE
8
0
6
CONTINUOUS
10
-0.416719
20
5.744972
30
0.0
11
-0.360439
21
5.862907
31
0.0
0
LINE
8
0
6
CONTINUOUS
10
-0.622235
20
5.714073
30
0.0
11
-0.416719
21
5.744972
31
0.0
0
LINE
8
0
6
CONTINUOUS
10
-0.771471
20
5.801101
30
0.0
11
-0.622235
21
5.714073
31
0.0
0
LINE
8
0
6
CONTINUOUS
10
0.691730
20
3.878333
30
0.0
11
0.824666
21
3.831184
31
0.0
0
LINE
8
0
6
CONTINUOUS
10
0.662404
20
3.889516
30
0.0
11
0.691730
21
3.878333
31
0.0
0
LINE
8
0
6
CONTINUOUS
10
0.429698
20
4.190126
30
0.0
11
0.392124
21
4.085076
31
0.0
0
LINE
8
0
6
CONTINUOUS
10
0.429698
20
4.190126
30
0.0
11
0.590461
21
4.224756
31
0.0
0
LINE
8
0
6
CONTINUOUS
10
0.590461
20
4.224756
30
0.0
11
0.629533
21
4.233252
31
0.0
0
LINE
8
0
6
CONTINUOUS
10
0.629533
20
4.233252
30
0.0
11
0.647398
21
4.226330
31
0.0
0
LINE
8
0
6
CONTINUOUS
10
0.534190
20
4.567418
30
0.0
11
0.596661
21
4.580779
31
0.0
0
LINE
8
0
6
CONTINUOUS
10
0.396826
20
4.537553
30
0.0
11
0.534190
21
4.567418
31
0.0
0
LINE
8
0
6
CONTINUOUS
10
0.596661
20
4.580779
30
0.0
11
0.758924
21
4.517814
31
0.0
0
LINE
8
0
6
CONTINUOUS
10
-0.650670
20
4.226421
30
0.0
11
-0.492888
21
4.191968
31
0.0
0
LINE
8
0
6
CONTINUOUS
10
-0.626981
20
4.939691
30
0.0
11
-0.427145
21
4.891179
31
0.0
0
LINE
8
0
6
CONTINUOUS
10
-2.948981
20
4.425911
30
0.0
11
-2.791644
21
4.338268
31
0.0
0
LINE
8
0
6
CONTINUOUS
10
-2.791644
20
4.338268
30
0.0
11
-2.786718
21
4.335672
31
0.0
0
LINE
8
0
6
CONTINUOUS
10
-3.148816
20
4.419129
30
0.0
11
-3.167607
21
4.370533
31
0.0
0
LINE
8
0
6
CONTINUOUS
10
-2.951947
20
4.820533
30
0.0
11
-2.989520
21
4.722758
31
0.0
0
LINE
8
0
6
CONTINUOUS
10
-3.467303
20
5.041497
30
0.0
11
-3.377327
21
4.984631
31
0.0
0
LINE
8
0
6
CONTINUOUS
10
-1.826931
20
4.264459
30
0.0
11
-1.627096
21
4.211641
31
0.0
0
LINE
8
0
6
CONTINUOUS
10
-1.922447
20
3.886352
30
0.0
11
-1.746624
21
3.844102
31
0.0
0
LINE
8
0
6
CONTINUOUS
10
-2.108721
20
3.860380
30
0.0
11
-1.946459
21
3.893347
31
0.0
0
LINE
8
0
6
CONTINUOUS
10
-2.091105
20
3.584375
30
0.0
11
-2.065987
21
3.589598
31
0.0
0
LINE
8
0
6
CONTINUOUS
10
-3.723060
20
5.828123
30
0.0
11
-3.604259
21
5.779542
31
0.0
0
LINE
8
0
6
CONTINUOUS
10
-1.324641
20
8.421518
30
0.0
11
-1.174064
21
8.395404
31
0.0
0
LINE
8
0
6
CONTINUOUS
10
-0.247260
20
8.394313
30
0.0
11
-0.183774
21
8.557389
31
0.0
0
LINE
8
0
6
CONTINUOUS
10
-4.305403
20
5.375051
30
0.0
11
-4.221053
21
5.317918
31
0.0
0
LINE
8
0
6
CONTINUOUS
10
-4.383316
20
5.425525
30
0.0
11
-4.305403
21
5.375051
31
0.0
0
LINE
8
0
6
CONTINUOUS
10
-4.583151
20
5.430326
30
0.0
11
-4.620724
21
5.330010
31
0.0
0
LINE
8
0
6
CONTINUOUS
10
3.515819
20
6.599598
30
0.0
11
3.705421
21
6.567608
31
0.0
0
LINE
8
0
6
CONTINUOUS
10
3.712191
20
5.837967
30
0.0
11
3.740904
21
5.848009
31
0.0
0
LINE
8
0
6
CONTINUOUS
10
3.740904
20
5.848009
30
0.0
11
3.844378
21
5.809483
31
0.0
0
LINE
8
0
6
CONTINUOUS
10
2.724131
20
6.205412
30
0.0
11
2.900206
21
6.309936
31
0.0
0
LINE
8
0
6
CONTINUOUS
10
2.900206
20
6.309936
30
0.0
11
3.089808
21
6.284529
31
0.0
0
LINE
8
0
6
CONTINUOUS
10
0.462569
20
3.848190
30
0.0
11
0.424995
21
3.750091
31
0.0
0
LINE
8
0
6
CONTINUOUS
10
1.683434
20
3.852843
30
0.0
11
1.645861
21
3.745590
31
0.0
0
LINE
8
0
6
CONTINUOUS
10
1.058219
20
7.197342
30
0.0
11
1.139307
21
7.290365
31
0.0
0
LINE
8
0
6
CONTINUOUS
10
1.139307
20
7.290365
30
0.0
11
1.351514
21
7.289146
31
0.0
0
LINE
8
0
6
CONTINUOUS
10
0.471829
20
7.936396
30
0.0
11
0.681211
21
7.967169
31
0.0
0
LINE
8
0
6
CONTINUOUS
10
0.504780
20
6.918864
30
0.0
11
0.716987
21
6.919296
31
0.0
0
LINE
8
0
6
CONTINUOUS
10
3.953713
20
6.821798
30
0.0
11
4.131434
21
6.941758
31
0.0
0
LINE
8
0
6
CONTINUOUS
10
4.131434
20
6.941758
30
0.0
11
4.321035
21
6.923185
31
0.0
0
LINE
8
0
6
CONTINUOUS
10
1.668979
20
5.756121
30
0.0
11
1.858581
21
5.721458
31
0.0
0
LINE
8
0
6
CONTINUOUS
10
2.140358
20
5.248474
30
0.0
11
2.263425
21
5.285562
31
0.0
0
LINE
8
0
6
CONTINUOUS
10
2.263425
20
5.285562
30
0.0
11
2.425687
21
5.225050
31
0.0
0
LINE
8
0
6
CONTINUOUS
10
1.491259
20
5.671931
30
0.0
11
1.581108
21
5.715166
31
0.0
0
LINE
8
0
6
CONTINUOUS
10
1.366574
20
4.980026
30
0.0
11
1.524685
21
5.029763
31
0.0
0
LINE
8
0
6
CONTINUOUS
10
2.063590
20
5.224324
30
0.0
11
2.140358
21
5.248474
31
0.0
0
LINE
8
0
6
CONTINUOUS
10
-2.752111
20
4.826047
30
0.0
11
-2.697297
21
4.794880
31
0.0
0
LINE
8
0
6
CONTINUOUS
10
3.002165
20
5.553841
30
0.0
11
3.164427
21
5.503468
31
0.0
0
LINE
8
0
6
CONTINUOUS
10
2.802330
20
5.481407
30
0.0
11
2.979576
21
5.546044
31
0.0
0
LINE
8
0
6
CONTINUOUS
10
1.773833
20
7.688071
30
0.0
11
1.986041
21
7.696230
31
0.0
0
LINE
8
0
6
CONTINUOUS
10
2.234498
20
6.920603
30
0.0
11
2.440013
21
6.904344
31
0.0
0
LINE
8
0
6
CONTINUOUS
10
1.659777
20
7.548559
30
0.0
11
1.753952
21
7.665108
31
0.0
0
LINE
8
0
6
CONTINUOUS
10
3.277273
20
7.465922
30
0.0
11
3.415892
21
7.570534
31
0.0
0
LINE
8
0
6
CONTINUOUS
10
2.681269
20
7.119283
30
0.0
11
2.830504
21
7.253333
31
0.0
0
LINE
8
0
6
CONTINUOUS
10
2.830504
20
7.253333
30
0.0
11
3.036018
21
7.254141
31
0.0
0
LINE
8
0
6
CONTINUOUS
10
1.802962
20
3.491865
30
0.0
11
1.800939
21
3.486542
31
0.0
0
LINE
8
0
6
CONTINUOUS
10
1.802962
20
3.491865
30
0.0
11
2.002797
21
3.548771
31
0.0
0
LINE
8
0
6
CONTINUOUS
10
0.495440
20
3.529023
30
0.0
11
0.486049
21
3.506078
31
0.0
0
LINE
8
0
6
CONTINUOUS
10
0.695275
20
3.566367
30
0.0
11
0.718781
21
3.558478
31
0.0
0
LINE
8
0
6
CONTINUOUS
10
0.486049
20
3.506078
30
0.0
11
0.457867
21
3.433764
31
0.0
0
LINE
8
0
6
CONTINUOUS
10
1.763426
20
4.593592
30
0.0
11
1.806476
21
4.579650
31
0.0
0
LINE
8
0
6
CONTINUOUS
10
1.444378
20
4.581028
30
0.0
11
1.644214
21
4.633153
31
0.0
0
LINE
8
0
6
CONTINUOUS
10
1.644214
20
4.633153
30
0.0
11
1.763426
21
4.593592
31
0.0
0
LINE
8
0
6
CONTINUOUS
10
0.875645
20
5.461770
30
0.0
11
1.053365
21
5.533739
31
0.0
0
LINE
8
0
6
CONTINUOUS
10
1.053365
20
5.533739
30
0.0
11
1.242967
21
5.485111
31
0.0
0
LINE
8
0
6
CONTINUOUS
10
1.324850
20
4.970135
30
0.0
11
1.305495
21
4.908096
31
0.0
0
LINE
8
0
6
CONTINUOUS
10
1.324850
20
4.970135
30
0.0
11
1.366574
21
4.980026
31
0.0
0
LINE
8
0
6
CONTINUOUS
10
0.896237
20
6.237684
30
0.0
11
1.042489
21
6.338137
31
0.0
0
LINE
8
0
6
CONTINUOUS
10
1.042489
20
6.338137
30
0.0
11
1.248004
21
6.309007
31
0.0
0
LINE
8
0
6
CONTINUOUS
10
0.446483
20
6.072506
30
0.0
11
0.651998
21
6.044654
31
0.0
0
LINE
8
0
6
CONTINUOUS
10
-3.840361
20
4.660266
30
0.0
11
-3.757004
21
4.608283
31
0.0
0
LINE
8
0
6
CONTINUOUS
10
-3.919266
20
4.707292
30
0.0
11
-3.840361
21
4.660266
31
0.0
0
LINE
8
0
6
CONTINUOUS
10
4.433191
20
6.181158
30
0.0
11
4.479644
21
6.200012
31
0.0
0
LINE
8
0
6
CONTINUOUS
10
4.279809
20
6.110791
30
0.0
11
4.433191
21
6.181158
31
0.0
0
LINE
8
0
6
CONTINUOUS
10
4.479644
20
6.200012
30
0.0
11
4.641906
21
6.154161
31
0.0
0
LINE
8
0
6
CONTINUOUS
10
2.284592
20
6.032192
30
0.0
11
2.474194
21
5.992599
31
0.0
0
LINE
8
0
6
CONTINUOUS
10
1.489259
20
6.501865
30
0.0
11
1.638494
21
6.618422
31
0.0
0
LINE
8
0
6
CONTINUOUS
10
1.739972
20
6.613366
30
0.0
11
1.844008
21
6.604861
31
0.0
0
LINE
8
0
6
CONTINUOUS
10
1.638494
20
6.618422
30
0.0
11
1.739972
21
6.613366
31
0.0
0
ENDSEC
0
EOF
