999
unknown String-ID: 20550
0
SECTION
2
HEADER
9
$ACADVER
1
AC1009
9
$DWGCODEPAGE
3
unknown String-ID: 20561
0
ENDSEC
0
SECTION
2
TABLES
0
TABLE
2
LAYER
70
1
0
LAYER
2
0
70
0
62
7
6
CONTINUOUS
0
ENDTAB
0
ENDSEC
0
SECTION
2
ENTITIES
0
LINE
8
0
6
CONTINUOUS
10
1.533633
20
-3.593798
30
0.0
11
1.533633
21
-3.393906
31
0.0
0
LINE
8
0
6
CONTINUOUS
10
1.667737
20
-3.593798
30
0.0
11
1.533633
21
-3.593798
31
0.0
0
LINE
8
0
6
CONTINUOUS
10
1.667737
20
-3.593798
30
0.0
11
1.667737
21
-3.355775
31
0.0
0
LINE
8
0
6
CONTINUOUS
10
1.967194
20
-3.593798
30
0.0
11
1.667737
21
-3.593798
31
0.0
0
LINE
8
0
6
CONTINUOUS
10
1.967194
20
-3.593798
30
0.0
11
2.132547
21
-3.593798
31
0.0
0
LINE
8
0
6
CONTINUOUS
10
1.667737
20
-3.593798
30
0.0
11
1.967194
21
-3.593798
31
0.0
0
LINE
8
0
6
CONTINUOUS
10
1.533633
20
-3.593798
30
0.0
11
1.667737
21
-3.593798
31
0.0
0
LINE
8
0
6
CONTINUOUS
10
1.967194
20
-3.593798
30
0.0
11
1.967194
21
-3.342907
31
0.0
0
LINE
8
0
6
CONTINUOUS
10
2.132547
20
-3.593798
30
0.0
11
1.967194
21
-3.593798
31
0.0
0
LINE
8
0
6
CONTINUOUS
10
2.132547
20
-3.370252
30
0.0
11
2.132547
21
-3.593798
31
0.0
0
LINE
8
0
6
CONTINUOUS
10
7.184027
20
-3.591403
30
0.0
11
7.184027
21
-3.421578
31
0.0
0
LINE
8
0
6
CONTINUOUS
10
7.268835
20
-3.591403
30
0.0
11
7.184027
21
-3.591403
31
0.0
0
LINE
8
0
6
CONTINUOUS
10
7.268835
20
-3.591403
30
0.0
11
7.268835
21
-3.394623
31
0.0
0
LINE
8
0
6
CONTINUOUS
10
7.560448
20
-3.591403
30
0.0
11
7.268835
21
-3.591403
31
0.0
0
LINE
8
0
6
CONTINUOUS
10
7.560448
20
-3.591403
30
0.0
11
7.560448
21
-3.355243
31
0.0
0
LINE
8
0
6
CONTINUOUS
10
7.767253
20
-3.591403
30
0.0
11
7.560448
21
-3.591403
31
0.0
0
LINE
8
0
6
CONTINUOUS
10
7.560448
20
-3.591403
30
0.0
11
7.767253
21
-3.591403
31
0.0
0
LINE
8
0
6
CONTINUOUS
10
7.268835
20
-3.591403
30
0.0
11
7.560448
21
-3.591403
31
0.0
0
LINE
8
0
6
CONTINUOUS
10
7.184027
20
-3.591403
30
0.0
11
7.268835
21
-3.591403
31
0.0
0
LINE
8
0
6
CONTINUOUS
10
7.767253
20
-3.591403
30
0.0
11
7.767253
21
-3.342816
31
0.0
0
LINE
8
0
6
CONTINUOUS
10
6.272135
20
-3.592125
30
0.0
11
6.272135
21
-3.422970
31
0.0
0
LINE
8
0
6
CONTINUOUS
10
6.294438
20
-3.592125
30
0.0
11
6.272135
21
-3.592125
31
0.0
0
LINE
8
0
6
CONTINUOUS
10
6.294438
20
-3.592125
30
0.0
11
6.294438
21
-3.394107
31
0.0
0
LINE
8
0
6
CONTINUOUS
10
6.564678
20
-3.592125
30
0.0
11
6.294438
21
-3.592125
31
0.0
0
LINE
8
0
6
CONTINUOUS
10
6.564678
20
-3.592125
30
0.0
11
6.564678
21
-3.354056
31
0.0
0
LINE
8
0
6
CONTINUOUS
10
6.812614
20
-3.592125
30
0.0
11
6.564678
21
-3.592125
31
0.0
0
LINE
8
0
6
CONTINUOUS
10
6.564678
20
-3.592125
30
0.0
11
6.812614
21
-3.592125
31
0.0
0
LINE
8
0
6
CONTINUOUS
10
6.294438
20
-3.592125
30
0.0
11
6.564678
21
-3.592125
31
0.0
0
LINE
8
0
6
CONTINUOUS
10
6.272135
20
-3.592125
30
0.0
11
6.294438
21
-3.592125
31
0.0
0
LINE
8
0
6
CONTINUOUS
10
6.812614
20
-3.592125
30
0.0
11
6.812614
21
-3.342869
31
0.0
0
LINE
8
0
6
CONTINUOUS
10
4.975224
20
-3.590565
30
0.0
11
4.975224
21
-3.392461
31
0.0
0
LINE
8
0
6
CONTINUOUS
10
5.211969
20
-3.590565
30
0.0
11
4.975224
21
-3.590565
31
0.0
0
LINE
8
0
6
CONTINUOUS
10
5.211969
20
-3.590565
30
0.0
11
5.211969
21
-3.352917
31
0.0
0
LINE
8
0
6
CONTINUOUS
10
5.489915
20
-3.590565
30
0.0
11
5.211969
21
-3.590565
31
0.0
0
LINE
8
0
6
CONTINUOUS
10
5.489915
20
-3.590565
30
0.0
11
5.531119
21
-3.590565
31
0.0
0
LINE
8
0
6
CONTINUOUS
10
5.211969
20
-3.590565
30
0.0
11
5.487018
21
-3.590565
31
0.0
0
LINE
8
0
6
CONTINUOUS
10
4.975224
20
-3.590565
30
0.0
11
5.211969
21
-3.590565
31
0.0
0
LINE
8
0
6
CONTINUOUS
10
5.489915
20
-3.590565
30
0.0
11
5.489915
21
-3.340907
31
0.0
0
LINE
8
0
6
CONTINUOUS
10
5.531119
20
-3.590565
30
0.0
11
5.489915
21
-3.590565
31
0.0
0
LINE
8
0
6
CONTINUOUS
10
5.531119
20
-3.369492
30
0.0
11
5.531119
21
-3.590565
31
0.0
0
LINE
8
0
6
CONTINUOUS
10
8.317366
20
-3.585738
30
0.0
11
8.298124
21
-3.585738
31
0.0
0
LINE
8
0
6
CONTINUOUS
10
8.317366
20
-3.585738
30
0.0
11
8.317366
21
-3.357960
31
0.0
0
LINE
8
0
6
CONTINUOUS
10
8.410194
20
-3.585738
30
0.0
11
8.317366
21
-3.585738
31
0.0
0
LINE
8
0
6
CONTINUOUS
10
8.317366
20
-3.585738
30
0.0
11
8.410194
21
-3.585738
31
0.0
0
LINE
8
0
6
CONTINUOUS
10
8.298124
20
-3.585738
30
0.0
11
8.317366
21
-3.585738
31
0.0
0
LINE
8
0
6
CONTINUOUS
10
8.410194
20
-3.585738
30
0.0
11
8.410194
21
-3.345227
31
0.0
0
LINE
8
0
6
CONTINUOUS
10
3.381077
20
-3.599074
30
0.0
11
3.381077
21
-3.400470
31
0.0
0
LINE
8
0
6
CONTINUOUS
10
3.573706
20
-3.599074
30
0.0
11
3.381077
21
-3.599074
31
0.0
0
LINE
8
0
6
CONTINUOUS
10
3.573706
20
-3.599074
30
0.0
11
3.573706
21
-3.361295
31
0.0
0
LINE
8
0
6
CONTINUOUS
10
3.869195
20
-3.599074
30
0.0
11
3.573706
21
-3.599074
31
0.0
0
LINE
8
0
6
CONTINUOUS
10
3.869195
20
-3.599074
30
0.0
11
3.972055
21
-3.599074
31
0.0
0
LINE
8
0
6
CONTINUOUS
10
3.573706
20
-3.599074
30
0.0
11
3.869195
21
-3.599074
31
0.0
0
LINE
8
0
6
CONTINUOUS
10
3.381077
20
-3.599074
30
0.0
11
3.573706
21
-3.599074
31
0.0
0
LINE
8
0
6
CONTINUOUS
10
3.869195
20
-3.599074
30
0.0
11
3.869195
21
-3.348441
31
0.0
0
LINE
8
0
6
CONTINUOUS
10
3.972055
20
-3.599074
30
0.0
11
3.869195
21
-3.599074
31
0.0
0
LINE
8
0
6
CONTINUOUS
10
3.972055
20
-3.377014
30
0.0
11
3.972055
21
-3.599074
31
0.0
0
LINE
8
0
6
CONTINUOUS
10
2.239082
20
-3.716239
30
0.0
11
2.239082
21
-3.519370
31
0.0
0
LINE
8
0
6
CONTINUOUS
10
2.385555
20
-3.716239
30
0.0
11
2.239082
21
-3.716239
31
0.0
0
LINE
8
0
6
CONTINUOUS
10
2.385555
20
-3.716239
30
0.0
11
2.385555
21
-3.484076
31
0.0
0
LINE
8
0
6
CONTINUOUS
10
2.652584
20
-3.716239
30
0.0
11
2.385555
21
-3.716239
31
0.0
0
LINE
8
0
6
CONTINUOUS
10
2.652584
20
-3.716239
30
0.0
11
2.773140
21
-3.716239
31
0.0
0
LINE
8
0
6
CONTINUOUS
10
2.385555
20
-3.716239
30
0.0
11
2.652584
21
-3.716239
31
0.0
0
LINE
8
0
6
CONTINUOUS
10
2.239082
20
-3.716239
30
0.0
11
2.385555
21
-3.716239
31
0.0
0
LINE
8
0
6
CONTINUOUS
10
2.652584
20
-3.716239
30
0.0
11
2.652584
21
-3.471739
31
0.0
0
LINE
8
0
6
CONTINUOUS
10
2.773140
20
-3.716239
30
0.0
11
2.652584
21
-3.716239
31
0.0
0
LINE
8
0
6
CONTINUOUS
10
2.773140
20
-3.494696
30
0.0
11
2.773140
21
-3.716239
31
0.0
0
LINE
8
0
6
CONTINUOUS
10
7.384602
20
-3.709883
30
0.0
11
7.195621
21
-3.709883
31
0.0
0
LINE
8
0
6
CONTINUOUS
10
7.384602
20
-3.709883
30
0.0
11
7.384602
21
-3.485902
31
0.0
0
LINE
8
0
6
CONTINUOUS
10
7.496640
20
-3.709883
30
0.0
11
7.384602
21
-3.709883
31
0.0
0
LINE
8
0
6
CONTINUOUS
10
7.384602
20
-3.709883
30
0.0
11
7.496640
21
-3.709883
31
0.0
0
LINE
8
0
6
CONTINUOUS
10
7.195621
20
-3.709883
30
0.0
11
7.384602
21
-3.709883
31
0.0
0
LINE
8
0
6
CONTINUOUS
10
3.748142
20
-3.711460
30
0.0
11
3.748142
21
-3.515395
31
0.0
0
LINE
8
0
6
CONTINUOUS
10
3.938457
20
-3.711460
30
0.0
11
3.748142
21
-3.711460
31
0.0
0
LINE
8
0
6
CONTINUOUS
10
4.196346
20
-3.711460
30
0.0
11
3.938457
21
-3.711460
31
0.0
0
LINE
8
0
6
CONTINUOUS
10
4.196346
20
-3.711460
30
0.0
11
4.263921
21
-3.711460
31
0.0
0
LINE
8
0
6
CONTINUOUS
10
3.938457
20
-3.711460
30
0.0
11
4.196346
21
-3.711460
31
0.0
0
LINE
8
0
6
CONTINUOUS
10
3.748142
20
-3.711460
30
0.0
11
3.938457
21
-3.711460
31
0.0
0
LINE
8
0
6
CONTINUOUS
10
4.196346
20
-3.711460
30
0.0
11
4.196346
21
-3.466392
31
0.0
0
LINE
8
0
6
CONTINUOUS
10
4.263921
20
-3.711460
30
0.0
11
4.196346
21
-3.711460
31
0.0
0
LINE
8
0
6
CONTINUOUS
10
4.263921
20
-3.488349
30
0.0
11
4.263921
21
-3.711460
31
0.0
0
LINE
8
0
6
CONTINUOUS
10
5.055840
20
-3.709992
30
0.0
11
5.055840
21
-3.514032
31
0.0
0
LINE
8
0
6
CONTINUOUS
10
5.281459
20
-3.709992
30
0.0
11
5.055840
21
-3.709992
31
0.0
0
LINE
8
0
6
CONTINUOUS
10
5.281459
20
-3.709992
30
0.0
11
5.281459
21
-3.478716
31
0.0
0
LINE
8
0
6
CONTINUOUS
10
5.518639
20
-3.709992
30
0.0
11
5.281459
21
-3.709992
31
0.0
0
LINE
8
0
6
CONTINUOUS
10
5.518639
20
-3.709992
30
0.0
11
5.530202
21
-3.709992
31
0.0
0
LINE
8
0
6
CONTINUOUS
10
5.281459
20
-3.709992
30
0.0
11
5.518639
21
-3.709992
31
0.0
0
LINE
8
0
6
CONTINUOUS
10
5.055840
20
-3.709992
30
0.0
11
5.281459
21
-3.709992
31
0.0
0
LINE
8
0
6
CONTINUOUS
10
5.530202
20
-3.709992
30
0.0
11
5.518639
21
-3.709992
31
0.0
0
LINE
8
0
6
CONTINUOUS
10
5.530202
20
-3.487541
30
0.0
11
5.530202
21
-3.709992
31
0.0
0
LINE
8
0
6
CONTINUOUS
10
6.038111
20
-3.710675
30
0.0
11
6.038111
21
-3.535663
31
0.0
0
LINE
8
0
6
CONTINUOUS
10
6.083079
20
-3.710675
30
0.0
11
6.038111
21
-3.710675
31
0.0
0
LINE
8
0
6
CONTINUOUS
10
6.083079
20
-3.710675
30
0.0
11
6.083079
21
-3.516038
31
0.0
0
LINE
8
0
6
CONTINUOUS
10
6.333884
20
-3.710675
30
0.0
11
6.083079
21
-3.710675
31
0.0
0
LINE
8
0
6
CONTINUOUS
10
6.333884
20
-3.710675
30
0.0
11
6.333884
21
-3.622117
31
0.0
0
LINE
8
0
6
CONTINUOUS
10
6.539718
20
-3.710675
30
0.0
11
6.333884
21
-3.710675
31
0.0
0
LINE
8
0
6
CONTINUOUS
10
6.333884
20
-3.710675
30
0.0
11
6.539718
21
-3.710675
31
0.0
0
LINE
8
0
6
CONTINUOUS
10
6.083079
20
-3.710675
30
0.0
11
6.333884
21
-3.710675
31
0.0
0
LINE
8
0
6
CONTINUOUS
10
6.038111
20
-3.710675
30
0.0
11
6.083079
21
-3.710675
31
0.0
0
LINE
8
0
6
CONTINUOUS
10
6.539718
20
-3.710675
30
0.0
11
6.539718
21
-3.599328
31
0.0
0
LINE
8
0
6
CONTINUOUS
10
0.534819
20
-3.708687
30
0.0
11
0.534819
21
-3.510404
31
0.0
0
LINE
8
0
6
CONTINUOUS
10
0.625462
20
-3.708687
30
0.0
11
0.534819
21
-3.708687
31
0.0
0
LINE
8
0
6
CONTINUOUS
10
0.625462
20
-3.708687
30
0.0
11
0.625462
21
-3.475267
31
0.0
0
LINE
8
0
6
CONTINUOUS
10
0.888693
20
-3.708687
30
0.0
11
0.625462
21
-3.708687
31
0.0
0
LINE
8
0
6
CONTINUOUS
10
0.888693
20
-3.708687
30
0.0
11
1.061280
21
-3.708687
31
0.0
0
LINE
8
0
6
CONTINUOUS
10
0.625462
20
-3.708687
30
0.0
11
0.888693
21
-3.708687
31
0.0
0
LINE
8
0
6
CONTINUOUS
10
0.534819
20
-3.708687
30
0.0
11
0.625462
21
-3.708687
31
0.0
0
LINE
8
0
6
CONTINUOUS
10
0.888693
20
-3.708687
30
0.0
11
0.888693
21
-3.464344
31
0.0
0
LINE
8
0
6
CONTINUOUS
10
1.061280
20
-3.708687
30
0.0
11
0.888693
21
-3.708687
31
0.0
0
LINE
8
0
6
CONTINUOUS
10
1.061280
20
-3.488557
30
0.0
11
1.061280
21
-3.708687
31
0.0
0
LINE
8
0
6
CONTINUOUS
10
6.666144
20
-3.712977
30
0.0
11
6.666144
21
-3.584448
31
0.0
0
LINE
8
0
6
CONTINUOUS
10
6.765627
20
-3.712977
30
0.0
11
6.666144
21
-3.712977
31
0.0
0
LINE
8
0
6
CONTINUOUS
10
6.765627
20
-3.712977
30
0.0
11
6.765627
21
-3.570803
31
0.0
0
LINE
8
0
6
CONTINUOUS
10
7.030365
20
-3.712977
30
0.0
11
6.765627
21
-3.712977
31
0.0
0
LINE
8
0
6
CONTINUOUS
10
7.030365
20
-3.712977
30
0.0
11
7.030365
21
-3.480011
31
0.0
0
LINE
8
0
6
CONTINUOUS
10
7.195621
20
-3.712977
30
0.0
11
7.030365
21
-3.712977
31
0.0
0
LINE
8
0
6
CONTINUOUS
10
7.030365
20
-3.712977
30
0.0
11
7.195621
21
-3.712977
31
0.0
0
LINE
8
0
6
CONTINUOUS
10
6.765627
20
-3.712977
30
0.0
11
7.030365
21
-3.712977
31
0.0
0
LINE
8
0
6
CONTINUOUS
10
6.666144
20
-3.712977
30
0.0
11
6.765627
21
-3.712977
31
0.0
0
LINE
8
0
6
CONTINUOUS
10
7.195621
20
-3.712977
30
0.0
11
7.195621
21
-3.511823
31
0.0
0
LINE
8
0
6
CONTINUOUS
10
5.217639
20
-3.902353
30
0.0
11
5.217639
21
-3.745701
31
0.0
0
LINE
8
0
6
CONTINUOUS
10
5.301546
20
-3.902353
30
0.0
11
5.217639
21
-3.902353
31
0.0
0
LINE
8
0
6
CONTINUOUS
10
5.301546
20
-3.902353
30
0.0
11
5.301546
21
-3.736411
31
0.0
0
LINE
8
0
6
CONTINUOUS
10
5.503985
20
-3.902353
30
0.0
11
5.301546
21
-3.902353
31
0.0
0
LINE
8
0
6
CONTINUOUS
10
5.503985
20
-3.902353
30
0.0
11
5.503985
21
-3.713999
31
0.0
0
LINE
8
0
6
CONTINUOUS
10
5.622520
20
-3.902353
30
0.0
11
5.503985
21
-3.902353
31
0.0
0
LINE
8
0
6
CONTINUOUS
10
5.503985
20
-3.902353
30
0.0
11
5.622520
21
-3.902353
31
0.0
0
LINE
8
0
6
CONTINUOUS
10
5.301546
20
-3.902353
30
0.0
11
5.503985
21
-3.902353
31
0.0
0
LINE
8
0
6
CONTINUOUS
10
5.217639
20
-3.902353
30
0.0
11
5.301546
21
-3.902353
31
0.0
0
LINE
8
0
6
CONTINUOUS
10
5.622520
20
-3.902353
30
0.0
11
5.622520
21
-3.671231
31
0.0
0
LINE
8
0
6
CONTINUOUS
10
1.352750
20
-3.910376
30
0.0
11
1.275449
21
-3.910376
31
0.0
0
LINE
8
0
6
CONTINUOUS
10
1.554357
20
-3.910376
30
0.0
11
1.352750
21
-3.910376
31
0.0
0
LINE
8
0
6
CONTINUOUS
10
1.554357
20
-3.910376
30
0.0
11
1.678662
21
-3.910376
31
0.0
0
LINE
8
0
6
CONTINUOUS
10
1.352750
20
-3.910376
30
0.0
11
1.553037
21
-3.910376
31
0.0
0
LINE
8
0
6
CONTINUOUS
10
1.275449
20
-3.910376
30
0.0
11
1.352750
21
-3.910376
31
0.0
0
LINE
8
0
6
CONTINUOUS
10
1.678662
20
-3.910376
30
0.0
11
1.554357
21
-3.910376
31
0.0
0
LINE
8
0
6
CONTINUOUS
10
4.705958
20
-3.908338
30
0.0
11
4.705958
21
-3.722100
31
0.0
0
LINE
8
0
6
CONTINUOUS
10
4.748955
20
-3.908338
30
0.0
11
4.705958
21
-3.908338
31
0.0
0
LINE
8
0
6
CONTINUOUS
10
4.748955
20
-3.908338
30
0.0
11
4.748955
21
-3.704221
31
0.0
0
LINE
8
0
6
CONTINUOUS
10
4.942645
20
-3.908338
30
0.0
11
4.748955
21
-3.908338
31
0.0
0
LINE
8
0
6
CONTINUOUS
10
4.942645
20
-3.908338
30
0.0
11
4.942645
21
-3.681254
31
0.0
0
LINE
8
0
6
CONTINUOUS
10
5.093337
20
-3.908338
30
0.0
11
4.942645
21
-3.908338
31
0.0
0
LINE
8
0
6
CONTINUOUS
10
4.942645
20
-3.908338
30
0.0
11
5.093337
21
-3.908338
31
0.0
0
LINE
8
0
6
CONTINUOUS
10
4.748955
20
-3.908338
30
0.0
11
4.942645
21
-3.908338
31
0.0
0
LINE
8
0
6
CONTINUOUS
10
4.705958
20
-3.908338
30
0.0
11
4.748955
21
-3.908338
31
0.0
0
LINE
8
0
6
CONTINUOUS
10
5.093337
20
-3.908338
30
0.0
11
5.093337
21
-3.759463
31
0.0
0
LINE
8
0
6
CONTINUOUS
10
3.836782
20
-3.908189
30
0.0
11
3.836782
21
-3.703978
31
0.0
0
LINE
8
0
6
CONTINUOUS
10
4.013033
20
-3.908189
30
0.0
11
3.836782
21
-3.908189
31
0.0
0
LINE
8
0
6
CONTINUOUS
10
4.013033
20
-3.908189
30
0.0
11
4.013033
21
-3.853892
31
0.0
0
LINE
8
0
6
CONTINUOUS
10
4.189123
20
-3.908189
30
0.0
11
4.013033
21
-3.908189
31
0.0
0
LINE
8
0
6
CONTINUOUS
10
4.013033
20
-3.908189
30
0.0
11
4.189123
21
-3.908189
31
0.0
0
LINE
8
0
6
CONTINUOUS
10
3.836782
20
-3.908189
30
0.0
11
4.013033
21
-3.908189
31
0.0
0
LINE
8
0
6
CONTINUOUS
10
4.189123
20
-3.908189
30
0.0
11
4.189123
21
-3.842083
31
0.0
0
LINE
8
0
6
CONTINUOUS
10
2.842510
20
-3.910480
30
0.0
11
2.691604
21
-3.910480
31
0.0
0
LINE
8
0
6
CONTINUOUS
10
3.036102
20
-3.910480
30
0.0
11
2.842510
21
-3.910480
31
0.0
0
LINE
8
0
6
CONTINUOUS
10
3.036102
20
-3.910480
30
0.0
11
3.078787
21
-3.910480
31
0.0
0
LINE
8
0
6
CONTINUOUS
10
2.842510
20
-3.910480
30
0.0
11
3.036102
21
-3.910480
31
0.0
0
LINE
8
0
6
CONTINUOUS
10
2.691604
20
-3.910480
30
0.0
11
2.842510
21
-3.910480
31
0.0
0
LINE
8
0
6
CONTINUOUS
10
3.078787
20
-3.910480
30
0.0
11
3.036102
21
-3.910480
31
0.0
0
LINE
8
0
6
CONTINUOUS
10
5.578852
20
-3.905777
30
0.0
11
5.454295
21
-3.905777
31
0.0
0
LINE
8
0
6
CONTINUOUS
10
5.780417
20
-3.905777
30
0.0
11
5.578852
21
-3.905777
31
0.0
0
LINE
8
0
6
CONTINUOUS
10
5.857422
20
-3.905777
30
0.0
11
5.780417
21
-3.905777
31
0.0
0
LINE
8
0
6
CONTINUOUS
10
5.780417
20
-3.905777
30
0.0
11
5.857422
21
-3.905777
31
0.0
0
LINE
8
0
6
CONTINUOUS
10
5.578852
20
-3.905777
30
0.0
11
5.780417
21
-3.905777
31
0.0
0
LINE
8
0
6
CONTINUOUS
10
5.454295
20
-3.905777
30
0.0
11
5.578852
21
-3.905777
31
0.0
0
LINE
8
0
6
CONTINUOUS
10
-0.200666
20
-4.008335
30
0.0
11
-0.200666
21
-3.946405
31
0.0
0
LINE
8
0
6
CONTINUOUS
10
-0.164726
20
-4.008335
30
0.0
11
-0.200666
21
-4.008335
31
0.0
0
LINE
8
0
6
CONTINUOUS
10
-0.164726
20
-4.008335
30
0.0
11
-0.164726
21
-3.946405
31
0.0
0
LINE
8
0
6
CONTINUOUS
10
0.026645
20
-4.008335
30
0.0
11
-0.164726
21
-4.008335
31
0.0
0
LINE
8
0
6
CONTINUOUS
10
0.026645
20
-4.008335
30
0.0
11
0.182074
21
-4.008335
31
0.0
0
LINE
8
0
6
CONTINUOUS
10
-0.164726
20
-4.008335
30
0.0
11
0.026645
21
-4.008335
31
0.0
0
LINE
8
0
6
CONTINUOUS
10
-0.200666
20
-4.008335
30
0.0
11
-0.164726
21
-4.008335
31
0.0
0
LINE
8
0
6
CONTINUOUS
10
0.026645
20
-4.008335
30
0.0
11
0.026645
21
-3.946405
31
0.0
0
LINE
8
0
6
CONTINUOUS
10
0.182074
20
-4.008335
30
0.0
11
0.026645
21
-4.008335
31
0.0
0
LINE
8
0
6
CONTINUOUS
10
0.182074
20
-3.946405
30
0.0
11
0.182074
21
-4.008335
31
0.0
0
LINE
8
0
6
CONTINUOUS
10
1.750875
20
-3.999943
30
0.0
11
1.750875
21
-3.797130
31
0.0
0
LINE
8
0
6
CONTINUOUS
10
1.828177
20
-3.999943
30
0.0
11
1.750875
21
-3.999943
31
0.0
0
LINE
8
0
6
CONTINUOUS
10
1.828177
20
-3.999943
30
0.0
11
1.828177
21
-3.782496
31
0.0
0
LINE
8
0
6
CONTINUOUS
10
2.029784
20
-3.999943
30
0.0
11
1.828177
21
-3.999943
31
0.0
0
LINE
8
0
6
CONTINUOUS
10
2.029784
20
-3.999943
30
0.0
11
2.154089
21
-3.999943
31
0.0
0
LINE
8
0
6
CONTINUOUS
10
1.828177
20
-3.999943
30
0.0
11
2.028451
21
-3.999943
31
0.0
0
LINE
8
0
6
CONTINUOUS
10
1.750875
20
-3.999943
30
0.0
11
1.828177
21
-3.999943
31
0.0
0
LINE
8
0
6
CONTINUOUS
10
2.029784
20
-3.999943
30
0.0
11
2.029784
21
-3.776103
31
0.0
0
LINE
8
0
6
CONTINUOUS
10
2.154089
20
-3.999943
30
0.0
11
2.029784
21
-3.999943
31
0.0
0
LINE
8
0
6
CONTINUOUS
10
2.154089
20
-3.784049
30
0.0
11
2.154089
21
-3.999943
31
0.0
0
LINE
8
0
6
CONTINUOUS
10
2.203927
20
-4.048243
30
0.0
11
2.203927
21
-3.852487
31
0.0
0
LINE
8
0
6
CONTINUOUS
10
2.281229
20
-4.048243
30
0.0
11
2.203927
21
-4.048243
31
0.0
0
LINE
8
0
6
CONTINUOUS
10
2.281229
20
-4.048243
30
0.0
11
2.281229
21
-3.834979
31
0.0
0
LINE
8
0
6
CONTINUOUS
10
2.482836
20
-4.048243
30
0.0
11
2.281229
21
-4.048243
31
0.0
0
LINE
8
0
6
CONTINUOUS
10
2.482836
20
-4.048243
30
0.0
11
2.607141
21
-4.048243
31
0.0
0
LINE
8
0
6
CONTINUOUS
10
2.281229
20
-4.048243
30
0.0
11
2.482836
21
-4.048243
31
0.0
0
LINE
8
0
6
CONTINUOUS
10
2.203927
20
-4.048243
30
0.0
11
2.281229
21
-4.048243
31
0.0
0
LINE
8
0
6
CONTINUOUS
10
2.482836
20
-4.048243
30
0.0
11
2.482836
21
-3.821060
31
0.0
0
LINE
8
0
6
CONTINUOUS
10
2.607141
20
-4.048243
30
0.0
11
2.482836
21
-4.048243
31
0.0
0
LINE
8
0
6
CONTINUOUS
10
2.607141
20
-3.825118
30
0.0
11
2.607141
21
-4.048243
31
0.0
0
LINE
8
0
6
CONTINUOUS
10
3.261049
20
-3.991760
30
0.0
11
3.261049
21
-3.797602
31
0.0
0
LINE
8
0
6
CONTINUOUS
10
3.338351
20
-3.991760
30
0.0
11
3.261049
21
-3.991760
31
0.0
0
LINE
8
0
6
CONTINUOUS
10
3.338351
20
-3.991760
30
0.0
11
3.338351
21
-3.780292
31
0.0
0
LINE
8
0
6
CONTINUOUS
10
3.539958
20
-3.991760
30
0.0
11
3.338351
21
-3.991760
31
0.0
0
LINE
8
0
6
CONTINUOUS
10
3.539958
20
-3.991760
30
0.0
11
3.664263
21
-3.991760
31
0.0
0
LINE
8
0
6
CONTINUOUS
10
3.338351
20
-3.991760
30
0.0
11
3.539958
21
-3.991760
31
0.0
0
LINE
8
0
6
CONTINUOUS
10
3.261049
20
-3.991760
30
0.0
11
3.338351
21
-3.991760
31
0.0
0
LINE
8
0
6
CONTINUOUS
10
3.539958
20
-3.991760
30
0.0
11
3.539958
21
-3.765244
31
0.0
0
LINE
8
0
6
CONTINUOUS
10
3.664263
20
-3.991760
30
0.0
11
3.539958
21
-3.991760
31
0.0
0
LINE
8
0
6
CONTINUOUS
10
3.664263
20
-3.767505
30
0.0
11
3.664263
21
-3.991760
31
0.0
0
LINE
8
0
6
CONTINUOUS
10
4.234272
20
-4.001005
30
0.0
11
4.234272
21
-3.805875
31
0.0
0
LINE
8
0
6
CONTINUOUS
10
4.311574
20
-4.001005
30
0.0
11
4.234272
21
-4.001005
31
0.0
0
LINE
8
0
6
CONTINUOUS
10
4.311574
20
-4.001005
30
0.0
11
4.311574
21
-3.796582
31
0.0
0
LINE
8
0
6
CONTINUOUS
10
4.513181
20
-4.001005
30
0.0
11
4.311574
21
-4.001005
31
0.0
0
LINE
8
0
6
CONTINUOUS
10
4.513181
20
-4.001005
30
0.0
11
4.637486
21
-4.001005
31
0.0
0
LINE
8
0
6
CONTINUOUS
10
4.311574
20
-4.001005
30
0.0
11
4.513181
21
-4.001005
31
0.0
0
LINE
8
0
6
CONTINUOUS
10
4.234272
20
-4.001005
30
0.0
11
4.311574
21
-4.001005
31
0.0
0
LINE
8
0
6
CONTINUOUS
10
4.513181
20
-4.001005
30
0.0
11
4.513181
21
-3.782183
31
0.0
0
LINE
8
0
6
CONTINUOUS
10
4.637486
20
-4.001005
30
0.0
11
4.513181
21
-4.001005
31
0.0
0
LINE
8
0
6
CONTINUOUS
10
4.637486
20
-3.772857
30
0.0
11
4.637486
21
-4.001005
31
0.0
0
LINE
8
0
6
CONTINUOUS
10
4.563270
20
-4.003481
30
0.0
11
4.485968
21
-4.003481
31
0.0
0
LINE
8
0
6
CONTINUOUS
10
4.764877
20
-4.003481
30
0.0
11
4.563270
21
-4.003481
31
0.0
0
LINE
8
0
6
CONTINUOUS
10
4.764877
20
-4.003481
30
0.0
11
4.889182
21
-4.003481
31
0.0
0
LINE
8
0
6
CONTINUOUS
10
4.563270
20
-4.003481
30
0.0
11
4.764877
21
-4.003481
31
0.0
0
LINE
8
0
6
CONTINUOUS
10
4.485968
20
-4.003481
30
0.0
11
4.563270
21
-4.003481
31
0.0
0
LINE
8
0
6
CONTINUOUS
10
4.889182
20
-4.003481
30
0.0
11
4.764877
21
-4.003481
31
0.0
0
LINE
8
0
6
CONTINUOUS
10
4.268332
20
-4.005578
30
0.0
11
4.352231
21
-4.005578
31
0.0
0
LINE
8
0
6
CONTINUOUS
10
4.352231
20
-4.005578
30
0.0
11
4.268332
21
-4.005578
31
0.0
0
LINE
8
0
6
CONTINUOUS
10
2.700722
20
-3.992914
30
0.0
11
2.623420
21
-3.992914
31
0.0
0
LINE
8
0
6
CONTINUOUS
10
2.700722
20
-3.992914
30
0.0
11
2.700722
21
-3.941897
31
0.0
0
LINE
8
0
6
CONTINUOUS
10
2.902329
20
-3.992914
30
0.0
11
2.700722
21
-3.992914
31
0.0
0
LINE
8
0
6
CONTINUOUS
10
2.902329
20
-3.992914
30
0.0
11
2.942234
21
-3.992914
31
0.0
0
LINE
8
0
6
CONTINUOUS
10
2.700722
20
-3.992914
30
0.0
11
2.902329
21
-3.992914
31
0.0
0
LINE
8
0
6
CONTINUOUS
10
2.623420
20
-3.992914
30
0.0
11
2.700722
21
-3.992914
31
0.0
0
LINE
8
0
6
CONTINUOUS
10
2.902329
20
-3.992914
30
0.0
11
2.902329
21
-3.928377
31
0.0
0
LINE
8
0
6
CONTINUOUS
10
2.942234
20
-3.992914
30
0.0
11
2.902329
21
-3.992914
31
0.0
0
LINE
8
0
6
CONTINUOUS
10
0.744093
20
-4.039567
30
0.0
11
0.744093
21
-3.836215
31
0.0
0
LINE
8
0
6
CONTINUOUS
10
0.821395
20
-4.039567
30
0.0
11
0.744093
21
-4.039567
31
0.0
0
LINE
8
0
6
CONTINUOUS
10
0.821395
20
-4.039567
30
0.0
11
0.821395
21
-3.821270
31
0.0
0
LINE
8
0
6
CONTINUOUS
10
1.023002
20
-4.039567
30
0.0
11
0.821395
21
-4.039567
31
0.0
0
LINE
8
0
6
CONTINUOUS
10
1.023002
20
-4.039567
30
0.0
11
1.147307
21
-4.039567
31
0.0
0
LINE
8
0
6
CONTINUOUS
10
0.821395
20
-4.039567
30
0.0
11
1.023002
21
-4.039567
31
0.0
0
LINE
8
0
6
CONTINUOUS
10
0.744093
20
-4.039567
30
0.0
11
0.821395
21
-4.039567
31
0.0
0
LINE
8
0
6
CONTINUOUS
10
1.023002
20
-4.039567
30
0.0
11
1.023002
21
-3.815416
31
0.0
0
LINE
8
0
6
CONTINUOUS
10
1.147307
20
-4.039567
30
0.0
11
1.023002
21
-4.039567
31
0.0
0
LINE
8
0
6
CONTINUOUS
10
1.147307
20
-3.824507
30
0.0
11
1.147307
21
-4.039567
31
0.0
0
LINE
8
0
6
CONTINUOUS
10
3.388690
20
-4.048966
30
0.0
11
3.311388
21
-4.048966
31
0.0
0
LINE
8
0
6
CONTINUOUS
10
3.590297
20
-4.048966
30
0.0
11
3.388690
21
-4.048966
31
0.0
0
LINE
8
0
6
CONTINUOUS
10
3.590297
20
-4.048966
30
0.0
11
3.714602
21
-4.048966
31
0.0
0
LINE
8
0
6
CONTINUOUS
10
3.388690
20
-4.048966
30
0.0
11
3.590297
21
-4.048966
31
0.0
0
LINE
8
0
6
CONTINUOUS
10
3.311388
20
-4.048966
30
0.0
11
3.388690
21
-4.048966
31
0.0
0
LINE
8
0
6
CONTINUOUS
10
3.714602
20
-4.048966
30
0.0
11
3.590297
21
-4.048966
31
0.0
0
LINE
8
0
6
CONTINUOUS
10
3.714602
20
-3.826337
30
0.0
11
3.714602
21
-4.048966
31
0.0
0
LINE
8
0
6
CONTINUOUS
10
3.865119
20
-4.049595
30
0.0
11
3.865119
21
-3.863811
31
0.0
0
LINE
8
0
6
CONTINUOUS
10
3.942420
20
-4.049595
30
0.0
11
3.865119
21
-4.049595
31
0.0
0
LINE
8
0
6
CONTINUOUS
10
3.942420
20
-4.049595
30
0.0
11
3.942420
21
-3.858627
31
0.0
0
LINE
8
0
6
CONTINUOUS
10
4.144027
20
-4.049595
30
0.0
11
3.942420
21
-4.049595
31
0.0
0
LINE
8
0
6
CONTINUOUS
10
4.144027
20
-4.049595
30
0.0
11
4.268332
21
-4.049595
31
0.0
0
LINE
8
0
6
CONTINUOUS
10
3.942420
20
-4.049595
30
0.0
11
4.144027
21
-4.049595
31
0.0
0
LINE
8
0
6
CONTINUOUS
10
3.865119
20
-4.049595
30
0.0
11
3.942420
21
-4.049595
31
0.0
0
LINE
8
0
6
CONTINUOUS
10
4.144027
20
-4.049595
30
0.0
11
4.144027
21
-3.845107
31
0.0
0
LINE
8
0
6
CONTINUOUS
10
4.268332
20
-4.049595
30
0.0
11
4.144027
21
-4.049595
31
0.0
0
LINE
8
0
6
CONTINUOUS
10
3.774623
20
-4.042537
30
0.0
11
3.697321
21
-4.042537
31
0.0
0
LINE
8
0
6
CONTINUOUS
10
3.774623
20
-4.042537
30
0.0
11
3.774623
21
-3.869880
31
0.0
0
LINE
8
0
6
CONTINUOUS
10
3.865119
20
-4.042537
30
0.0
11
3.774623
21
-4.042537
31
0.0
0
LINE
8
0
6
CONTINUOUS
10
3.774623
20
-4.042537
30
0.0
11
3.865119
21
-4.042537
31
0.0
0
LINE
8
0
6
CONTINUOUS
10
3.697321
20
-4.042537
30
0.0
11
3.774623
21
-4.042537
31
0.0
0
LINE
8
0
6
CONTINUOUS
10
2.942234
20
-4.048054
30
0.0
11
2.942234
21
-3.925701
31
0.0
0
LINE
8
0
6
CONTINUOUS
10
3.019536
20
-4.048054
30
0.0
11
2.942234
21
-4.048054
31
0.0
0
LINE
8
0
6
CONTINUOUS
10
3.019536
20
-4.048054
30
0.0
11
3.019536
21
-3.920517
31
0.0
0
LINE
8
0
6
CONTINUOUS
10
3.063174
20
-4.048054
30
0.0
11
3.019536
21
-4.048054
31
0.0
0
LINE
8
0
6
CONTINUOUS
10
3.019536
20
-4.048054
30
0.0
11
3.063174
21
-4.048054
31
0.0
0
LINE
8
0
6
CONTINUOUS
10
2.942234
20
-4.048054
30
0.0
11
3.019536
21
-4.048054
31
0.0
0
LINE
8
0
6
CONTINUOUS
10
1.878767
20
-4.045375
30
0.0
11
1.848500
21
-4.045375
31
0.0
0
LINE
8
0
6
CONTINUOUS
10
1.878767
20
-4.045375
30
0.0
11
2.003072
21
-4.045375
31
0.0
0
LINE
8
0
6
CONTINUOUS
10
1.848500
20
-4.045375
30
0.0
11
1.878767
21
-4.045375
31
0.0
0
LINE
8
0
6
CONTINUOUS
10
1.878767
20
-4.045375
30
0.0
11
1.878767
21
-3.978691
31
0.0
0
LINE
8
0
6
CONTINUOUS
10
2.003072
20
-4.045375
30
0.0
11
1.878767
21
-4.045375
31
0.0
0
LINE
8
0
6
CONTINUOUS
10
2.003072
20
-3.975236
30
0.0
11
2.003072
21
-4.045375
31
0.0
0
LINE
8
0
6
CONTINUOUS
10
-0.210903
20
-4.052312
30
0.0
11
-0.210903
21
-4.034075
31
0.0
0
LINE
8
0
6
CONTINUOUS
10
-0.133601
20
-4.052312
30
0.0
11
-0.210903
21
-4.052312
31
0.0
0
LINE
8
0
6
CONTINUOUS
10
0.138435
20
-4.052312
30
0.0
11
0.192311
21
-4.052312
31
0.0
0
LINE
8
0
6
CONTINUOUS
10
-0.210903
20
-4.052312
30
0.0
11
-0.133601
21
-4.052312
31
0.0
0
LINE
8
0
6
CONTINUOUS
10
0.192311
20
-4.052312
30
0.0
11
0.138435
21
-4.052312
31
0.0
0
LINE
8
0
6
CONTINUOUS
10
0.192311
20
-4.034075
30
0.0
11
0.192311
21
-4.052312
31
0.0
0
LINE
8
0
6
CONTINUOUS
10
1.214818
20
-3.809104
30
0.0
11
1.214818
21
-3.607409
31
0.0
0
LINE
8
0
6
CONTINUOUS
10
1.348922
20
-3.809104
30
0.0
11
1.214818
21
-3.809104
31
0.0
0
LINE
8
0
6
CONTINUOUS
10
1.348922
20
-3.809104
30
0.0
11
1.348922
21
-3.574130
31
0.0
0
LINE
8
0
6
CONTINUOUS
10
1.648380
20
-3.809104
30
0.0
11
1.348922
21
-3.809104
31
0.0
0
LINE
8
0
6
CONTINUOUS
10
1.648380
20
-3.809104
30
0.0
11
1.813733
21
-3.809104
31
0.0
0
LINE
8
0
6
CONTINUOUS
10
1.348922
20
-3.809104
30
0.0
11
1.648380
21
-3.809104
31
0.0
0
LINE
8
0
6
CONTINUOUS
10
1.214818
20
-3.809104
30
0.0
11
1.348664
21
-3.809104
31
0.0
0
LINE
8
0
6
CONTINUOUS
10
1.648380
20
-3.809104
30
0.0
11
1.648380
21
-3.567133
31
0.0
0
LINE
8
0
6
CONTINUOUS
10
1.813733
20
-3.809104
30
0.0
11
1.648380
21
-3.809104
31
0.0
0
LINE
8
0
6
CONTINUOUS
10
1.813733
20
-3.591596
30
0.0
11
1.813733
21
-3.809104
31
0.0
0
LINE
8
0
6
CONTINUOUS
10
2.852179
20
-3.809925
30
0.0
11
2.659549
21
-3.809925
31
0.0
0
LINE
8
0
6
CONTINUOUS
10
2.852179
20
-3.809925
30
0.0
11
2.852179
21
-3.573637
31
0.0
0
LINE
8
0
6
CONTINUOUS
10
3.147667
20
-3.809925
30
0.0
11
2.852179
21
-3.809925
31
0.0
0
LINE
8
0
6
CONTINUOUS
10
3.147667
20
-3.809925
30
0.0
11
3.250528
21
-3.809925
31
0.0
0
LINE
8
0
6
CONTINUOUS
10
2.852179
20
-3.809925
30
0.0
11
3.147667
21
-3.809925
31
0.0
0
LINE
8
0
6
CONTINUOUS
10
2.659549
20
-3.809925
30
0.0
11
2.852179
21
-3.809925
31
0.0
0
LINE
8
0
6
CONTINUOUS
10
3.147667
20
-3.809925
30
0.0
11
3.147667
21
-3.564435
31
0.0
0
LINE
8
0
6
CONTINUOUS
10
3.250528
20
-3.809925
30
0.0
11
3.147667
21
-3.809925
31
0.0
0
LINE
8
0
6
CONTINUOUS
10
3.250528
20
-3.589178
30
0.0
11
3.250528
21
-3.809925
31
0.0
0
LINE
8
0
6
CONTINUOUS
10
4.154847
20
-3.812626
30
0.0
11
3.918102
21
-3.812626
31
0.0
0
LINE
8
0
6
CONTINUOUS
10
4.432793
20
-3.812626
30
0.0
11
4.154847
21
-3.812626
31
0.0
0
LINE
8
0
6
CONTINUOUS
10
4.432793
20
-3.812626
30
0.0
11
4.473997
21
-3.812626
31
0.0
0
LINE
8
0
6
CONTINUOUS
10
4.154847
20
-3.812626
30
0.0
11
4.432793
21
-3.812626
31
0.0
0
LINE
8
0
6
CONTINUOUS
10
3.918102
20
-3.812626
30
0.0
11
4.154847
21
-3.812626
31
0.0
0
LINE
8
0
6
CONTINUOUS
10
4.432793
20
-3.812626
30
0.0
11
4.432793
21
-3.564160
31
0.0
0
LINE
8
0
6
CONTINUOUS
10
4.473997
20
-3.812626
30
0.0
11
4.432793
21
-3.812626
31
0.0
0
LINE
8
0
6
CONTINUOUS
10
4.473997
20
-3.592316
30
0.0
11
4.473997
21
-3.812626
31
0.0
0
LINE
8
0
6
CONTINUOUS
10
4.946539
20
-3.806380
30
0.0
11
4.946539
21
-3.632223
31
0.0
0
LINE
8
0
6
CONTINUOUS
10
4.968841
20
-3.806380
30
0.0
11
4.946539
21
-3.806380
31
0.0
0
LINE
8
0
6
CONTINUOUS
10
4.968841
20
-3.806380
30
0.0
11
4.968841
21
-3.609409
31
0.0
0
LINE
8
0
6
CONTINUOUS
10
5.239082
20
-3.806380
30
0.0
11
4.968841
21
-3.806380
31
0.0
0
LINE
8
0
6
CONTINUOUS
10
5.239082
20
-3.806380
30
0.0
11
5.239082
21
-3.743327
31
0.0
0
LINE
8
0
6
CONTINUOUS
10
5.487018
20
-3.806380
30
0.0
11
5.239082
21
-3.806380
31
0.0
0
LINE
8
0
6
CONTINUOUS
10
5.239082
20
-3.806380
30
0.0
11
5.487018
21
-3.806380
31
0.0
0
LINE
8
0
6
CONTINUOUS
10
4.968841
20
-3.806380
30
0.0
11
5.239082
21
-3.806380
31
0.0
0
LINE
8
0
6
CONTINUOUS
10
4.946539
20
-3.806380
30
0.0
11
4.968841
21
-3.806380
31
0.0
0
LINE
8
0
6
CONTINUOUS
10
5.487018
20
-3.806380
30
0.0
11
5.487018
21
-3.715877
31
0.0
0
LINE
8
0
6
CONTINUOUS
10
5.640294
20
-3.805597
30
0.0
11
5.640294
21
-3.632408
31
0.0
0
LINE
8
0
6
CONTINUOUS
10
5.725101
20
-3.805597
30
0.0
11
5.640294
21
-3.805597
31
0.0
0
LINE
8
0
6
CONTINUOUS
10
5.725101
20
-3.805597
30
0.0
11
5.725101
21
-3.607055
31
0.0
0
LINE
8
0
6
CONTINUOUS
10
6.016715
20
-3.805597
30
0.0
11
5.725101
21
-3.805597
31
0.0
0
LINE
8
0
6
CONTINUOUS
10
6.016715
20
-3.805597
30
0.0
11
6.016715
21
-3.571039
31
0.0
0
LINE
8
0
6
CONTINUOUS
10
6.223521
20
-3.805597
30
0.0
11
6.016715
21
-3.805597
31
0.0
0
LINE
8
0
6
CONTINUOUS
10
6.016715
20
-3.805597
30
0.0
11
6.223521
21
-3.805597
31
0.0
0
LINE
8
0
6
CONTINUOUS
10
5.725101
20
-3.805597
30
0.0
11
6.016715
21
-3.805597
31
0.0
0
LINE
8
0
6
CONTINUOUS
10
5.640294
20
-3.805597
30
0.0
11
5.725101
21
-3.805597
31
0.0
0
LINE
8
0
6
CONTINUOUS
10
6.223521
20
-3.805597
30
0.0
11
6.223521
21
-3.634336
31
0.0
0
LINE
8
0
6
CONTINUOUS
10
6.392920
20
-3.807956
30
0.0
11
6.192280
21
-3.807956
31
0.0
0
LINE
8
0
6
CONTINUOUS
10
6.686393
20
-3.807956
30
0.0
11
6.392920
21
-3.807956
31
0.0
0
LINE
8
0
6
CONTINUOUS
10
6.779222
20
-3.807956
30
0.0
11
6.686393
21
-3.807956
31
0.0
0
LINE
8
0
6
CONTINUOUS
10
6.686393
20
-3.807956
30
0.0
11
6.779222
21
-3.807956
31
0.0
0
LINE
8
0
6
CONTINUOUS
10
6.392920
20
-3.807956
30
0.0
11
6.686393
21
-3.807956
31
0.0
0
LINE
8
0
6
CONTINUOUS
10
6.192280
20
-3.807956
30
0.0
11
6.392920
21
-3.807956
31
0.0
0
LINE
8
0
6
CONTINUOUS
10
6.510752
20
-3.805385
30
0.0
11
6.223521
21
-3.805385
31
0.0
0
LINE
8
0
6
CONTINUOUS
10
6.667151
20
-3.805385
30
0.0
11
6.510752
21
-3.805385
31
0.0
0
LINE
8
0
6
CONTINUOUS
10
6.510752
20
-3.805385
30
0.0
11
6.667151
21
-3.805385
31
0.0
0
LINE
8
0
6
CONTINUOUS
10
6.223521
20
-3.805385
30
0.0
11
6.510752
21
-3.805385
31
0.0
0
LINE
8
0
6
CONTINUOUS
10
6.174335
20
-3.811236
30
0.0
11
5.931223
21
-3.811236
31
0.0
0
LINE
8
0
6
CONTINUOUS
10
6.448117
20
-3.811236
30
0.0
11
6.174335
21
-3.811236
31
0.0
0
LINE
8
0
6
CONTINUOUS
10
6.478785
20
-3.811236
30
0.0
11
6.448117
21
-3.811236
31
0.0
0
LINE
8
0
6
CONTINUOUS
10
6.448117
20
-3.811236
30
0.0
11
6.478785
21
-3.811236
31
0.0
0
LINE
8
0
6
CONTINUOUS
10
6.174335
20
-3.811236
30
0.0
11
6.448117
21
-3.811236
31
0.0
0
LINE
8
0
6
CONTINUOUS
10
5.931223
20
-3.811236
30
0.0
11
6.174335
21
-3.811236
31
0.0
0
LINE
8
0
6
CONTINUOUS
10
0.797969
20
-4.095604
30
0.0
11
0.797969
21
-4.034075
31
0.0
0
LINE
8
0
6
CONTINUOUS
10
0.854613
20
-4.095604
30
0.0
11
0.797969
21
-4.095604
31
0.0
0
LINE
8
0
6
CONTINUOUS
10
0.854613
20
-4.095604
30
0.0
11
0.854613
21
-4.034075
31
0.0
0
LINE
8
0
6
CONTINUOUS
10
1.002345
20
-4.095604
30
0.0
11
0.854613
21
-4.095604
31
0.0
0
LINE
8
0
6
CONTINUOUS
10
1.002345
20
-4.095604
30
0.0
11
1.093432
21
-4.095604
31
0.0
0
LINE
8
0
6
CONTINUOUS
10
0.854613
20
-4.095604
30
0.0
11
1.002345
21
-4.095604
31
0.0
0
LINE
8
0
6
CONTINUOUS
10
0.797969
20
-4.095604
30
0.0
11
0.854613
21
-4.095604
31
0.0
0
LINE
8
0
6
CONTINUOUS
10
1.002345
20
-4.095604
30
0.0
11
1.002345
21
-4.034075
31
0.0
0
LINE
8
0
6
CONTINUOUS
10
1.093432
20
-4.095604
30
0.0
11
1.002345
21
-4.095604
31
0.0
0
LINE
8
0
6
CONTINUOUS
10
1.093432
20
-4.034075
30
0.0
11
1.093432
21
-4.095604
31
0.0
0
LINE
8
0
6
CONTINUOUS
10
2.294836
20
-4.114073
30
0.0
11
2.238192
21
-4.114073
31
0.0
0
LINE
8
0
6
CONTINUOUS
10
2.442568
20
-4.114073
30
0.0
11
2.294836
21
-4.114073
31
0.0
0
LINE
8
0
6
CONTINUOUS
10
2.442568
20
-4.114073
30
0.0
11
2.533655
21
-4.114073
31
0.0
0
LINE
8
0
6
CONTINUOUS
10
2.294836
20
-4.114073
30
0.0
11
2.442568
21
-4.114073
31
0.0
0
LINE
8
0
6
CONTINUOUS
10
2.238192
20
-4.114073
30
0.0
11
2.294836
21
-4.114073
31
0.0
0
LINE
8
0
6
CONTINUOUS
10
2.533655
20
-4.114073
30
0.0
11
2.442568
21
-4.114073
31
0.0
0
LINE
8
0
6
CONTINUOUS
10
3.063174
20
-4.098490
30
0.0
11
3.063174
21
-3.917590
31
0.0
0
LINE
8
0
6
CONTINUOUS
10
3.119818
20
-4.098490
30
0.0
11
3.063174
21
-4.098490
31
0.0
0
LINE
8
0
6
CONTINUOUS
10
3.119818
20
-4.098490
30
0.0
11
3.119818
21
-3.892357
31
0.0
0
LINE
8
0
6
CONTINUOUS
10
3.267550
20
-4.098490
30
0.0
11
3.119818
21
-4.098490
31
0.0
0
LINE
8
0
6
CONTINUOUS
10
3.267550
20
-4.098490
30
0.0
11
3.358637
21
-4.098490
31
0.0
0
LINE
8
0
6
CONTINUOUS
10
3.119818
20
-4.098490
30
0.0
11
3.267550
21
-4.098490
31
0.0
0
LINE
8
0
6
CONTINUOUS
10
3.063174
20
-4.098490
30
0.0
11
3.119818
21
-4.098490
31
0.0
0
LINE
8
0
6
CONTINUOUS
10
3.267550
20
-4.098490
30
0.0
11
3.267550
21
-3.903885
31
0.0
0
LINE
8
0
6
CONTINUOUS
10
3.358637
20
-4.098490
30
0.0
11
3.267550
21
-4.098490
31
0.0
0
LINE
8
0
6
CONTINUOUS
10
-0.157027
20
-4.166183
30
0.0
11
-0.157027
21
-4.034075
31
0.0
0
LINE
8
0
6
CONTINUOUS
10
-0.100383
20
-4.166183
30
0.0
11
-0.157027
21
-4.166183
31
0.0
0
LINE
8
0
6
CONTINUOUS
10
-0.100383
20
-4.166183
30
0.0
11
-0.100383
21
-4.034075
31
0.0
0
LINE
8
0
6
CONTINUOUS
10
0.047349
20
-4.166183
30
0.0
11
-0.100383
21
-4.166183
31
0.0
0
LINE
8
0
6
CONTINUOUS
10
0.047349
20
-4.166183
30
0.0
11
0.138435
21
-4.166183
31
0.0
0
LINE
8
0
6
CONTINUOUS
10
-0.100383
20
-4.166183
30
0.0
11
0.047349
21
-4.166183
31
0.0
0
LINE
8
0
6
CONTINUOUS
10
-0.157027
20
-4.166183
30
0.0
11
-0.100383
21
-4.166183
31
0.0
0
LINE
8
0
6
CONTINUOUS
10
0.047349
20
-4.166183
30
0.0
11
0.047349
21
-4.034075
31
0.0
0
LINE
8
0
6
CONTINUOUS
10
0.138435
20
-4.166183
30
0.0
11
0.047349
21
-4.166183
31
0.0
0
LINE
8
0
6
CONTINUOUS
10
0.138435
20
-4.034075
30
0.0
11
0.138435
21
-4.166183
31
0.0
0
LINE
8
0
6
CONTINUOUS
10
1.553037
20
-4.144699
30
0.0
11
1.553037
21
-3.987744
31
0.0
0
LINE
8
0
6
CONTINUOUS
10
1.609682
20
-4.144699
30
0.0
11
1.553037
21
-4.144699
31
0.0
0
LINE
8
0
6
CONTINUOUS
10
1.609682
20
-4.144699
30
0.0
11
1.609682
21
-3.986170
31
0.0
0
LINE
8
0
6
CONTINUOUS
10
1.757413
20
-4.144699
30
0.0
11
1.609682
21
-4.144699
31
0.0
0
LINE
8
0
6
CONTINUOUS
10
1.757413
20
-4.144699
30
0.0
11
1.848500
21
-4.144699
31
0.0
0
LINE
8
0
6
CONTINUOUS
10
1.609682
20
-4.144699
30
0.0
11
1.757413
21
-4.144699
31
0.0
0
LINE
8
0
6
CONTINUOUS
10
1.553037
20
-4.144699
30
0.0
11
1.609682
21
-4.144699
31
0.0
0
LINE
8
0
6
CONTINUOUS
10
1.757413
20
-4.144699
30
0.0
11
1.757413
21
-3.982064
31
0.0
0
LINE
8
0
6
CONTINUOUS
10
1.848500
20
-4.144699
30
0.0
11
1.757413
21
-4.144699
31
0.0
0
LINE
8
0
6
CONTINUOUS
10
1.848500
20
-3.979532
30
0.0
11
1.848500
21
-4.144699
31
0.0
0
LINE
8
0
6
CONTINUOUS
10
2.392716
20
-4.155345
30
0.0
11
2.336071
21
-4.155345
31
0.0
0
LINE
8
0
6
CONTINUOUS
10
2.540447
20
-4.155345
30
0.0
11
2.392716
21
-4.155345
31
0.0
0
LINE
8
0
6
CONTINUOUS
10
2.540447
20
-4.155345
30
0.0
11
2.631535
21
-4.155345
31
0.0
0
LINE
8
0
6
CONTINUOUS
10
2.392716
20
-4.155345
30
0.0
11
2.540447
21
-4.155345
31
0.0
0
LINE
8
0
6
CONTINUOUS
10
2.336071
20
-4.155345
30
0.0
11
2.392716
21
-4.155345
31
0.0
0
LINE
8
0
6
CONTINUOUS
10
2.540447
20
-4.155345
30
0.0
11
2.540447
21
-3.952645
31
0.0
0
LINE
8
0
6
CONTINUOUS
10
2.631535
20
-4.155345
30
0.0
11
2.540447
21
-4.155345
31
0.0
0
LINE
8
0
6
CONTINUOUS
10
2.631535
20
-3.946536
30
0.0
11
2.631535
21
-4.155345
31
0.0
0
LINE
8
0
6
CONTINUOUS
10
2.028451
20
-4.148475
30
0.0
11
2.028451
21
-3.974531
31
0.0
0
LINE
8
0
6
CONTINUOUS
10
2.085095
20
-4.148475
30
0.0
11
2.028451
21
-4.148475
31
0.0
0
LINE
8
0
6
CONTINUOUS
10
2.085095
20
-4.148475
30
0.0
11
2.085095
21
-3.972957
31
0.0
0
LINE
8
0
6
CONTINUOUS
10
2.232827
20
-4.148475
30
0.0
11
2.085095
21
-4.148475
31
0.0
0
LINE
8
0
6
CONTINUOUS
10
2.232827
20
-4.148475
30
0.0
11
2.323914
21
-4.148475
31
0.0
0
LINE
8
0
6
CONTINUOUS
10
2.085095
20
-4.148475
30
0.0
11
2.232827
21
-4.148475
31
0.0
0
LINE
8
0
6
CONTINUOUS
10
2.028451
20
-4.148475
30
0.0
11
2.085095
21
-4.148475
31
0.0
0
LINE
8
0
6
CONTINUOUS
10
2.232827
20
-4.148475
30
0.0
11
2.232827
21
-3.968851
31
0.0
0
LINE
8
0
6
CONTINUOUS
10
2.323914
20
-4.148475
30
0.0
11
2.232827
21
-4.148475
31
0.0
0
LINE
8
0
6
CONTINUOUS
10
0.770013
20
-4.150844
30
0.0
11
0.770013
21
-4.034075
31
0.0
0
LINE
8
0
6
CONTINUOUS
10
0.826658
20
-4.150844
30
0.0
11
0.770013
21
-4.150844
31
0.0
0
LINE
8
0
6
CONTINUOUS
10
0.974389
20
-4.150844
30
0.0
11
0.826658
21
-4.150844
31
0.0
0
LINE
8
0
6
CONTINUOUS
10
0.974389
20
-4.150844
30
0.0
11
1.065476
21
-4.150844
31
0.0
0
LINE
8
0
6
CONTINUOUS
10
0.826658
20
-4.150844
30
0.0
11
0.974389
21
-4.150844
31
0.0
0
LINE
8
0
6
CONTINUOUS
10
0.770013
20
-4.150844
30
0.0
11
0.826658
21
-4.150844
31
0.0
0
LINE
8
0
6
CONTINUOUS
10
1.065476
20
-4.150844
30
0.0
11
0.974389
21
-4.150844
31
0.0
0
LINE
8
0
6
CONTINUOUS
10
-7.716901
20
-3.584738
30
0.0
11
-7.860409
21
-3.584738
31
0.0
0
LINE
8
0
6
CONTINUOUS
10
-7.860409
20
-3.584738
30
0.0
11
-8.160318
21
-3.584738
31
0.0
0
LINE
8
0
6
CONTINUOUS
10
-7.860409
20
-3.393081
30
0.0
11
-7.860409
21
-3.584738
31
0.0
0
LINE
8
0
6
CONTINUOUS
10
-8.160318
20
-3.584738
30
0.0
11
-8.316715
21
-3.584738
31
0.0
0
LINE
8
0
6
CONTINUOUS
10
-8.160318
20
-3.353595
30
0.0
11
-8.160318
21
-3.584738
31
0.0
0
LINE
8
0
6
CONTINUOUS
10
-7.860409
20
-3.584738
30
0.0
11
-7.716901
21
-3.584738
31
0.0
0
LINE
8
0
6
CONTINUOUS
10
-8.160318
20
-3.584738
30
0.0
11
-7.860409
21
-3.584738
31
0.0
0
LINE
8
0
6
CONTINUOUS
10
-8.316715
20
-3.584738
30
0.0
11
-8.160318
21
-3.584738
31
0.0
0
LINE
8
0
6
CONTINUOUS
10
-8.316715
20
-3.336046
30
0.0
11
-8.316715
21
-3.584738
31
0.0
0
LINE
8
0
6
CONTINUOUS
10
-1.552225
20
-3.593014
30
0.0
11
-1.686329
21
-3.593014
31
0.0
0
LINE
8
0
6
CONTINUOUS
10
-1.552225
20
-3.390480
30
0.0
11
-1.552225
21
-3.593014
31
0.0
0
LINE
8
0
6
CONTINUOUS
10
-1.686329
20
-3.593014
30
0.0
11
-1.985787
21
-3.593014
31
0.0
0
LINE
8
0
6
CONTINUOUS
10
-1.686329
20
-3.352998
30
0.0
11
-1.686329
21
-3.593014
31
0.0
0
LINE
8
0
6
CONTINUOUS
10
-1.686329
20
-3.593014
30
0.0
11
-1.552225
21
-3.593014
31
0.0
0
LINE
8
0
6
CONTINUOUS
10
-1.985787
20
-3.593014
30
0.0
11
-1.686329
21
-3.593014
31
0.0
0
LINE
8
0
6
CONTINUOUS
10
-2.151139
20
-3.593014
30
0.0
11
-1.985787
21
-3.593014
31
0.0
0
LINE
8
0
6
CONTINUOUS
10
-2.151139
20
-3.593014
30
0.0
11
-2.151139
21
-3.312737
31
0.0
0
LINE
8
0
6
CONTINUOUS
10
-1.985787
20
-3.593014
30
0.0
11
-2.151139
21
-3.593014
31
0.0
0
LINE
8
0
6
CONTINUOUS
10
-1.985787
20
-3.341690
30
0.0
11
-1.985787
21
-3.593014
31
0.0
0
LINE
8
0
6
CONTINUOUS
10
-7.202619
20
-3.580440
30
0.0
11
-7.287426
21
-3.580440
31
0.0
0
LINE
8
0
6
CONTINUOUS
10
-7.202619
20
-3.407841
30
0.0
11
-7.202619
21
-3.580440
31
0.0
0
LINE
8
0
6
CONTINUOUS
10
-7.287426
20
-3.580440
30
0.0
11
-7.579040
21
-3.580440
31
0.0
0
LINE
8
0
6
CONTINUOUS
10
-7.287426
20
-3.388008
30
0.0
11
-7.287426
21
-3.580440
31
0.0
0
LINE
8
0
6
CONTINUOUS
10
-7.579040
20
-3.580440
30
0.0
11
-7.785845
21
-3.580440
31
0.0
0
LINE
8
0
6
CONTINUOUS
10
-7.579040
20
-3.351400
30
0.0
11
-7.579040
21
-3.580440
31
0.0
0
LINE
8
0
6
CONTINUOUS
10
-7.287426
20
-3.580440
30
0.0
11
-7.202619
21
-3.580440
31
0.0
0
LINE
8
0
6
CONTINUOUS
10
-7.579040
20
-3.580440
30
0.0
11
-7.287426
21
-3.580440
31
0.0
0
LINE
8
0
6
CONTINUOUS
10
-7.785845
20
-3.580440
30
0.0
11
-7.579040
21
-3.580440
31
0.0
0
LINE
8
0
6
CONTINUOUS
10
-7.785845
20
-3.334626
30
0.0
11
-7.785845
21
-3.580440
31
0.0
0
LINE
8
0
6
CONTINUOUS
10
0.279645
20
-3.593152
30
0.0
11
0.205065
21
-3.593152
31
0.0
0
LINE
8
0
6
CONTINUOUS
10
0.279645
20
-3.391528
30
0.0
11
0.279645
21
-3.593152
31
0.0
0
LINE
8
0
6
CONTINUOUS
10
0.205065
20
-3.593152
30
0.0
11
-0.083876
21
-3.593152
31
0.0
0
LINE
8
0
6
CONTINUOUS
10
0.205065
20
-3.352353
30
0.0
11
0.205065
21
-3.593152
31
0.0
0
LINE
8
0
6
CONTINUOUS
10
0.205065
20
-3.593152
30
0.0
11
0.279645
21
-3.593152
31
0.0
0
LINE
8
0
6
CONTINUOUS
10
-0.083876
20
-3.593152
30
0.0
11
0.205065
21
-3.593152
31
0.0
0
LINE
8
0
6
CONTINUOUS
10
-0.298238
20
-3.593152
30
0.0
11
-0.083876
21
-3.593152
31
0.0
0
LINE
8
0
6
CONTINUOUS
10
-0.298238
20
-3.593152
30
0.0
11
-0.298238
21
-3.267365
31
0.0
0
LINE
8
0
6
CONTINUOUS
10
-0.083876
20
-3.593152
30
0.0
11
-0.298237
21
-3.593152
31
0.0
0
LINE
8
0
6
CONTINUOUS
10
-0.083876
20
-3.344587
30
0.0
11
-0.083876
21
-3.593152
31
0.0
0
LINE
8
0
6
CONTINUOUS
10
-6.290728
20
-3.573259
30
0.0
11
-6.313031
21
-3.573259
31
0.0
0
LINE
8
0
6
CONTINUOUS
10
-6.290728
20
-3.409734
30
0.0
11
-6.290728
21
-3.573259
31
0.0
0
LINE
8
0
6
CONTINUOUS
10
-6.313031
20
-3.573259
30
0.0
11
-6.583271
21
-3.573259
31
0.0
0
LINE
8
0
6
CONTINUOUS
10
-6.313031
20
-3.379277
30
0.0
11
-6.313031
21
-3.573259
31
0.0
0
LINE
8
0
6
CONTINUOUS
10
-6.583271
20
-3.573259
30
0.0
11
-6.831207
21
-3.573259
31
0.0
0
LINE
8
0
6
CONTINUOUS
10
-6.583271
20
-3.347021
30
0.0
11
-6.583271
21
-3.573259
31
0.0
0
LINE
8
0
6
CONTINUOUS
10
-6.313031
20
-3.573259
30
0.0
11
-6.290728
21
-3.573259
31
0.0
0
LINE
8
0
6
CONTINUOUS
10
-6.583271
20
-3.573259
30
0.0
11
-6.313031
21
-3.573259
31
0.0
0
LINE
8
0
6
CONTINUOUS
10
-6.831207
20
-3.573259
30
0.0
11
-6.583271
21
-3.573259
31
0.0
0
LINE
8
0
6
CONTINUOUS
10
-6.831207
20
-3.331799
30
0.0
11
-6.831207
21
-3.573259
31
0.0
0
LINE
8
0
6
CONTINUOUS
10
-7.540519
20
-3.591086
30
0.0
11
-7.783630
21
-3.591086
31
0.0
0
LINE
8
0
6
CONTINUOUS
10
-7.783630
20
-3.591086
30
0.0
11
-8.057411
21
-3.591086
31
0.0
0
LINE
8
0
6
CONTINUOUS
10
-8.057411
20
-3.591086
30
0.0
11
-8.088079
21
-3.591086
31
0.0
0
LINE
8
0
6
CONTINUOUS
10
-7.783630
20
-3.591086
30
0.0
11
-7.540519
21
-3.591086
31
0.0
0
LINE
8
0
6
CONTINUOUS
10
-8.057411
20
-3.591086
30
0.0
11
-7.783630
21
-3.591086
31
0.0
0
LINE
8
0
6
CONTINUOUS
10
-8.088079
20
-3.591086
30
0.0
11
-8.057411
21
-3.591086
31
0.0
0
LINE
8
0
6
CONTINUOUS
10
-4.993816
20
-3.584777
30
0.0
11
-5.230561
21
-3.584777
31
0.0
0
LINE
8
0
6
CONTINUOUS
10
-4.993816
20
-3.379361
30
0.0
11
-4.993816
21
-3.584777
31
0.0
0
LINE
8
0
6
CONTINUOUS
10
-5.230561
20
-3.584777
30
0.0
11
-5.505610
21
-3.584777
31
0.0
0
LINE
8
0
6
CONTINUOUS
10
-5.230561
20
-3.348884
30
0.0
11
-5.230561
21
-3.584777
31
0.0
0
LINE
8
0
6
CONTINUOUS
10
-5.230561
20
-3.584777
30
0.0
11
-4.993816
21
-3.584777
31
0.0
0
LINE
8
0
6
CONTINUOUS
10
-5.508507
20
-3.584777
30
0.0
11
-5.230561
21
-3.584777
31
0.0
0
LINE
8
0
6
CONTINUOUS
10
-5.549711
20
-3.584777
30
0.0
11
-5.508507
21
-3.584777
31
0.0
0
LINE
8
0
6
CONTINUOUS
10
-5.549711
20
-3.584777
30
0.0
11
-5.549711
21
-3.267365
31
0.0
0
LINE
8
0
6
CONTINUOUS
10
-5.508507
20
-3.584777
30
0.0
11
-5.549711
21
-3.584777
31
0.0
0
LINE
8
0
6
CONTINUOUS
10
-5.508507
20
-3.334037
30
0.0
11
-5.508507
21
-3.584777
31
0.0
0
LINE
8
0
6
CONTINUOUS
10
-7.841845
20
-3.587386
30
0.0
11
-8.042484
21
-3.587386
31
0.0
0
LINE
8
0
6
CONTINUOUS
10
-8.042484
20
-3.587386
30
0.0
11
-8.335958
21
-3.587386
31
0.0
0
LINE
8
0
6
CONTINUOUS
10
-8.335958
20
-3.587386
30
0.0
11
-8.428787
21
-3.587386
31
0.0
0
LINE
8
0
6
CONTINUOUS
10
-8.335958
20
-3.353983
30
0.0
11
-8.335958
21
-3.587386
31
0.0
0
LINE
8
0
6
CONTINUOUS
10
-8.042484
20
-3.587386
30
0.0
11
-7.841845
21
-3.587386
31
0.0
0
LINE
8
0
6
CONTINUOUS
10
-8.335958
20
-3.587386
30
0.0
11
-8.042484
21
-3.587386
31
0.0
0
LINE
8
0
6
CONTINUOUS
10
-8.428787
20
-3.587386
30
0.0
11
-8.335958
21
-3.587386
31
0.0
0
LINE
8
0
6
CONTINUOUS
10
-8.428787
20
-3.342678
30
0.0
11
-8.428787
21
-3.587386
31
0.0
0
LINE
8
0
6
CONTINUOUS
10
-3.399669
20
-3.598171
30
0.0
11
-3.592298
21
-3.598171
31
0.0
0
LINE
8
0
6
CONTINUOUS
10
-3.399669
20
-3.393871
30
0.0
11
-3.399669
21
-3.598171
31
0.0
0
LINE
8
0
6
CONTINUOUS
10
-3.592298
20
-3.598171
30
0.0
11
-3.887787
21
-3.598171
31
0.0
0
LINE
8
0
6
CONTINUOUS
10
-3.592298
20
-3.359336
30
0.0
11
-3.592298
21
-3.598171
31
0.0
0
LINE
8
0
6
CONTINUOUS
10
-3.592298
20
-3.598171
30
0.0
11
-3.399669
21
-3.598171
31
0.0
0
LINE
8
0
6
CONTINUOUS
10
-3.887787
20
-3.598171
30
0.0
11
-3.592298
21
-3.598171
31
0.0
0
LINE
8
0
6
CONTINUOUS
10
-3.990647
20
-3.598171
30
0.0
11
-3.887787
21
-3.598171
31
0.0
0
LINE
8
0
6
CONTINUOUS
10
-3.990647
20
-3.598171
30
0.0
11
-3.990647
21
-3.267365
31
0.0
0
LINE
8
0
6
CONTINUOUS
10
-3.887787
20
-3.598171
30
0.0
11
-3.990647
21
-3.598171
31
0.0
0
LINE
8
0
6
CONTINUOUS
10
-3.887787
20
-3.341064
30
0.0
11
-3.887787
21
-3.598171
31
0.0
0
LINE
8
0
6
CONTINUOUS
10
-2.257674
20
-3.713923
30
0.0
11
-2.404147
21
-3.713923
31
0.0
0
LINE
8
0
6
CONTINUOUS
10
-2.257674
20
-3.518373
30
0.0
11
-2.257674
21
-3.713923
31
0.0
0
LINE
8
0
6
CONTINUOUS
10
-2.404147
20
-3.713923
30
0.0
11
-2.671176
21
-3.713923
31
0.0
0
LINE
8
0
6
CONTINUOUS
10
-2.404147
20
-3.479328
30
0.0
11
-2.404147
21
-3.713923
31
0.0
0
LINE
8
0
6
CONTINUOUS
10
-2.404147
20
-3.713923
30
0.0
11
-2.257674
21
-3.713923
31
0.0
0
LINE
8
0
6
CONTINUOUS
10
-2.671176
20
-3.713923
30
0.0
11
-2.404147
21
-3.713923
31
0.0
0
LINE
8
0
6
CONTINUOUS
10
-2.791733
20
-3.713923
30
0.0
11
-2.671176
21
-3.713923
31
0.0
0
LINE
8
0
6
CONTINUOUS
10
-2.791733
20
-3.713923
30
0.0
11
-2.791733
21
-3.593749
31
0.0
0
LINE
8
0
6
CONTINUOUS
10
-2.671176
20
-3.713923
30
0.0
11
-2.791733
21
-3.713923
31
0.0
0
LINE
8
0
6
CONTINUOUS
10
-2.671176
20
-3.465674
30
0.0
11
-2.671176
21
-3.713923
31
0.0
0
LINE
8
0
6
CONTINUOUS
10
-7.214212
20
-3.702990
30
0.0
11
-7.403195
21
-3.702990
31
0.0
0
LINE
8
0
6
CONTINUOUS
10
-7.403195
20
-3.702990
30
0.0
11
-7.515233
21
-3.702990
31
0.0
0
LINE
8
0
6
CONTINUOUS
10
-7.403195
20
-3.483353
30
0.0
11
-7.403195
21
-3.702990
31
0.0
0
LINE
8
0
6
CONTINUOUS
10
-7.403195
20
-3.702990
30
0.0
11
-7.214212
21
-3.702990
31
0.0
0
LINE
8
0
6
CONTINUOUS
10
-7.515233
20
-3.702990
30
0.0
11
-7.403195
21
-3.702990
31
0.0
0
LINE
8
0
6
CONTINUOUS
10
-7.515233
20
-3.467985
30
0.0
11
-7.515233
21
-3.702990
31
0.0
0
LINE
8
0
6
CONTINUOUS
10
-3.766735
20
-3.708369
30
0.0
11
-3.957050
21
-3.708369
31
0.0
0
LINE
8
0
6
CONTINUOUS
10
-3.766735
20
-3.512546
30
0.0
11
-3.766735
21
-3.708369
31
0.0
0
LINE
8
0
6
CONTINUOUS
10
-3.957050
20
-3.708369
30
0.0
11
-4.214939
21
-3.708369
31
0.0
0
LINE
8
0
6
CONTINUOUS
10
-3.957050
20
-3.708369
30
0.0
11
-3.766735
21
-3.708369
31
0.0
0
LINE
8
0
6
CONTINUOUS
10
-4.214939
20
-3.708369
30
0.0
11
-3.957050
21
-3.708369
31
0.0
0
LINE
8
0
6
CONTINUOUS
10
-4.282514
20
-3.708369
30
0.0
11
-4.214939
21
-3.708369
31
0.0
0
LINE
8
0
6
CONTINUOUS
10
-4.282514
20
-3.708369
30
0.0
11
-4.282514
21
-3.596532
31
0.0
0
LINE
8
0
6
CONTINUOUS
10
-4.214939
20
-3.708369
30
0.0
11
-4.282514
21
-3.708369
31
0.0
0
LINE
8
0
6
CONTINUOUS
10
-4.214939
20
-3.463650
30
0.0
11
-4.214939
21
-3.708369
31
0.0
0
LINE
8
0
6
CONTINUOUS
10
-7.096695
20
-3.706529
30
0.0
11
-7.351918
21
-3.706529
31
0.0
0
LINE
8
0
6
CONTINUOUS
10
-7.351918
20
-3.706529
30
0.0
11
-7.410299
21
-3.706529
31
0.0
0
LINE
8
0
6
CONTINUOUS
10
-7.351918
20
-3.706529
30
0.0
11
-7.096695
21
-3.706529
31
0.0
0
LINE
8
0
6
CONTINUOUS
10
-7.410299
20
-3.706529
30
0.0
11
-7.351918
21
-3.706529
31
0.0
0
LINE
8
0
6
CONTINUOUS
10
-5.074432
20
-3.695086
30
0.0
11
-5.300052
21
-3.695086
31
0.0
0
LINE
8
0
6
CONTINUOUS
10
-5.074432
20
-3.493867
30
0.0
11
-5.074432
21
-3.695086
31
0.0
0
LINE
8
0
6
CONTINUOUS
10
-5.300052
20
-3.695086
30
0.0
11
-5.537232
21
-3.695086
31
0.0
0
LINE
8
0
6
CONTINUOUS
10
-5.300052
20
-3.695086
30
0.0
11
-5.074432
21
-3.695086
31
0.0
0
LINE
8
0
6
CONTINUOUS
10
-5.537232
20
-3.695086
30
0.0
11
-5.300052
21
-3.695086
31
0.0
0
LINE
8
0
6
CONTINUOUS
10
-5.548795
20
-3.695086
30
0.0
11
-5.537232
21
-3.695086
31
0.0
0
LINE
8
0
6
CONTINUOUS
10
-5.548795
20
-3.695086
30
0.0
11
-5.548795
21
-3.584777
31
0.0
0
LINE
8
0
6
CONTINUOUS
10
-5.537232
20
-3.695086
30
0.0
11
-5.548795
21
-3.695086
31
0.0
0
LINE
8
0
6
CONTINUOUS
10
-6.797814
20
-3.707945
30
0.0
11
-6.945874
21
-3.707945
31
0.0
0
LINE
8
0
6
CONTINUOUS
10
-6.945874
20
-3.707945
30
0.0
11
-6.797814
21
-3.707945
31
0.0
0
LINE
8
0
6
CONTINUOUS
10
-6.056703
20
-3.708314
30
0.0
11
-6.101671
21
-3.708314
31
0.0
0
LINE
8
0
6
CONTINUOUS
10
-6.056703
20
-3.531647
30
0.0
11
-6.056703
21
-3.708314
31
0.0
0
LINE
8
0
6
CONTINUOUS
10
-6.101671
20
-3.708314
30
0.0
11
-6.352476
21
-3.708314
31
0.0
0
LINE
8
0
6
CONTINUOUS
10
-6.101671
20
-3.514273
30
0.0
11
-6.101671
21
-3.708314
31
0.0
0
LINE
8
0
6
CONTINUOUS
10
-6.352476
20
-3.708314
30
0.0
11
-6.558310
21
-3.708314
31
0.0
0
LINE
8
0
6
CONTINUOUS
10
-6.352476
20
-3.620060
30
0.0
11
-6.352476
21
-3.708314
31
0.0
0
LINE
8
0
6
CONTINUOUS
10
-6.101671
20
-3.708314
30
0.0
11
-6.056703
21
-3.708314
31
0.0
0
LINE
8
0
6
CONTINUOUS
10
-6.352476
20
-3.708314
30
0.0
11
-6.103097
21
-3.708314
31
0.0
0
LINE
8
0
6
CONTINUOUS
10
-6.558310
20
-3.708314
30
0.0
11
-6.352476
21
-3.708314
31
0.0
0
LINE
8
0
6
CONTINUOUS
10
-6.558310
20
-3.597271
30
0.0
11
-6.558310
21
-3.708314
31
0.0
0
LINE
8
0
6
CONTINUOUS
10
-0.553411
20
-3.707005
30
0.0
11
-0.644054
21
-3.707005
31
0.0
0
LINE
8
0
6
CONTINUOUS
10
-0.553411
20
-3.509681
30
0.0
11
-0.553411
21
-3.707005
31
0.0
0
LINE
8
0
6
CONTINUOUS
10
-0.644054
20
-3.707005
30
0.0
11
-0.907285
21
-3.707005
31
0.0
0
LINE
8
0
6
CONTINUOUS
10
-0.644054
20
-3.473194
30
0.0
11
-0.644054
21
-3.707005
31
0.0
0
LINE
8
0
6
CONTINUOUS
10
-0.644054
20
-3.707005
30
0.0
11
-0.553411
21
-3.707005
31
0.0
0
LINE
8
0
6
CONTINUOUS
10
-0.907285
20
-3.707005
30
0.0
11
-0.644054
21
-3.707005
31
0.0
0
LINE
8
0
6
CONTINUOUS
10
-1.079872
20
-3.707005
30
0.0
11
-0.907285
21
-3.707005
31
0.0
0
LINE
8
0
6
CONTINUOUS
10
-1.079872
20
-3.707005
30
0.0
11
-1.079872
21
-3.589685
31
0.0
0
LINE
8
0
6
CONTINUOUS
10
-0.907285
20
-3.707005
30
0.0
11
-1.079872
21
-3.707005
31
0.0
0
LINE
8
0
6
CONTINUOUS
10
-0.907285
20
-3.461310
30
0.0
11
-0.907285
21
-3.707005
31
0.0
0
LINE
8
0
6
CONTINUOUS
10
-6.684736
20
-3.706049
30
0.0
11
-6.784219
21
-3.706049
31
0.0
0
LINE
8
0
6
CONTINUOUS
10
-6.684736
20
-3.581900
30
0.0
11
-6.684736
21
-3.706049
31
0.0
0
LINE
8
0
6
CONTINUOUS
10
-6.784219
20
-3.706049
30
0.0
11
-7.048957
21
-3.706049
31
0.0
0
LINE
8
0
6
CONTINUOUS
10
-6.784219
20
-3.568254
30
0.0
11
-6.784219
21
-3.706049
31
0.0
0
LINE
8
0
6
CONTINUOUS
10
-7.048957
20
-3.706049
30
0.0
11
-7.214212
21
-3.706049
31
0.0
0
LINE
8
0
6
CONTINUOUS
10
-7.048957
20
-3.468651
30
0.0
11
-7.048957
21
-3.706049
31
0.0
0
LINE
8
0
6
CONTINUOUS
10
-6.784219
20
-3.706049
30
0.0
11
-6.684736
21
-3.706049
31
0.0
0
LINE
8
0
6
CONTINUOUS
10
-7.048957
20
-3.706049
30
0.0
11
-6.784219
21
-3.706049
31
0.0
0
LINE
8
0
6
CONTINUOUS
10
-7.214212
20
-3.706049
30
0.0
11
-7.048957
21
-3.706049
31
0.0
0
LINE
8
0
6
CONTINUOUS
10
-7.214212
20
-3.509274
30
0.0
11
-7.214212
21
-3.706049
31
0.0
0
LINE
8
0
6
CONTINUOUS
10
-5.236232
20
-3.897990
30
0.0
11
-5.320138
21
-3.897990
31
0.0
0
LINE
8
0
6
CONTINUOUS
10
-5.236232
20
-3.743645
30
0.0
11
-5.236232
21
-3.897990
31
0.0
0
LINE
8
0
6
CONTINUOUS
10
-5.320138
20
-3.897990
30
0.0
11
-5.522578
21
-3.897990
31
0.0
0
LINE
8
0
6
CONTINUOUS
10
-5.320138
20
-3.734355
30
0.0
11
-5.320138
21
-3.897990
31
0.0
0
LINE
8
0
6
CONTINUOUS
10
-5.522578
20
-3.897990
30
0.0
11
-5.641113
21
-3.897990
31
0.0
0
LINE
8
0
6
CONTINUOUS
10
-5.522578
20
-3.711942
30
0.0
11
-5.522578
21
-3.897990
31
0.0
0
LINE
8
0
6
CONTINUOUS
10
-5.320138
20
-3.897990
30
0.0
11
-5.236232
21
-3.897990
31
0.0
0
LINE
8
0
6
CONTINUOUS
10
-5.522578
20
-3.897990
30
0.0
11
-5.320138
21
-3.897990
31
0.0
0
LINE
8
0
6
CONTINUOUS
10
-5.641113
20
-3.897990
30
0.0
11
-5.522578
21
-3.897990
31
0.0
0
LINE
8
0
6
CONTINUOUS
10
-5.641113
20
-3.667058
30
0.0
11
-5.641113
21
-3.897990
31
0.0
0
LINE
8
0
6
CONTINUOUS
10
-1.294041
20
-3.906238
30
0.0
11
-1.371342
21
-3.906238
31
0.0
0
LINE
8
0
6
CONTINUOUS
10
-1.371342
20
-3.906238
30
0.0
11
-1.571630
21
-3.906238
31
0.0
0
LINE
8
0
6
CONTINUOUS
10
-1.371342
20
-3.906238
30
0.0
11
-1.294041
21
-3.906238
31
0.0
0
LINE
8
0
6
CONTINUOUS
10
-1.572950
20
-3.906238
30
0.0
11
-1.371342
21
-3.906238
31
0.0
0
LINE
8
0
6
CONTINUOUS
10
-1.697255
20
-3.906238
30
0.0
11
-1.572950
21
-3.906238
31
0.0
0
LINE
8
0
6
CONTINUOUS
10
-1.697255
20
-3.906238
30
0.0
11
-1.697255
21
-3.805583
31
0.0
0
LINE
8
0
6
CONTINUOUS
10
-1.572950
20
-3.906238
30
0.0
11
-1.697255
21
-3.906238
31
0.0
0
LINE
8
0
6
CONTINUOUS
10
-4.724551
20
-3.898080
30
0.0
11
-4.767548
21
-3.898080
31
0.0
0
LINE
8
0
6
CONTINUOUS
10
-4.724551
20
-3.715136
30
0.0
11
-4.724551
21
-3.898080
31
0.0
0
LINE
8
0
6
CONTINUOUS
10
-4.767548
20
-3.898080
30
0.0
11
-4.961237
21
-3.898080
31
0.0
0
LINE
8
0
6
CONTINUOUS
10
-4.767548
20
-3.696518
30
0.0
11
-4.767548
21
-3.898080
31
0.0
0
LINE
8
0
6
CONTINUOUS
10
-4.961237
20
-3.898080
30
0.0
11
-5.111929
21
-3.898080
31
0.0
0
LINE
8
0
6
CONTINUOUS
10
-4.961237
20
-3.670257
30
0.0
11
-4.961237
21
-3.898080
31
0.0
0
LINE
8
0
6
CONTINUOUS
10
-4.767548
20
-3.898080
30
0.0
11
-4.724551
21
-3.898080
31
0.0
0
LINE
8
0
6
CONTINUOUS
10
-4.961237
20
-3.898080
30
0.0
11
-4.767548
21
-3.898080
31
0.0
0
LINE
8
0
6
CONTINUOUS
10
-5.111929
20
-3.898080
30
0.0
11
-4.961237
21
-3.898080
31
0.0
0
LINE
8
0
6
CONTINUOUS
10
-5.111929
20
-3.757407
30
0.0
11
-5.111929
21
-3.898080
31
0.0
0
LINE
8
0
6
CONTINUOUS
10
0.182074
20
-3.914064
30
0.0
11
0.146134
21
-3.914064
31
0.0
0
LINE
8
0
6
CONTINUOUS
10
0.146134
20
-3.914064
30
0.0
11
-0.045237
21
-3.914064
31
0.0
0
LINE
8
0
6
CONTINUOUS
10
0.146134
20
-3.914064
30
0.0
11
0.182074
21
-3.914064
31
0.0
0
LINE
8
0
6
CONTINUOUS
10
-0.045237
20
-3.914064
30
0.0
11
0.146134
21
-3.914064
31
0.0
0
LINE
8
0
6
CONTINUOUS
10
-0.200666
20
-3.914064
30
0.0
11
-0.045237
21
-3.914064
31
0.0
0
LINE
8
0
6
CONTINUOUS
10
-0.200666
20
-3.914064
30
0.0
11
-0.200666
21
-3.817134
31
0.0
0
LINE
8
0
6
CONTINUOUS
10
-0.045237
20
-3.914064
30
0.0
11
-0.200666
21
-3.914064
31
0.0
0
LINE
8
0
6
CONTINUOUS
10
-4.907773
20
-3.913511
30
0.0
11
-4.925094
21
-3.913511
31
0.0
0
LINE
8
0
6
CONTINUOUS
10
-4.925094
20
-3.913511
30
0.0
11
-5.097475
21
-3.913511
31
0.0
0
LINE
8
0
6
CONTINUOUS
10
-4.925094
20
-3.913511
30
0.0
11
-4.907773
21
-3.913511
31
0.0
0
LINE
8
0
6
CONTINUOUS
10
-5.097475
20
-3.913511
30
0.0
11
-4.925094
21
-3.913511
31
0.0
0
LINE
8
0
6
CONTINUOUS
10
-3.855373
20
-3.904834
30
0.0
11
-4.031625
21
-3.904834
31
0.0
0
LINE
8
0
6
CONTINUOUS
10
-3.855373
20
-3.699725
30
0.0
11
-3.855373
21
-3.904834
31
0.0
0
LINE
8
0
6
CONTINUOUS
10
-4.031625
20
-3.904834
30
0.0
11
-4.207715
21
-3.904834
31
0.0
0
LINE
8
0
6
CONTINUOUS
10
-4.031625
20
-3.852647
30
0.0
11
-4.031625
21
-3.904834
31
0.0
0
LINE
8
0
6
CONTINUOUS
10
-4.031625
20
-3.904834
30
0.0
11
-3.855373
21
-3.904834
31
0.0
0
LINE
8
0
6
CONTINUOUS
10
-4.207715
20
-3.904834
30
0.0
11
-4.031625
21
-3.904834
31
0.0
0
LINE
8
0
6
CONTINUOUS
10
-4.207715
20
-3.840838
30
0.0
11
-4.207715
21
-3.904834
31
0.0
0
LINE
8
0
6
CONTINUOUS
10
-5.282268
20
-3.899550
30
0.0
11
-5.437903
21
-3.899550
31
0.0
0
LINE
8
0
6
CONTINUOUS
10
-5.437903
20
-3.899550
30
0.0
11
-5.472888
21
-3.899550
31
0.0
0
LINE
8
0
6
CONTINUOUS
10
-5.437903
20
-3.899550
30
0.0
11
-5.282268
21
-3.899550
31
0.0
0
LINE
8
0
6
CONTINUOUS
10
-5.472888
20
-3.899550
30
0.0
11
-5.437903
21
-3.899550
31
0.0
0
LINE
8
0
6
CONTINUOUS
10
-2.710196
20
-3.906723
30
0.0
11
-2.861103
21
-3.906723
31
0.0
0
LINE
8
0
6
CONTINUOUS
10
-2.710196
20
-3.703533
30
0.0
11
-2.710196
21
-3.906723
31
0.0
0
LINE
8
0
6
CONTINUOUS
10
-2.861103
20
-3.906723
30
0.0
11
-3.054694
21
-3.906723
31
0.0
0
LINE
8
0
6
CONTINUOUS
10
-2.861103
20
-3.906723
30
0.0
11
-2.710196
21
-3.906723
31
0.0
0
LINE
8
0
6
CONTINUOUS
10
-3.054694
20
-3.906723
30
0.0
11
-2.861103
21
-3.906723
31
0.0
0
LINE
8
0
6
CONTINUOUS
10
-3.097379
20
-3.906723
30
0.0
11
-3.054694
21
-3.906723
31
0.0
0
LINE
8
0
6
CONTINUOUS
10
-3.097379
20
-3.906723
30
0.0
11
-3.097379
21
-3.795734
31
0.0
0
LINE
8
0
6
CONTINUOUS
10
-3.054694
20
-3.906723
30
0.0
11
-3.097379
21
-3.906723
31
0.0
0
LINE
8
0
6
CONTINUOUS
10
-5.472888
20
-3.901314
30
0.0
11
-5.597445
21
-3.901314
31
0.0
0
LINE
8
0
6
CONTINUOUS
10
-5.597445
20
-3.901314
30
0.0
11
-5.799010
21
-3.901314
31
0.0
0
LINE
8
0
6
CONTINUOUS
10
-5.799010
20
-3.901314
30
0.0
11
-5.876015
21
-3.901314
31
0.0
0
LINE
8
0
6
CONTINUOUS
10
-5.597445
20
-3.901314
30
0.0
11
-5.472888
21
-3.901314
31
0.0
0
LINE
8
0
6
CONTINUOUS
10
-5.799010
20
-3.901314
30
0.0
11
-5.597445
21
-3.901314
31
0.0
0
LINE
8
0
6
CONTINUOUS
10
-5.876015
20
-3.901314
30
0.0
11
-5.799010
21
-3.901314
31
0.0
0
LINE
8
0
6
CONTINUOUS
10
-1.769468
20
-3.998052
30
0.0
11
-1.846769
21
-3.998052
31
0.0
0
LINE
8
0
6
CONTINUOUS
10
-1.769468
20
-3.794833
30
0.0
11
-1.769468
21
-3.998052
31
0.0
0
LINE
8
0
6
CONTINUOUS
10
-1.846769
20
-3.998052
30
0.0
11
-2.047043
21
-3.998052
31
0.0
0
LINE
8
0
6
CONTINUOUS
10
-1.846769
20
-3.780461
30
0.0
11
-1.846769
21
-3.998052
31
0.0
0
LINE
8
0
6
CONTINUOUS
10
-1.846769
20
-3.998052
30
0.0
11
-1.769468
21
-3.998052
31
0.0
0
LINE
8
0
6
CONTINUOUS
10
-2.048376
20
-3.998052
30
0.0
11
-1.846769
21
-3.998052
31
0.0
0
LINE
8
0
6
CONTINUOUS
10
-2.172681
20
-3.998052
30
0.0
11
-2.048376
21
-3.998052
31
0.0
0
LINE
8
0
6
CONTINUOUS
10
-2.172681
20
-3.998052
30
0.0
11
-2.172681
21
-3.815913
31
0.0
0
LINE
8
0
6
CONTINUOUS
10
-2.048376
20
-3.998052
30
0.0
11
-2.172681
21
-3.998052
31
0.0
0
LINE
8
0
6
CONTINUOUS
10
-2.048376
20
-3.774474
30
0.0
11
-2.048376
21
-3.998052
31
0.0
0
LINE
8
0
6
CONTINUOUS
10
-2.222520
20
-4.046663
30
0.0
11
-2.299822
21
-4.046663
31
0.0
0
LINE
8
0
6
CONTINUOUS
10
-2.222520
20
-3.850499
30
0.0
11
-2.222520
21
-4.046663
31
0.0
0
LINE
8
0
6
CONTINUOUS
10
-2.299822
20
-4.046663
30
0.0
11
-2.501429
21
-4.046663
31
0.0
0
LINE
8
0
6
CONTINUOUS
10
-2.299822
20
-3.834543
30
0.0
11
-2.299822
21
-4.046663
31
0.0
0
LINE
8
0
6
CONTINUOUS
10
-2.299822
20
-4.046663
30
0.0
11
-2.222520
21
-4.046663
31
0.0
0
LINE
8
0
6
CONTINUOUS
10
-2.501429
20
-4.046663
30
0.0
11
-2.299822
21
-4.046663
31
0.0
0
LINE
8
0
6
CONTINUOUS
10
-2.625734
20
-4.046663
30
0.0
11
-2.501429
21
-4.046663
31
0.0
0
LINE
8
0
6
CONTINUOUS
10
-2.625734
20
-4.046663
30
0.0
11
-2.625734
21
-3.815913
31
0.0
0
LINE
8
0
6
CONTINUOUS
10
-2.501429
20
-4.046663
30
0.0
11
-2.625734
21
-4.046663
31
0.0
0
LINE
8
0
6
CONTINUOUS
10
-2.501429
20
-3.818988
30
0.0
11
-2.501429
21
-4.046663
31
0.0
0
LINE
8
0
6
CONTINUOUS
10
-3.279641
20
-3.984552
30
0.0
11
-3.356943
21
-3.984552
31
0.0
0
LINE
8
0
6
CONTINUOUS
10
-3.279641
20
-3.790902
30
0.0
11
-3.279641
21
-3.984552
31
0.0
0
LINE
8
0
6
CONTINUOUS
10
-3.356943
20
-3.984552
30
0.0
11
-3.558550
21
-3.984552
31
0.0
0
LINE
8
0
6
CONTINUOUS
10
-3.356943
20
-3.772434
30
0.0
11
-3.356943
21
-3.984552
31
0.0
0
LINE
8
0
6
CONTINUOUS
10
-3.356943
20
-3.984552
30
0.0
11
-3.279641
21
-3.984552
31
0.0
0
LINE
8
0
6
CONTINUOUS
10
-3.558550
20
-3.984552
30
0.0
11
-3.356943
21
-3.984552
31
0.0
0
LINE
8
0
6
CONTINUOUS
10
-3.682855
20
-3.984552
30
0.0
11
-3.558550
21
-3.984552
31
0.0
0
LINE
8
0
6
CONTINUOUS
10
-3.682855
20
-3.984552
30
0.0
11
-3.682855
21
-3.816219
31
0.0
0
LINE
8
0
6
CONTINUOUS
10
-3.558550
20
-3.984552
30
0.0
11
-3.682855
21
-3.984552
31
0.0
0
LINE
8
0
6
CONTINUOUS
10
-3.558550
20
-3.757754
30
0.0
11
-3.558550
21
-3.984552
31
0.0
0
LINE
8
0
6
CONTINUOUS
10
-4.252864
20
-3.999631
30
0.0
11
-4.330166
21
-3.999631
31
0.0
0
LINE
8
0
6
CONTINUOUS
10
-4.252864
20
-3.803748
30
0.0
11
-4.252864
21
-3.999631
31
0.0
0
LINE
8
0
6
CONTINUOUS
10
-4.330166
20
-3.999631
30
0.0
11
-4.531773
21
-3.999631
31
0.0
0
LINE
8
0
6
CONTINUOUS
10
-4.330166
20
-3.794987
30
0.0
11
-4.330166
21
-3.999631
31
0.0
0
LINE
8
0
6
CONTINUOUS
10
-4.330166
20
-3.999631
30
0.0
11
-4.252864
21
-3.999631
31
0.0
0
LINE
8
0
6
CONTINUOUS
10
-4.531773
20
-3.999631
30
0.0
11
-4.330166
21
-3.999631
31
0.0
0
LINE
8
0
6
CONTINUOUS
10
-4.656078
20
-3.999631
30
0.0
11
-4.531773
21
-3.999631
31
0.0
0
LINE
8
0
6
CONTINUOUS
10
-4.656078
20
-3.999631
30
0.0
11
-4.656078
21
-3.807877
31
0.0
0
LINE
8
0
6
CONTINUOUS
10
-4.531773
20
-3.999631
30
0.0
11
-4.656078
21
-3.999631
31
0.0
0
LINE
8
0
6
CONTINUOUS
10
-4.531773
20
-3.781665
30
0.0
11
-4.531773
21
-3.999631
31
0.0
0
LINE
8
0
6
CONTINUOUS
10
-4.504560
20
-4.003200
30
0.0
11
-4.581861
21
-4.003200
31
0.0
0
LINE
8
0
6
CONTINUOUS
10
-4.581861
20
-4.003200
30
0.0
11
-4.783469
21
-4.003200
31
0.0
0
LINE
8
0
6
CONTINUOUS
10
-4.581861
20
-4.003200
30
0.0
11
-4.504560
21
-4.003200
31
0.0
0
LINE
8
0
6
CONTINUOUS
10
-4.783469
20
-4.003200
30
0.0
11
-4.581861
21
-4.003200
31
0.0
0
LINE
8
0
6
CONTINUOUS
10
-4.907773
20
-4.003200
30
0.0
11
-4.783469
21
-4.003200
31
0.0
0
LINE
8
0
6
CONTINUOUS
10
-4.907773
20
-4.003200
30
0.0
11
-4.907773
21
-3.898080
31
0.0
0
LINE
8
0
6
CONTINUOUS
10
-4.783469
20
-4.003200
30
0.0
11
-4.907773
21
-4.003200
31
0.0
0
LINE
8
0
6
CONTINUOUS
10
-4.370823
20
-4.003881
30
0.0
11
-4.286924
21
-4.003881
31
0.0
0
LINE
8
0
6
CONTINUOUS
10
-4.370823
20
-4.003881
30
0.0
11
-4.370823
21
-3.999631
31
0.0
0
LINE
8
0
6
CONTINUOUS
10
-4.286924
20
-4.003881
30
0.0
11
-4.370823
21
-4.003881
31
0.0
0
LINE
8
0
6
CONTINUOUS
10
-2.642013
20
-3.995289
30
0.0
11
-2.719315
21
-3.995289
31
0.0
0
LINE
8
0
6
CONTINUOUS
10
-2.719315
20
-3.995289
30
0.0
11
-2.920922
21
-3.995289
31
0.0
0
LINE
8
0
6
CONTINUOUS
10
-2.719315
20
-3.940653
30
0.0
11
-2.719315
21
-3.995289
31
0.0
0
LINE
8
0
6
CONTINUOUS
10
-2.719315
20
-3.995289
30
0.0
11
-2.642013
21
-3.995289
31
0.0
0
LINE
8
0
6
CONTINUOUS
10
-2.920922
20
-3.995289
30
0.0
11
-2.719315
21
-3.995289
31
0.0
0
LINE
8
0
6
CONTINUOUS
10
-2.960827
20
-3.995289
30
0.0
11
-2.920922
21
-3.995289
31
0.0
0
LINE
8
0
6
CONTINUOUS
10
-2.920922
20
-3.995289
30
0.0
11
-2.960827
21
-3.995289
31
0.0
0
LINE
8
0
6
CONTINUOUS
10
-2.920922
20
-3.927133
30
0.0
11
-2.920922
21
-3.995289
31
0.0
0
LINE
8
0
6
CONTINUOUS
10
-0.762686
20
-4.036983
30
0.0
11
-0.839987
21
-4.036983
31
0.0
0
LINE
8
0
6
CONTINUOUS
10
-0.762686
20
-3.834066
30
0.0
11
-0.762686
21
-4.034075
31
0.0
0
LINE
8
0
6
CONTINUOUS
10
-0.839987
20
-4.036983
30
0.0
11
-1.041594
21
-4.036983
31
0.0
0
LINE
8
0
6
CONTINUOUS
10
-0.839987
20
-3.819392
30
0.0
11
-0.839987
21
-4.034075
31
0.0
0
LINE
8
0
6
CONTINUOUS
10
-0.839987
20
-4.036983
30
0.0
11
-0.762686
21
-4.036983
31
0.0
0
LINE
8
0
6
CONTINUOUS
10
-1.041594
20
-4.036983
30
0.0
11
-0.839987
21
-4.036983
31
0.0
0
LINE
8
0
6
CONTINUOUS
10
-1.165899
20
-4.036983
30
0.0
11
-1.041594
21
-4.036983
31
0.0
0
LINE
8
0
6
CONTINUOUS
10
-1.165899
20
-4.036983
30
0.0
11
-1.165899
21
-3.946405
31
0.0
0
LINE
8
0
6
CONTINUOUS
10
-1.041594
20
-4.036983
30
0.0
11
-1.165899
21
-4.036983
31
0.0
0
LINE
8
0
6
CONTINUOUS
10
-1.041594
20
-3.813405
30
0.0
11
-1.041594
21
-4.034075
31
0.0
0
LINE
8
0
6
CONTINUOUS
10
-3.329980
20
-4.047721
30
0.0
11
-3.407282
21
-4.047721
31
0.0
0
LINE
8
0
6
CONTINUOUS
10
-3.407282
20
-4.047721
30
0.0
11
-3.608889
21
-4.047721
31
0.0
0
LINE
8
0
6
CONTINUOUS
10
-3.407282
20
-4.047721
30
0.0
11
-3.329980
21
-4.047721
31
0.0
0
LINE
8
0
6
CONTINUOUS
10
-3.608889
20
-4.047721
30
0.0
11
-3.407282
21
-4.047721
31
0.0
0
LINE
8
0
6
CONTINUOUS
10
-3.733194
20
-4.047721
30
0.0
11
-3.608889
21
-4.047721
31
0.0
0
LINE
8
0
6
CONTINUOUS
10
-3.733194
20
-4.047721
30
0.0
11
-3.733194
21
-3.816219
31
0.0
0
LINE
8
0
6
CONTINUOUS
10
-3.608889
20
-4.047721
30
0.0
11
-3.733194
21
-4.047721
31
0.0
0
LINE
8
0
6
CONTINUOUS
10
-3.883710
20
-4.045490
30
0.0
11
-3.961012
21
-4.045490
31
0.0
0
LINE
8
0
6
CONTINUOUS
10
-3.883710
20
-3.862567
30
0.0
11
-3.883710
21
-4.045490
31
0.0
0
LINE
8
0
6
CONTINUOUS
10
-3.961012
20
-4.045490
30
0.0
11
-4.162619
21
-4.045490
31
0.0
0
LINE
8
0
6
CONTINUOUS
10
-3.961012
20
-3.857383
30
0.0
11
-3.961012
21
-4.045490
31
0.0
0
LINE
8
0
6
CONTINUOUS
10
-3.961012
20
-4.045490
30
0.0
11
-3.883710
21
-4.045490
31
0.0
0
LINE
8
0
6
CONTINUOUS
10
-4.162619
20
-4.045490
30
0.0
11
-3.961012
21
-4.045490
31
0.0
0
LINE
8
0
6
CONTINUOUS
10
-4.286924
20
-4.045490
30
0.0
11
-4.162619
21
-4.045490
31
0.0
0
LINE
8
0
6
CONTINUOUS
10
-4.286924
20
-4.045490
30
0.0
11
-4.286924
21
-3.999631
31
0.0
0
LINE
8
0
6
CONTINUOUS
10
-4.162619
20
-4.045490
30
0.0
11
-4.286924
21
-4.045490
31
0.0
0
LINE
8
0
6
CONTINUOUS
10
-4.162619
20
-3.843863
30
0.0
11
-4.162619
21
-4.045490
31
0.0
0
LINE
8
0
6
CONTINUOUS
10
-3.715913
20
-4.043903
30
0.0
11
-3.793215
21
-4.043903
31
0.0
0
LINE
8
0
6
CONTINUOUS
10
-3.793215
20
-4.043903
30
0.0
11
-3.883710
21
-4.043903
31
0.0
0
LINE
8
0
6
CONTINUOUS
10
-3.793215
20
-3.868635
30
0.0
11
-3.793215
21
-4.043903
31
0.0
0
LINE
8
0
6
CONTINUOUS
10
-3.793215
20
-4.043903
30
0.0
11
-3.715913
21
-4.043903
31
0.0
0
LINE
8
0
6
CONTINUOUS
10
-3.883710
20
-4.043903
30
0.0
11
-3.793215
21
-4.043903
31
0.0
0
LINE
8
0
6
CONTINUOUS
10
-2.960827
20
-4.049081
30
0.0
11
-3.038128
21
-4.049081
31
0.0
0
LINE
8
0
6
CONTINUOUS
10
-2.960827
20
-3.924457
30
0.0
11
-2.960827
21
-4.049081
31
0.0
0
LINE
8
0
6
CONTINUOUS
10
-3.038128
20
-4.049081
30
0.0
11
-3.081766
21
-4.049081
31
0.0
0
LINE
8
0
6
CONTINUOUS
10
-3.038128
20
-3.919273
30
0.0
11
-3.038128
21
-4.049081
31
0.0
0
LINE
8
0
6
CONTINUOUS
10
-3.038128
20
-4.049081
30
0.0
11
-2.960827
21
-4.049081
31
0.0
0
LINE
8
0
6
CONTINUOUS
10
-3.081766
20
-4.049081
30
0.0
11
-3.038128
21
-4.049081
31
0.0
0
LINE
8
0
6
CONTINUOUS
10
-1.867093
20
-4.047154
30
0.0
11
-1.897359
21
-4.047154
31
0.0
0
LINE
8
0
6
CONTINUOUS
10
-1.897359
20
-4.047154
30
0.0
11
-1.867093
21
-4.047154
31
0.0
0
LINE
8
0
6
CONTINUOUS
10
-2.021664
20
-4.047154
30
0.0
11
-1.897359
21
-4.047154
31
0.0
0
LINE
8
0
6
CONTINUOUS
10
-2.021664
20
-4.047154
30
0.0
11
-2.021664
21
-3.998052
31
0.0
0
LINE
8
0
6
CONTINUOUS
10
-1.897359
20
-4.047154
30
0.0
11
-2.021664
21
-4.047154
31
0.0
0
LINE
8
0
6
CONTINUOUS
10
-1.897359
20
-3.978275
30
0.0
11
-1.897359
21
-4.047154
31
0.0
0
LINE
8
0
6
CONTINUOUS
10
0.279645
20
-3.817134
30
0.0
11
0.205065
21
-3.817134
31
0.0
0
LINE
8
0
6
CONTINUOUS
10
0.279645
20
-3.612539
30
0.0
11
0.279645
21
-3.817134
31
0.0
0
LINE
8
0
6
CONTINUOUS
10
0.205065
20
-3.817134
30
0.0
11
-0.083876
21
-3.817134
31
0.0
0
LINE
8
0
6
CONTINUOUS
10
0.205065
20
-3.580107
30
0.0
11
0.205065
21
-3.817134
31
0.0
0
LINE
8
0
6
CONTINUOUS
10
0.205065
20
-3.817134
30
0.0
11
0.279645
21
-3.817134
31
0.0
0
LINE
8
0
6
CONTINUOUS
10
-0.083876
20
-3.817134
30
0.0
11
0.205065
21
-3.817134
31
0.0
0
LINE
8
0
6
CONTINUOUS
10
-0.298237
20
-3.817134
30
0.0
11
-0.083876
21
-3.817134
31
0.0
0
LINE
8
0
6
CONTINUOUS
10
-0.298237
20
-3.817134
30
0.0
11
-0.298237
21
-3.593152
31
0.0
0
LINE
8
0
6
CONTINUOUS
10
-0.083876
20
-3.817134
30
0.0
11
-0.298237
21
-3.817134
31
0.0
0
LINE
8
0
6
CONTINUOUS
10
-0.083876
20
-3.574637
30
0.0
11
-0.083876
21
-3.817134
31
0.0
0
LINE
8
0
6
CONTINUOUS
10
-1.233411
20
-3.805583
30
0.0
11
-1.367256
21
-3.805583
31
0.0
0
LINE
8
0
6
CONTINUOUS
10
-1.233411
20
-3.603780
30
0.0
11
-1.233411
21
-3.805583
31
0.0
0
LINE
8
0
6
CONTINUOUS
10
-1.367515
20
-3.805583
30
0.0
11
-1.666972
21
-3.805583
31
0.0
0
LINE
8
0
6
CONTINUOUS
10
-1.367515
20
-3.571797
30
0.0
11
-1.367515
21
-3.805583
31
0.0
0
LINE
8
0
6
CONTINUOUS
10
-1.367515
20
-3.805583
30
0.0
11
-1.233411
21
-3.805583
31
0.0
0
LINE
8
0
6
CONTINUOUS
10
-1.666972
20
-3.805583
30
0.0
11
-1.367515
21
-3.805583
31
0.0
0
LINE
8
0
6
CONTINUOUS
10
-1.832325
20
-3.805583
30
0.0
11
-1.666972
21
-3.805583
31
0.0
0
LINE
8
0
6
CONTINUOUS
10
-1.832325
20
-3.805583
30
0.0
11
-1.832325
21
-3.593014
31
0.0
0
LINE
8
0
6
CONTINUOUS
10
-1.666972
20
-3.805583
30
0.0
11
-1.832325
21
-3.805583
31
0.0
0
LINE
8
0
6
CONTINUOUS
10
-1.666972
20
-3.564394
30
0.0
11
-1.666972
21
-3.805583
31
0.0
0
LINE
8
0
6
CONTINUOUS
10
-2.678142
20
-3.795734
30
0.0
11
-2.870771
21
-3.795734
31
0.0
0
LINE
8
0
6
CONTINUOUS
10
-2.870771
20
-3.795734
30
0.0
11
-3.166260
21
-3.795734
31
0.0
0
LINE
8
0
6
CONTINUOUS
10
-2.870771
20
-3.564354
30
0.0
11
-2.870771
21
-3.795734
31
0.0
0
LINE
8
0
6
CONTINUOUS
10
-2.870771
20
-3.795734
30
0.0
11
-2.678142
21
-3.795734
31
0.0
0
LINE
8
0
6
CONTINUOUS
10
-3.166260
20
-3.795734
30
0.0
11
-2.870771
21
-3.795734
31
0.0
0
LINE
8
0
6
CONTINUOUS
10
-3.269120
20
-3.795734
30
0.0
11
-3.166260
21
-3.795734
31
0.0
0
LINE
8
0
6
CONTINUOUS
10
-3.269120
20
-3.795734
30
0.0
11
-3.269120
21
-3.712788
31
0.0
0
LINE
8
0
6
CONTINUOUS
10
-3.166260
20
-3.795734
30
0.0
11
-3.269120
21
-3.795734
31
0.0
0
LINE
8
0
6
CONTINUOUS
10
-3.166260
20
-3.554807
30
0.0
11
-3.166260
21
-3.795734
31
0.0
0
LINE
8
0
6
CONTINUOUS
10
-3.936694
20
-3.808858
30
0.0
11
-4.173439
21
-3.808858
31
0.0
0
LINE
8
0
6
CONTINUOUS
10
-4.173439
20
-3.808858
30
0.0
11
-4.451385
21
-3.808858
31
0.0
0
LINE
8
0
6
CONTINUOUS
10
-4.173439
20
-3.808858
30
0.0
11
-3.936694
21
-3.808858
31
0.0
0
LINE
8
0
6
CONTINUOUS
10
-4.451385
20
-3.808858
30
0.0
11
-4.173439
21
-3.808858
31
0.0
0
LINE
8
0
6
CONTINUOUS
10
-4.492589
20
-3.808858
30
0.0
11
-4.451385
21
-3.808858
31
0.0
0
LINE
8
0
6
CONTINUOUS
10
-4.492589
20
-3.808858
30
0.0
11
-4.492589
21
-3.596532
31
0.0
0
LINE
8
0
6
CONTINUOUS
10
-4.451385
20
-3.808858
30
0.0
11
-4.492589
21
-3.808858
31
0.0
0
LINE
8
0
6
CONTINUOUS
10
-4.451385
20
-3.553289
30
0.0
11
-4.451385
21
-3.808858
31
0.0
0
LINE
8
0
6
CONTINUOUS
10
-4.965132
20
-3.800133
30
0.0
11
-4.987433
21
-3.800133
31
0.0
0
LINE
8
0
6
CONTINUOUS
10
-4.965132
20
-3.622515
30
0.0
11
-4.965132
21
-3.800133
31
0.0
0
LINE
8
0
6
CONTINUOUS
10
-4.987433
20
-3.800133
30
0.0
11
-5.257675
21
-3.800133
31
0.0
0
LINE
8
0
6
CONTINUOUS
10
-4.987433
20
-3.605465
30
0.0
11
-4.987433
21
-3.800133
31
0.0
0
LINE
8
0
6
CONTINUOUS
10
-5.257675
20
-3.800133
30
0.0
11
-5.505610
21
-3.800133
31
0.0
0
LINE
8
0
6
CONTINUOUS
10
-5.257675
20
-3.741271
30
0.0
11
-5.257675
21
-3.800133
31
0.0
0
LINE
8
0
6
CONTINUOUS
10
-4.987433
20
-3.800133
30
0.0
11
-4.965132
21
-3.800133
31
0.0
0
LINE
8
0
6
CONTINUOUS
10
-5.257675
20
-3.800133
30
0.0
11
-4.987433
21
-3.800133
31
0.0
0
LINE
8
0
6
CONTINUOUS
10
-5.505610
20
-3.800133
30
0.0
11
-5.257675
21
-3.800133
31
0.0
0
LINE
8
0
6
CONTINUOUS
10
-5.505610
20
-3.713821
30
0.0
11
-5.505610
21
-3.800133
31
0.0
0
LINE
8
0
6
CONTINUOUS
10
-5.658886
20
-3.794820
30
0.0
11
-5.743693
21
-3.794820
31
0.0
0
LINE
8
0
6
CONTINUOUS
10
-5.658886
20
-3.622534
30
0.0
11
-5.658886
21
-3.794820
31
0.0
0
LINE
8
0
6
CONTINUOUS
10
-5.743693
20
-3.794820
30
0.0
11
-6.035308
21
-3.794820
31
0.0
0
LINE
8
0
6
CONTINUOUS
10
-5.743693
20
-3.593912
30
0.0
11
-5.743693
21
-3.794820
31
0.0
0
LINE
8
0
6
CONTINUOUS
10
-6.035308
20
-3.794820
30
0.0
11
-6.242114
21
-3.794820
31
0.0
0
LINE
8
0
6
CONTINUOUS
10
-6.035308
20
-3.563338
30
0.0
11
-6.035308
21
-3.794820
31
0.0
0
LINE
8
0
6
CONTINUOUS
10
-5.743693
20
-3.794820
30
0.0
11
-5.658886
21
-3.794820
31
0.0
0
LINE
8
0
6
CONTINUOUS
10
-6.035308
20
-3.794820
30
0.0
11
-5.743693
21
-3.794820
31
0.0
0
LINE
8
0
6
CONTINUOUS
10
-6.242114
20
-3.794820
30
0.0
11
-6.035308
21
-3.794820
31
0.0
0
LINE
8
0
6
CONTINUOUS
10
-6.242114
20
-3.632279
30
0.0
11
-6.242114
21
-3.794820
31
0.0
0
LINE
8
0
6
CONTINUOUS
10
-6.210872
20
-3.808246
30
0.0
11
-6.411512
21
-3.808246
31
0.0
0
LINE
8
0
6
CONTINUOUS
10
-6.411512
20
-3.808246
30
0.0
11
-6.704985
21
-3.808246
31
0.0
0
LINE
8
0
6
CONTINUOUS
10
-6.704985
20
-3.808246
30
0.0
11
-6.797814
21
-3.808246
31
0.0
0
LINE
8
0
6
CONTINUOUS
10
-6.411512
20
-3.808246
30
0.0
11
-6.210872
21
-3.808246
31
0.0
0
LINE
8
0
6
CONTINUOUS
10
-6.704985
20
-3.808246
30
0.0
11
-6.411512
21
-3.808246
31
0.0
0
LINE
8
0
6
CONTINUOUS
10
-6.797814
20
-3.808246
30
0.0
11
-6.704985
21
-3.808246
31
0.0
0
LINE
8
0
6
CONTINUOUS
10
-6.085928
20
-3.802676
30
0.0
11
-6.229436
21
-3.802676
31
0.0
0
LINE
8
0
6
CONTINUOUS
10
-6.229436
20
-3.802676
30
0.0
11
-6.529344
21
-3.802676
31
0.0
0
LINE
8
0
6
CONTINUOUS
10
-6.529344
20
-3.802676
30
0.0
11
-6.685743
21
-3.802676
31
0.0
0
LINE
8
0
6
CONTINUOUS
10
-6.229436
20
-3.802676
30
0.0
11
-6.085928
21
-3.802676
31
0.0
0
LINE
8
0
6
CONTINUOUS
10
-6.529344
20
-3.802676
30
0.0
11
-6.229436
21
-3.802676
31
0.0
0
LINE
8
0
6
CONTINUOUS
10
-6.685743
20
-3.802676
30
0.0
11
-6.529344
21
-3.802676
31
0.0
0
LINE
8
0
6
CONTINUOUS
10
-5.949815
20
-3.809190
30
0.0
11
-6.192926
21
-3.809190
31
0.0
0
LINE
8
0
6
CONTINUOUS
10
-6.192926
20
-3.809190
30
0.0
11
-5.949815
21
-3.809190
31
0.0
0
LINE
8
0
6
CONTINUOUS
10
-5.876015
20
-3.805651
30
0.0
11
-5.949815
21
-3.805651
31
0.0
0
LINE
8
0
6
CONTINUOUS
10
-5.949815
20
-3.805651
30
0.0
11
-5.876015
21
-3.805651
31
0.0
0
LINE
8
0
6
CONTINUOUS
10
-0.816561
20
-4.093178
30
0.0
11
-0.873205
21
-4.093178
31
0.0
0
LINE
8
0
6
CONTINUOUS
10
-0.816561
20
-4.034075
30
0.0
11
-0.816561
21
-4.093178
31
0.0
0
LINE
8
0
6
CONTINUOUS
10
-0.873205
20
-4.093178
30
0.0
11
-1.020937
21
-4.093178
31
0.0
0
LINE
8
0
6
CONTINUOUS
10
-0.873205
20
-4.034075
30
0.0
11
-0.873205
21
-4.093178
31
0.0
0
LINE
8
0
6
CONTINUOUS
10
-0.873205
20
-4.093178
30
0.0
11
-0.816561
21
-4.093178
31
0.0
0
LINE
8
0
6
CONTINUOUS
10
-1.020937
20
-4.093178
30
0.0
11
-0.873205
21
-4.093178
31
0.0
0
LINE
8
0
6
CONTINUOUS
10
-1.112024
20
-4.093178
30
0.0
11
-1.020937
21
-4.093178
31
0.0
0
LINE
8
0
6
CONTINUOUS
10
-1.112024
20
-4.093178
30
0.0
11
-1.112024
21
-4.036983
31
0.0
0
LINE
8
0
6
CONTINUOUS
10
-1.020937
20
-4.093178
30
0.0
11
-1.112024
21
-4.093178
31
0.0
0
LINE
8
0
6
CONTINUOUS
10
-1.020937
20
-4.034075
30
0.0
11
-1.020937
21
-4.093178
31
0.0
0
LINE
8
0
6
CONTINUOUS
10
-2.256784
20
-4.114231
30
0.0
11
-2.313429
21
-4.114231
31
0.0
0
LINE
8
0
6
CONTINUOUS
10
-2.313429
20
-4.114231
30
0.0
11
-2.461160
21
-4.114231
31
0.0
0
LINE
8
0
6
CONTINUOUS
10
-2.313429
20
-4.114231
30
0.0
11
-2.256784
21
-4.114231
31
0.0
0
LINE
8
0
6
CONTINUOUS
10
-2.461160
20
-4.114231
30
0.0
11
-2.313429
21
-4.114231
31
0.0
0
LINE
8
0
6
CONTINUOUS
10
-2.552247
20
-4.114231
30
0.0
11
-2.461160
21
-4.114231
31
0.0
0
LINE
8
0
6
CONTINUOUS
10
-2.552247
20
-4.114231
30
0.0
11
-2.552247
21
-4.046663
31
0.0
0
LINE
8
0
6
CONTINUOUS
10
-2.461160
20
-4.114231
30
0.0
11
-2.552247
21
-4.114231
31
0.0
0
LINE
8
0
6
CONTINUOUS
10
-3.081766
20
-4.093887
30
0.0
11
-3.138411
21
-4.093887
31
0.0
0
LINE
8
0
6
CONTINUOUS
10
-3.081766
20
-3.916346
30
0.0
11
-3.081766
21
-4.093887
31
0.0
0
LINE
8
0
6
CONTINUOUS
10
-3.138411
20
-4.093887
30
0.0
11
-3.286142
21
-4.093887
31
0.0
0
LINE
8
0
6
CONTINUOUS
10
-3.138411
20
-3.887956
30
0.0
11
-3.138411
21
-4.093887
31
0.0
0
LINE
8
0
6
CONTINUOUS
10
-3.138411
20
-4.093887
30
0.0
11
-3.081766
21
-4.093887
31
0.0
0
LINE
8
0
6
CONTINUOUS
10
-3.286142
20
-4.093887
30
0.0
11
-3.138411
21
-4.093887
31
0.0
0
LINE
8
0
6
CONTINUOUS
10
-3.377229
20
-4.093887
30
0.0
11
-3.286142
21
-4.093887
31
0.0
0
LINE
8
0
6
CONTINUOUS
10
-3.377229
20
-4.093887
30
0.0
11
-3.377229
21
-4.047721
31
0.0
0
LINE
8
0
6
CONTINUOUS
10
-3.286142
20
-4.093887
30
0.0
11
-3.377229
21
-4.093887
31
0.0
0
LINE
8
0
6
CONTINUOUS
10
-3.286142
20
-3.902640
30
0.0
11
-3.286142
21
-4.093887
31
0.0
0
LINE
8
0
6
CONTINUOUS
10
-3.095749
20
-4.097658
30
0.0
11
-3.152394
21
-4.097658
31
0.0
0
LINE
8
0
6
CONTINUOUS
10
-3.152394
20
-4.097658
30
0.0
11
-3.300125
21
-4.097658
31
0.0
0
LINE
8
0
6
CONTINUOUS
10
-3.152394
20
-4.097658
30
0.0
11
-3.095749
21
-4.097658
31
0.0
0
LINE
8
0
6
CONTINUOUS
10
-3.300125
20
-4.097658
30
0.0
11
-3.152394
21
-4.097658
31
0.0
0
LINE
8
0
6
CONTINUOUS
10
-3.391212
20
-4.097658
30
0.0
11
-3.300125
21
-4.097658
31
0.0
0
LINE
8
0
6
CONTINUOUS
10
-3.391212
20
-4.097658
30
0.0
11
-3.391212
21
-4.047721
31
0.0
0
LINE
8
0
6
CONTINUOUS
10
-3.300125
20
-4.097658
30
0.0
11
-3.391212
21
-4.097658
31
0.0
0
LINE
8
0
6
CONTINUOUS
10
-1.571630
20
-4.147739
30
0.0
11
-1.628274
21
-4.147739
31
0.0
0
LINE
8
0
6
CONTINUOUS
10
-1.571630
20
-3.987399
30
0.0
11
-1.571630
21
-4.147739
31
0.0
0
LINE
8
0
6
CONTINUOUS
10
-1.628274
20
-4.147739
30
0.0
11
-1.776006
21
-4.147739
31
0.0
0
LINE
8
0
6
CONTINUOUS
10
-1.628274
20
-3.985813
30
0.0
11
-1.628274
21
-4.147739
31
0.0
0
LINE
8
0
6
CONTINUOUS
10
-1.628274
20
-4.147739
30
0.0
11
-1.571630
21
-4.147739
31
0.0
0
LINE
8
0
6
CONTINUOUS
10
-1.776006
20
-4.147739
30
0.0
11
-1.628274
21
-4.147739
31
0.0
0
LINE
8
0
6
CONTINUOUS
10
-1.867093
20
-4.147739
30
0.0
11
-1.776006
21
-4.147739
31
0.0
0
LINE
8
0
6
CONTINUOUS
10
-1.867093
20
-4.147739
30
0.0
11
-1.867093
21
-3.998052
31
0.0
0
LINE
8
0
6
CONTINUOUS
10
-1.776006
20
-4.147739
30
0.0
11
-1.867093
21
-4.147739
31
0.0
0
LINE
8
0
6
CONTINUOUS
10
-1.776006
20
-3.981674
30
0.0
11
-1.776006
21
-4.147739
31
0.0
0
LINE
8
0
6
CONTINUOUS
10
-2.354664
20
-4.155359
30
0.0
11
-2.411308
21
-4.155359
31
0.0
0
LINE
8
0
6
CONTINUOUS
10
-2.411308
20
-4.155359
30
0.0
11
-2.559040
21
-4.155359
31
0.0
0
LINE
8
0
6
CONTINUOUS
10
-2.411308
20
-4.155359
30
0.0
11
-2.354664
21
-4.155359
31
0.0
0
LINE
8
0
6
CONTINUOUS
10
-2.559040
20
-4.155359
30
0.0
11
-2.411308
21
-4.155359
31
0.0
0
LINE
8
0
6
CONTINUOUS
10
-2.650127
20
-4.155359
30
0.0
11
-2.559040
21
-4.155359
31
0.0
0
LINE
8
0
6
CONTINUOUS
10
-2.650127
20
-4.155359
30
0.0
11
-2.650127
21
-3.945292
31
0.0
0
LINE
8
0
6
CONTINUOUS
10
-2.559040
20
-4.155359
30
0.0
11
-2.650127
21
-4.155359
31
0.0
0
LINE
8
0
6
CONTINUOUS
10
-2.559040
20
-3.951401
30
0.0
11
-2.559040
21
-4.155359
31
0.0
0
LINE
8
0
6
CONTINUOUS
10
-2.047043
20
-4.146856
30
0.0
11
-2.103688
21
-4.146856
31
0.0
0
LINE
8
0
6
CONTINUOUS
10
-2.047043
20
-3.974082
30
0.0
11
-2.047043
21
-4.146856
31
0.0
0
LINE
8
0
6
CONTINUOUS
10
-2.103688
20
-4.146856
30
0.0
11
-2.251419
21
-4.146856
31
0.0
0
LINE
8
0
6
CONTINUOUS
10
-2.103688
20
-3.972495
30
0.0
11
-2.103688
21
-4.146856
31
0.0
0
LINE
8
0
6
CONTINUOUS
10
-2.103688
20
-4.146856
30
0.0
11
-2.047043
21
-4.146856
31
0.0
0
LINE
8
0
6
CONTINUOUS
10
-2.251419
20
-4.146856
30
0.0
11
-2.103688
21
-4.146856
31
0.0
0
LINE
8
0
6
CONTINUOUS
10
-2.342506
20
-4.146856
30
0.0
11
-2.251419
21
-4.146856
31
0.0
0
LINE
8
0
6
CONTINUOUS
10
-2.342506
20
-4.146856
30
0.0
11
-2.342506
21
-4.114231
31
0.0
0
LINE
8
0
6
CONTINUOUS
10
-2.251419
20
-4.146856
30
0.0
11
-2.342506
21
-4.146856
31
0.0
0
LINE
8
0
6
CONTINUOUS
10
-2.251419
20
-3.968356
30
0.0
11
-2.251419
21
-4.146856
31
0.0
0
LINE
8
0
6
CONTINUOUS
10
-0.788606
20
-4.150136
30
0.0
11
-0.845250
21
-4.150136
31
0.0
0
LINE
8
0
6
CONTINUOUS
10
-0.788606
20
-4.034075
30
0.0
11
-0.788606
21
-4.150136
31
0.0
0
LINE
8
0
6
CONTINUOUS
10
-0.845250
20
-4.150136
30
0.0
11
-0.992982
21
-4.150136
31
0.0
0
LINE
8
0
6
CONTINUOUS
10
-0.845250
20
-4.150136
30
0.0
11
-0.788606
21
-4.150136
31
0.0
0
LINE
8
0
6
CONTINUOUS
10
-0.992982
20
-4.150136
30
0.0
11
-0.845250
21
-4.150136
31
0.0
0
LINE
8
0
6
CONTINUOUS
10
-1.084069
20
-4.150136
30
0.0
11
-0.992982
21
-4.150136
31
0.0
0
LINE
8
0
6
CONTINUOUS
10
-0.992982
20
-4.150136
30
0.0
11
-1.084069
21
-4.150136
31
0.0
0
LINE
8
0
6
CONTINUOUS
10
7.841817
20
-3.588683
30
0.0
11
7.767253
21
-3.588683
31
0.0
0
LINE
8
0
6
CONTINUOUS
10
7.841817
20
-3.588683
30
0.0
11
7.841817
21
-3.394696
31
0.0
0
LINE
8
0
6
CONTINUOUS
10
8.141726
20
-3.588683
30
0.0
11
7.841817
21
-3.588683
31
0.0
0
LINE
8
0
6
CONTINUOUS
10
8.141726
20
-3.588683
30
0.0
11
8.141726
21
-3.354998
31
0.0
0
LINE
8
0
6
CONTINUOUS
10
8.298124
20
-3.588683
30
0.0
11
8.141726
21
-3.588683
31
0.0
0
LINE
8
0
6
CONTINUOUS
10
8.141726
20
-3.588683
30
0.0
11
8.298124
21
-3.588683
31
0.0
0
LINE
8
0
6
CONTINUOUS
10
7.841817
20
-3.588683
30
0.0
11
8.141726
21
-3.588683
31
0.0
0
LINE
8
0
6
CONTINUOUS
10
7.767253
20
-3.588683
30
0.0
11
7.841817
21
-3.588683
31
0.0
0
LINE
8
0
6
CONTINUOUS
10
8.298124
20
-3.588683
30
0.0
11
8.298124
21
-3.339779
31
0.0
0
LINE
8
0
6
CONTINUOUS
10
-0.700116
20
-4.034075
30
0.0
11
-0.762686
21
-4.034075
31
0.0
0
LINE
8
0
6
CONTINUOUS
10
-1.165899
20
-4.034075
30
0.0
11
-1.219443
21
-4.034075
31
0.0
0
LINE
8
0
6
CONTINUOUS
10
1.428125
20
-4.034075
30
0.0
11
1.238038
21
-4.034075
31
0.0
0
LINE
8
0
6
CONTINUOUS
10
1.428125
20
-3.991216
30
0.0
11
1.428125
21
-4.034075
31
0.0
0
LINE
8
0
6
CONTINUOUS
10
-1.219443
20
-4.034075
30
0.0
11
-1.409530
21
-4.034075
31
0.0
0
LINE
8
0
6
CONTINUOUS
10
-1.409530
20
-4.034075
30
0.0
11
-1.409530
21
-3.991844
31
0.0
0
LINE
8
0
6
CONTINUOUS
10
1.238038
20
-4.034075
30
0.0
11
1.147307
21
-4.034075
31
0.0
0
LINE
8
0
6
CONTINUOUS
10
0.744093
20
-4.034075
30
0.0
11
0.718711
21
-4.034075
31
0.0
0
LINE
8
0
6
CONTINUOUS
10
0.718711
20
-4.034075
30
0.0
11
0.009297
21
-4.034075
31
0.0
0
LINE
8
0
6
CONTINUOUS
10
0.009297
20
-4.034075
30
0.0
11
-0.700116
21
-4.034075
31
0.0
0
LINE
8
0
6
CONTINUOUS
10
-0.700116
20
-4.034075
30
0.0
11
-0.762686
21
-4.034075
31
0.0
0
LINE
8
0
6
CONTINUOUS
10
-1.165899
20
-4.034075
30
0.0
11
-1.219443
21
-4.034075
31
0.0
0
LINE
8
0
6
CONTINUOUS
10
0.009297
20
-4.034075
30
0.0
11
-0.700116
21
-4.034075
31
0.0
0
LINE
8
0
6
CONTINUOUS
10
0.718711
20
-4.034075
30
0.0
11
0.009297
21
-4.034075
31
0.0
0
LINE
8
0
6
CONTINUOUS
10
1.238038
20
-4.034075
30
0.0
11
1.147307
21
-4.034075
31
0.0
0
LINE
8
0
6
CONTINUOUS
10
0.744093
20
-4.034075
30
0.0
11
0.718711
21
-4.034075
31
0.0
0
LINE
8
0
6
CONTINUOUS
10
1.428125
20
-4.034075
30
0.0
11
1.238038
21
-4.034075
31
0.0
0
LINE
8
0
6
CONTINUOUS
10
-1.219443
20
-4.034075
30
0.0
11
-1.409530
21
-4.034075
31
0.0
0
LINE
8
0
6
CONTINUOUS
10
-1.833437
20
-3.267365
30
0.0
11
-0.083550
21
-3.267365
31
0.0
0
LINE
8
0
6
CONTINUOUS
10
-1.769468
20
-3.981857
30
0.0
11
-1.409530
21
-3.991940
31
0.0
0
LINE
8
0
6
CONTINUOUS
10
-3.512870
20
-3.267365
30
0.0
11
-1.833437
21
-3.267365
31
0.0
0
LINE
8
0
6
CONTINUOUS
10
-3.855214
20
-3.864478
30
0.0
11
-3.733194
21
-3.872661
31
0.0
0
LINE
8
0
6
CONTINUOUS
10
-3.081766
20
-3.916346
30
0.0
11
-2.625734
21
-3.946928
31
0.0
0
LINE
8
0
6
CONTINUOUS
10
-5.057300
20
-3.267365
30
0.0
11
-3.512870
21
-3.267365
31
0.0
0
LINE
8
0
6
CONTINUOUS
10
-4.724551
20
-3.800296
30
0.0
11
-4.656078
21
-3.807877
31
0.0
0
LINE
8
0
6
CONTINUOUS
10
-6.407384
20
-3.267365
30
0.0
11
-5.057300
21
-3.267365
31
0.0
0
LINE
8
0
6
CONTINUOUS
10
-7.511235
20
-3.267365
30
0.0
11
-6.407384
21
-3.267365
31
0.0
0
LINE
8
0
6
CONTINUOUS
10
-8.326433
20
-3.267365
30
0.0
11
-7.515233
21
-3.267365
31
0.0
0
LINE
8
0
6
CONTINUOUS
10
-8.821653
20
-3.267365
30
0.0
11
-8.326433
21
-3.267365
31
0.0
0
LINE
8
0
6
CONTINUOUS
10
-8.977859
20
-3.267365
30
0.0
11
-8.821653
21
-3.267365
31
0.0
0
LINE
8
0
6
CONTINUOUS
10
-8.977859
20
-3.267365
30
0.0
11
-8.316715
21
-3.358050
31
0.0
0
LINE
8
0
6
CONTINUOUS
10
1.750875
20
-3.982246
30
0.0
11
1.428125
21
-3.991216
31
0.0
0
LINE
8
0
6
CONTINUOUS
10
-0.083550
20
-3.267365
30
0.0
11
1.669547
21
-3.267364
31
0.0
0
LINE
8
0
6
CONTINUOUS
10
3.836622
20
-3.865722
30
0.0
11
3.714602
21
-3.873905
31
0.0
0
LINE
8
0
6
CONTINUOUS
10
3.063174
20
-3.917590
30
0.0
11
2.607141
21
-3.948172
31
0.0
0
LINE
8
0
6
CONTINUOUS
10
1.669547
20
-3.267364
30
0.0
11
3.358487
21
-3.267364
31
0.0
0
LINE
8
0
6
CONTINUOUS
10
4.705958
20
-3.802352
30
0.0
11
4.637486
21
-3.809932
31
0.0
0
LINE
8
0
6
CONTINUOUS
10
3.358487
20
-3.267364
30
0.0
11
4.918361
21
-3.267364
31
0.0
0
LINE
8
0
6
CONTINUOUS
10
8.977859
20
-3.267364
30
0.0
11
8.298124
21
-3.360599
31
0.0
0
LINE
8
0
6
CONTINUOUS
10
8.789051
20
-3.267364
30
0.0
11
8.977859
21
-3.267364
31
0.0
0
LINE
8
0
6
CONTINUOUS
10
8.262486
20
-3.267364
30
0.0
11
8.789051
21
-3.267364
31
0.0
0
LINE
8
0
6
CONTINUOUS
10
7.418401
20
-3.267364
30
0.0
11
8.262486
21
-3.267364
31
0.0
0
LINE
8
0
6
CONTINUOUS
10
6.289225
20
-3.267364
30
0.0
11
7.418401
21
-3.267364
31
0.0
0
LINE
8
0
6
CONTINUOUS
10
4.918361
20
-3.267364
30
0.0
11
6.289225
21
-3.267364
31
0.0
0
LINE
8
0
6
CONTINUOUS
10
-9.349018
20
-1.240693
30
0.0
11
-9.349018
21
-1.115051
31
0.0
0
LINE
8
0
6
CONTINUOUS
10
9.349018
20
-1.115051
30
0.0
11
9.349018
21
-1.240691
31
0.0
0
LINE
8
0
6
CONTINUOUS
10
-9.349018
20
-1.115051
30
0.0
11
-9.129000
21
-1.094621
31
0.0
0
LINE
8
0
6
CONTINUOUS
10
-9.186356
20
-1.115051
30
0.0
11
-9.349018
21
-1.115051
31
0.0
0
LINE
8
0
6
CONTINUOUS
10
-8.670662
20
-1.115051
30
0.0
11
-9.186356
21
-1.115051
31
0.0
0
LINE
8
0
6
CONTINUOUS
10
-7.821765
20
-1.115051
30
0.0
11
-8.670662
21
-1.115051
31
0.0
0
LINE
8
0
6
CONTINUOUS
10
-6.672278
20
-1.115051
30
0.0
11
-7.821765
21
-1.115051
31
0.0
0
LINE
8
0
6
CONTINUOUS
10
-5.266379
20
-1.115051
30
0.0
11
-6.672278
21
-1.115051
31
0.0
0
LINE
8
0
6
CONTINUOUS
10
-3.658100
20
-1.115051
30
0.0
11
-5.266379
21
-1.115051
31
0.0
0
LINE
8
0
6
CONTINUOUS
10
-1.909236
20
-1.115051
30
0.0
11
-3.658100
21
-1.115051
31
0.0
0
LINE
8
0
6
CONTINUOUS
10
-0.087005
20
-1.115051
30
0.0
11
-1.909236
21
-1.115051
31
0.0
0
LINE
8
0
6
CONTINUOUS
10
1.738570
20
-1.115051
30
0.0
11
-0.087005
21
-1.115051
31
0.0
0
LINE
8
0
6
CONTINUOUS
10
3.497329
20
-1.115051
30
0.0
11
1.738570
21
-1.115051
31
0.0
0
LINE
8
0
6
CONTINUOUS
10
5.121695
20
-1.115051
30
0.0
11
3.497329
21
-1.115051
31
0.0
0
LINE
8
0
6
CONTINUOUS
10
6.549229
20
-1.115051
30
0.0
11
5.121695
21
-1.115051
31
0.0
0
LINE
8
0
6
CONTINUOUS
10
7.725089
20
-1.115051
30
0.0
11
6.549229
21
-1.115051
31
0.0
0
LINE
8
0
6
CONTINUOUS
10
8.604071
20
-1.115051
30
0.0
11
7.725089
21
-1.115051
31
0.0
0
LINE
8
0
6
CONTINUOUS
10
9.152405
20
-1.115051
30
0.0
11
8.604071
21
-1.115051
31
0.0
0
LINE
8
0
6
CONTINUOUS
10
9.349018
20
-1.115051
30
0.0
11
9.152405
21
-1.115051
31
0.0
0
LINE
8
0
6
CONTINUOUS
10
9.129000
20
-1.094619
30
0.0
11
9.349018
21
-1.115051
31
0.0
0
LINE
8
0
6
CONTINUOUS
10
-9.272345
20
-3.199792
30
0.0
11
-9.349018
21
-2.975274
31
0.0
0
LINE
8
0
6
CONTINUOUS
10
9.349018
20
-2.975271
30
0.0
11
9.272345
21
-3.199789
31
0.0
0
LINE
8
0
6
CONTINUOUS
10
-9.272345
20
-3.199792
30
0.0
11
-9.111013
21
-3.199792
31
0.0
0
LINE
8
0
6
CONTINUOUS
10
-8.977859
20
-3.267365
30
0.0
11
-9.272345
21
-3.199792
31
0.0
0
LINE
8
0
6
CONTINUOUS
10
-8.821653
20
-3.267365
30
0.0
11
-8.977859
21
-3.267365
31
0.0
0
LINE
8
0
6
CONTINUOUS
10
-9.111013
20
-3.199792
30
0.0
11
-8.599550
21
-3.199792
31
0.0
0
LINE
8
0
6
CONTINUOUS
10
-8.326433
20
-3.267365
30
0.0
11
-8.821653
21
-3.267365
31
0.0
0
LINE
8
0
6
CONTINUOUS
10
-8.599550
20
-3.199792
30
0.0
11
-7.757612
21
-3.199792
31
0.0
0
LINE
8
0
6
CONTINUOUS
10
-7.511235
20
-3.267365
30
0.0
11
-8.326433
21
-3.267365
31
0.0
0
LINE
8
0
6
CONTINUOUS
10
-7.757612
20
-3.199792
30
0.0
11
-6.617553
21
-3.199792
31
0.0
0
LINE
8
0
6
CONTINUOUS
10
-6.407384
20
-3.267365
30
0.0
11
-7.511235
21
-3.267365
31
0.0
0
LINE
8
0
6
CONTINUOUS
10
-6.617553
20
-3.199792
30
0.0
11
-5.223188
21
-3.199792
31
0.0
0
LINE
8
0
6
CONTINUOUS
10
-5.057300
20
-3.267365
30
0.0
11
-6.407384
21
-3.267365
31
0.0
0
LINE
8
0
6
CONTINUOUS
10
-5.223188
20
-3.199792
30
0.0
11
-3.628095
21
-3.199791
31
0.0
0
LINE
8
0
6
CONTINUOUS
10
-3.512870
20
-3.267365
30
0.0
11
-5.057300
21
-3.267365
31
0.0
0
LINE
8
0
6
CONTINUOUS
10
-3.628095
20
-3.199791
30
0.0
11
-1.893576
21
-3.199791
31
0.0
0
LINE
8
0
6
CONTINUOUS
10
-1.833437
20
-3.267365
30
0.0
11
-3.512870
21
-3.267365
31
0.0
0
LINE
8
0
6
CONTINUOUS
10
-1.893576
20
-3.199791
30
0.0
11
-0.086291
21
-3.199791
31
0.0
0
LINE
8
0
6
CONTINUOUS
10
-0.083550
20
-3.267365
30
0.0
11
-1.832325
21
-3.267365
31
0.0
0
LINE
8
0
6
CONTINUOUS
10
-0.086291
20
-3.199791
30
0.0
11
1.724310
21
-3.199791
31
0.0
0
LINE
8
0
6
CONTINUOUS
10
1.669547
20
-3.267364
30
0.0
11
-0.083550
21
-3.267365
31
0.0
0
LINE
8
0
6
CONTINUOUS
10
1.724310
20
-3.199791
30
0.0
11
3.468647
21
-3.199791
31
0.0
0
LINE
8
0
6
CONTINUOUS
10
3.358487
20
-3.267364
30
0.0
11
1.669547
21
-3.267364
31
0.0
0
LINE
8
0
6
CONTINUOUS
10
3.468647
20
-3.199791
30
0.0
11
5.078882
21
-3.199791
31
0.0
0
LINE
8
0
6
CONTINUOUS
10
4.918361
20
-3.267364
30
0.0
11
3.358637
21
-3.267364
31
0.0
0
LINE
8
0
6
CONTINUOUS
10
5.079691
20
-3.199791
30
0.0
11
6.495518
21
-3.199791
31
0.0
0
LINE
8
0
6
CONTINUOUS
10
6.289225
20
-3.267364
30
0.0
11
4.918361
21
-3.267364
31
0.0
0
LINE
8
0
6
CONTINUOUS
10
6.495518
20
-3.199791
30
0.0
11
7.661733
21
-3.199789
31
0.0
0
LINE
8
0
6
CONTINUOUS
10
7.418401
20
-3.267364
30
0.0
11
6.289225
21
-3.267364
31
0.0
0
LINE
8
0
6
CONTINUOUS
10
7.661733
20
-3.199789
30
0.0
11
8.533506
21
-3.199789
31
0.0
0
LINE
8
0
6
CONTINUOUS
10
8.262486
20
-3.267364
30
0.0
11
7.418401
21
-3.267364
31
0.0
0
LINE
8
0
6
CONTINUOUS
10
8.533506
20
-3.199789
30
0.0
11
9.077343
21
-3.199789
31
0.0
0
LINE
8
0
6
CONTINUOUS
10
8.789051
20
-3.267364
30
0.0
11
8.262486
21
-3.267364
31
0.0
0
LINE
8
0
6
CONTINUOUS
10
9.272345
20
-3.199789
30
0.0
11
8.977859
21
-3.267364
31
0.0
0
LINE
8
0
6
CONTINUOUS
10
9.077343
20
-3.199789
30
0.0
11
9.272345
21
-3.199789
31
0.0
0
LINE
8
0
6
CONTINUOUS
10
8.977859
20
-3.267364
30
0.0
11
8.789051
21
-3.267364
31
0.0
0
LINE
8
0
6
CONTINUOUS
10
-9.349018
20
-2.888545
30
0.0
11
-9.349018
21
-1.240693
31
0.0
0
LINE
8
0
6
CONTINUOUS
10
9.349018
20
-1.240691
30
0.0
11
9.349018
21
-2.888542
31
0.0
0
LINE
8
0
6
CONTINUOUS
10
-9.129000
20
-1.094621
30
0.0
11
-1.543777
21
-0.390125
31
0.0
0
LINE
8
0
6
CONTINUOUS
10
1.543785
20
-0.390126
30
0.0
11
9.129000
21
-1.094619
31
0.0
0
LINE
8
0
6
CONTINUOUS
10
-9.349018
20
-2.975274
30
0.0
11
-9.349018
21
-2.888545
31
0.0
0
LINE
8
0
6
CONTINUOUS
10
9.349018
20
-2.888542
30
0.0
11
9.349018
21
-2.975271
31
0.0
0
LINE
8
0
6
CONTINUOUS
10
1.127434
20
2.886422
30
0.0
11
1.127434
21
2.926414
31
0.0
0
LINE
8
0
6
CONTINUOUS
10
-1.127408
20
2.926414
30
0.0
11
-1.127408
21
2.886422
31
0.0
0
LINE
8
0
6
CONTINUOUS
10
0.863118
20
2.149590
30
0.0
11
1.127434
21
2.886422
31
0.0
0
LINE
8
0
6
CONTINUOUS
10
-1.127408
20
2.886422
30
0.0
11
-0.863096
21
2.149596
31
0.0
0
LINE
8
0
6
CONTINUOUS
10
1.127434
20
4.102181
30
0.0
11
1.127434
21
4.166168
31
0.0
0
LINE
8
0
6
CONTINUOUS
10
-1.127408
20
4.166168
30
0.0
11
-1.127408
21
4.102181
31
0.0
0
LINE
8
0
6
CONTINUOUS
10
1.127434
20
2.926414
30
0.0
11
1.127434
21
4.102181
31
0.0
0
LINE
8
0
6
CONTINUOUS
10
-1.127408
20
4.102181
30
0.0
11
-1.127408
21
2.926414
31
0.0
0
LINE
8
0
6
CONTINUOUS
10
-0.554605
20
4.166168
30
0.0
11
0.010501
21
4.166168
31
0.0
0
LINE
8
0
6
CONTINUOUS
10
-0.504931
20
4.166168
30
0.0
11
-0.554605
21
4.166168
31
0.0
0
LINE
8
0
6
CONTINUOUS
10
0.572803
20
4.166176
30
0.0
11
0.981645
21
4.166176
31
0.0
0
LINE
8
0
6
CONTINUOUS
10
0.521501
20
4.166176
30
0.0
11
0.572803
21
4.166176
31
0.0
0
LINE
8
0
6
CONTINUOUS
10
1.127434
20
4.166168
30
0.0
11
0.971151
21
4.166176
31
0.0
0
LINE
8
0
6
CONTINUOUS
10
0.971151
20
4.166176
30
0.0
11
0.554627
21
4.166176
31
0.0
0
LINE
8
0
6
CONTINUOUS
10
0.884171
20
4.166176
30
0.0
11
0.971151
21
4.166176
31
0.0
0
LINE
8
0
6
CONTINUOUS
10
0.554627
20
4.166176
30
0.0
11
-0.010486
21
4.166168
31
0.0
0
LINE
8
0
6
CONTINUOUS
10
-0.010486
20
4.166168
30
0.0
11
-0.572781
21
4.166168
31
0.0
0
LINE
8
0
6
CONTINUOUS
10
-0.572781
20
4.166168
30
0.0
11
-0.981622
21
4.166183
31
0.0
0
LINE
8
0
6
CONTINUOUS
10
-0.981622
20
4.166183
30
0.0
11
-1.127408
21
4.166168
31
0.0
0
LINE
8
0
6
CONTINUOUS
10
1.543785
20
-0.390126
30
0.0
11
1.543794
21
1.537712
31
0.0
0
LINE
8
0
6
CONTINUOUS
10
-1.543768
20
1.537712
30
0.0
11
-1.543777
21
-0.390125
31
0.0
0
LINE
8
0
6
CONTINUOUS
10
1.543794
20
1.537712
30
0.0
11
1.451815
21
2.083954
31
0.0
0
LINE
8
0
6
CONTINUOUS
10
-1.451784
20
2.083954
30
0.0
11
-1.543768
21
1.537712
31
0.0
0
LINE
8
0
6
CONTINUOUS
10
1.451815
20
2.083954
30
0.0
11
1.440760
21
2.149589
31
0.0
0
LINE
8
0
6
CONTINUOUS
10
-1.440734
20
2.149589
30
0.0
11
-1.451784
21
2.083954
31
0.0
0
LINE
8
0
6
CONTINUOUS
10
1.170368
20
2.149591
30
0.0
11
0.863118
21
2.149590
31
0.0
0
LINE
8
0
6
CONTINUOUS
10
1.344186
20
2.149591
30
0.0
11
1.170368
21
2.149591
31
0.0
0
LINE
8
0
6
CONTINUOUS
10
1.440760
20
2.149589
30
0.0
11
1.241044
21
2.149589
31
0.0
0
LINE
8
0
6
CONTINUOUS
10
1.344186
20
2.149591
30
0.0
11
1.440760
21
2.149589
31
0.0
0
LINE
8
0
6
CONTINUOUS
10
1.241044
20
2.149589
30
0.0
11
0.708761
21
2.149589
31
0.0
0
LINE
8
0
6
CONTINUOUS
10
0.708761
20
2.149589
30
0.0
11
-0.013402
21
2.149589
31
0.0
0
LINE
8
0
6
CONTINUOUS
10
-0.013402
20
2.149589
30
0.0
11
-0.731965
21
2.149589
31
0.0
0
LINE
8
0
6
CONTINUOUS
10
-0.731965
20
2.149589
30
0.0
11
-1.254423
21
2.149605
31
0.0
0
LINE
8
0
6
CONTINUOUS
10
-1.254423
20
2.149605
30
0.0
11
-1.440734
21
2.149589
31
0.0
0
LINE
8
0
6
CONTINUOUS
10
-0.839987
20
-3.819392
30
0.0
11
-1.041594
21
-3.813405
31
0.0
0
LINE
8
0
6
CONTINUOUS
10
-4.492589
20
-3.784254
30
0.0
11
-4.531773
21
-3.781665
31
0.0
0
LINE
8
0
6
CONTINUOUS
10
-3.462502
20
-3.764290
30
0.0
11
-3.558550
21
-3.757754
31
0.0
0
LINE
8
0
6
CONTINUOUS
10
-2.299822
20
-3.834543
30
0.0
11
-2.501429
21
-3.818988
31
0.0
0
LINE
8
0
6
CONTINUOUS
10
-2.299822
20
-3.834543
30
0.0
11
-2.269921
21
-3.841687
31
0.0
0
LINE
8
0
6
CONTINUOUS
10
-1.846769
20
-3.780461
30
0.0
11
-2.047043
21
-3.774514
31
0.0
0
LINE
8
0
6
CONTINUOUS
10
-5.641113
20
-3.691794
30
0.0
11
-5.658886
21
-3.689876
31
0.0
0
LINE
8
0
6
CONTINUOUS
10
-2.172681
20
-3.935119
30
0.0
11
-2.222520
21
-3.933852
31
0.0
0
LINE
8
0
6
CONTINUOUS
10
-3.138411
20
-3.887956
30
0.0
11
-3.279641
21
-3.877991
31
0.0
0
LINE
8
0
6
CONTINUOUS
10
8.141726
20
-3.354998
30
0.0
11
7.841817
21
-3.394696
31
0.0
0
LINE
8
0
6
CONTINUOUS
10
4.196346
20
-3.466392
30
0.0
11
3.972055
21
-3.478512
31
0.0
0
LINE
8
0
6
CONTINUOUS
10
2.652584
20
-3.471739
30
0.0
11
2.385555
21
-3.484076
31
0.0
0
LINE
8
0
6
CONTINUOUS
10
3.869195
20
-3.348441
30
0.0
11
3.573706
21
-3.361295
31
0.0
0
LINE
8
0
6
CONTINUOUS
10
5.489915
20
-3.340907
30
0.0
11
5.211969
21
-3.352917
31
0.0
0
LINE
8
0
6
CONTINUOUS
10
1.967194
20
-3.342907
30
0.0
11
2.132547
21
-3.370252
31
0.0
0
LINE
8
0
6
CONTINUOUS
10
1.967194
20
-3.342907
30
0.0
11
1.733670
21
-3.354090
31
0.0
0
LINE
8
0
6
CONTINUOUS
10
1.733670
20
-3.354090
30
0.0
11
1.667737
21
-3.355775
31
0.0
0
LINE
8
0
6
CONTINUOUS
10
7.030365
20
-3.480011
30
0.0
11
6.830773
21
-3.507957
31
0.0
0
LINE
8
0
6
CONTINUOUS
10
4.432793
20
-3.564160
30
0.0
11
4.263921
21
-3.570907
31
0.0
0
LINE
8
0
6
CONTINUOUS
10
4.942645
20
-3.681254
30
0.0
11
4.748955
21
-3.704221
31
0.0
0
LINE
8
0
6
CONTINUOUS
10
6.016715
20
-3.571039
30
0.0
11
6.038111
21
-3.569936
31
0.0
0
LINE
8
0
6
CONTINUOUS
10
6.016715
20
-3.571039
30
0.0
11
5.725101
21
-3.607055
31
0.0
0
LINE
8
0
6
CONTINUOUS
10
6.120362
20
-3.511166
30
0.0
11
6.083079
21
-3.516038
31
0.0
0
LINE
8
0
6
CONTINUOUS
10
4.513181
20
-3.782183
30
0.0
11
4.637486
21
-3.772857
31
0.0
0
LINE
8
0
6
CONTINUOUS
10
4.513181
20
-3.782183
30
0.0
11
4.504988
21
-3.783077
31
0.0
0
LINE
8
0
6
CONTINUOUS
10
5.640294
20
-3.694780
30
0.0
11
5.622520
21
-3.696698
31
0.0
0
LINE
8
0
6
CONTINUOUS
10
3.147667
20
-3.564435
30
0.0
11
2.852179
21
-3.573637
31
0.0
0
LINE
8
0
6
CONTINUOUS
10
2.482836
20
-3.821060
30
0.0
11
2.607141
21
-3.825118
31
0.0
0
LINE
8
0
6
CONTINUOUS
10
2.482836
20
-3.821060
30
0.0
11
2.281229
21
-3.834979
31
0.0
0
LINE
8
0
6
CONTINUOUS
10
2.145380
20
-3.783765
30
0.0
11
2.154089
21
-3.784049
31
0.0
0
LINE
8
0
6
CONTINUOUS
10
3.539958
20
-3.765244
30
0.0
11
3.338351
21
-3.780292
31
0.0
0
LINE
8
0
6
CONTINUOUS
10
3.252950
20
-3.883493
30
0.0
11
3.119818
21
-3.892357
31
0.0
0
LINE
8
0
6
CONTINUOUS
10
3.267550
20
-3.882474
30
0.0
11
3.252950
21
-3.883493
31
0.0
0
LINE
8
0
6
CONTINUOUS
10
4.189123
20
-3.829362
30
0.0
11
4.233627
21
-3.827649
31
0.0
0
LINE
8
0
6
CONTINUOUS
10
4.504988
20
-3.783077
30
0.0
11
4.473997
21
-3.785241
31
0.0
0
LINE
8
0
6
CONTINUOUS
10
0.888693
20
-3.464344
30
0.0
11
0.625462
21
-3.475267
31
0.0
0
LINE
8
0
6
CONTINUOUS
10
1.533633
20
-3.569814
30
0.0
11
1.348922
21
-3.574130
31
0.0
0
LINE
8
0
6
CONTINUOUS
10
1.023002
20
-3.815416
30
0.0
11
0.821395
21
-3.821270
31
0.0
0
LINE
8
0
6
CONTINUOUS
10
2.029784
20
-3.776103
30
0.0
11
2.145380
21
-3.783765
31
0.0
0
LINE
8
0
6
CONTINUOUS
10
2.029784
20
-3.776103
30
0.0
11
1.828177
21
-3.782496
31
0.0
0
LINE
8
0
6
CONTINUOUS
10
2.203927
20
-3.935246
30
0.0
11
2.154089
21
-3.936785
31
0.0
0
LINE
8
0
6
CONTINUOUS
10
-1.367515
20
-3.571797
30
0.0
11
-1.552225
21
-3.567231
31
0.0
0
LINE
8
0
6
CONTINUOUS
10
-6.831207
20
-3.500330
30
0.0
11
-7.048957
21
-3.468651
31
0.0
0
LINE
8
0
6
CONTINUOUS
10
-5.310938
20
-3.347787
30
0.0
11
-5.505610
21
-3.334239
31
0.0
0
LINE
8
0
6
CONTINUOUS
10
-5.743693
20
-3.593912
30
0.0
11
-6.035308
21
-3.563338
31
0.0
0
LINE
8
0
6
CONTINUOUS
10
-4.767548
20
-3.696518
30
0.0
11
-4.961237
21
-3.670257
31
0.0
0
LINE
8
0
6
CONTINUOUS
10
-4.282514
20
-3.564298
30
0.0
11
-4.451385
21
-3.553289
31
0.0
0
LINE
8
0
6
CONTINUOUS
10
-4.993816
20
-3.379361
30
0.0
11
-5.230561
21
-3.348884
31
0.0
0
LINE
8
0
6
CONTINUOUS
10
-3.990647
20
-3.477050
30
0.0
11
-4.214939
21
-3.463650
31
0.0
0
LINE
8
0
6
CONTINUOUS
10
-3.648589
20
-3.358412
30
0.0
11
-3.887787
21
-3.341064
31
0.0
0
LINE
8
0
6
CONTINUOUS
10
-2.870771
20
-3.564354
30
0.0
11
-3.166260
21
-3.554807
31
0.0
0
LINE
8
0
6
CONTINUOUS
10
-3.592298
20
-3.359336
30
0.0
11
-3.399669
21
-3.393871
31
0.0
0
LINE
8
0
6
CONTINUOUS
10
-2.404147
20
-3.479328
30
0.0
11
-2.671176
21
-3.465674
31
0.0
0
LINE
8
0
6
CONTINUOUS
10
-1.882026
20
-3.348637
30
0.0
11
-1.985787
21
-3.341690
31
0.0
0
LINE
8
0
6
CONTINUOUS
10
-0.644054
20
-3.473194
30
0.0
11
-0.907285
21
-3.461310
31
0.0
0
LINE
8
0
6
CONTINUOUS
10
-0.078246
20
-3.344919
30
0.0
11
-0.083876
21
-3.344587
31
0.0
0
LINE
8
0
6
CONTINUOUS
10
-1.686329
20
-3.352998
30
0.0
11
-1.552225
21
-3.390480
31
0.0
0
ENDSEC
0
EOF
