999
unknown String-ID: 20550
0
SECTION
2
HEADER
9
$ACADVER
1
AC1009
9
$DWGCODEPAGE
3
unknown String-ID: 20561
0
ENDSEC
0
SECTION
2
TABLES
0
TABLE
2
LAYER
70
1
0
LAYER
2
0
70
0
62
7
6
CONTINUOUS
0
ENDTAB
0
ENDSEC
0
SECTION
2
ENTITIES
0
LINE
8
0
6
CONTINUOUS
10
-7.640091
20
-3.593798
30
0.0
11
-7.658133
21
-3.593798
31
0.0
0
LINE
8
0
6
CONTINUOUS
10
-7.640091
20
-3.593798
30
0.0
11
-7.640091
21
-3.424380
31
0.0
0
LINE
8
0
6
CONTINUOUS
10
-7.658133
20
-3.593798
30
0.0
11
-7.640091
21
-3.593798
31
0.0
0
LINE
8
0
6
CONTINUOUS
10
-7.926491
20
-3.593798
30
0.0
11
-7.658133
21
-3.593798
31
0.0
0
LINE
8
0
6
CONTINUOUS
10
-8.176807
20
-3.593798
30
0.0
11
-7.926491
21
-3.593798
31
0.0
0
LINE
8
0
6
CONTINUOUS
10
-7.658133
20
-3.593798
30
0.0
11
-7.926491
21
-3.593798
31
0.0
0
LINE
8
0
6
CONTINUOUS
10
-7.658133
20
-3.411938
30
0.0
11
-7.658133
21
-3.593798
31
0.0
0
LINE
8
0
6
CONTINUOUS
10
-8.176807
20
-3.593798
30
0.0
11
-8.176807
21
-3.342907
31
0.0
0
LINE
8
0
6
CONTINUOUS
10
-7.926491
20
-3.593798
30
0.0
11
-8.176807
21
-3.593798
31
0.0
0
LINE
8
0
6
CONTINUOUS
10
-7.926491
20
-3.370252
30
0.0
11
-7.926491
21
-3.593798
31
0.0
0
LINE
8
0
6
CONTINUOUS
10
5.191256
20
-3.595629
30
0.0
11
5.191256
21
-3.394956
31
0.0
0
LINE
8
0
6
CONTINUOUS
10
5.415760
20
-3.595629
30
0.0
11
5.191256
21
-3.595629
31
0.0
0
LINE
8
0
6
CONTINUOUS
10
5.415760
20
-3.595629
30
0.0
11
5.415760
21
-3.359229
31
0.0
0
LINE
8
0
6
CONTINUOUS
10
5.700344
20
-3.595629
30
0.0
11
5.415760
21
-3.595629
31
0.0
0
LINE
8
0
6
CONTINUOUS
10
5.700344
20
-3.595629
30
0.0
11
5.760425
21
-3.595629
31
0.0
0
LINE
8
0
6
CONTINUOUS
10
5.415760
20
-3.595629
30
0.0
11
5.700344
21
-3.595629
31
0.0
0
LINE
8
0
6
CONTINUOUS
10
5.191256
20
-3.595629
30
0.0
11
5.415760
21
-3.595629
31
0.0
0
LINE
8
0
6
CONTINUOUS
10
5.700344
20
-3.595629
30
0.0
11
5.700344
21
-3.337885
31
0.0
0
LINE
8
0
6
CONTINUOUS
10
5.760425
20
-3.595629
30
0.0
11
5.700344
21
-3.595629
31
0.0
0
LINE
8
0
6
CONTINUOUS
10
5.760425
20
-3.365079
30
0.0
11
5.760425
21
-3.595629
31
0.0
0
LINE
8
0
6
CONTINUOUS
10
-3.462750
20
-3.591403
30
0.0
11
-3.462750
21
-3.355243
31
0.0
0
LINE
8
0
6
CONTINUOUS
10
-3.245422
20
-3.591403
30
0.0
11
-3.462750
21
-3.591403
31
0.0
0
LINE
8
0
6
CONTINUOUS
10
-2.957659
20
-3.591403
30
0.0
11
-2.887224
21
-3.591403
31
0.0
0
LINE
8
0
6
CONTINUOUS
10
-3.245422
20
-3.591403
30
0.0
11
-2.957659
21
-3.591403
31
0.0
0
LINE
8
0
6
CONTINUOUS
10
-3.462750
20
-3.591403
30
0.0
11
-3.245422
21
-3.591403
31
0.0
0
LINE
8
0
6
CONTINUOUS
10
-2.887224
20
-3.591403
30
0.0
11
-2.957659
21
-3.591403
31
0.0
0
LINE
8
0
6
CONTINUOUS
10
-2.887224
20
-3.409151
30
0.0
11
-2.887224
21
-3.591403
31
0.0
0
LINE
8
0
6
CONTINUOUS
10
-3.245422
20
-3.591403
30
0.0
11
-3.245422
21
-3.342816
31
0.0
0
LINE
8
0
6
CONTINUOUS
10
-2.957659
20
-3.591403
30
0.0
11
-3.245422
21
-3.591403
31
0.0
0
LINE
8
0
6
CONTINUOUS
10
-2.957659
20
-3.368410
30
0.0
11
-2.957659
21
-3.591403
31
0.0
0
LINE
8
0
6
CONTINUOUS
10
3.651277
20
-3.581824
30
0.0
11
3.651277
21
-3.396695
31
0.0
0
LINE
8
0
6
CONTINUOUS
10
3.828837
20
-3.581824
30
0.0
11
3.651277
21
-3.581824
31
0.0
0
LINE
8
0
6
CONTINUOUS
10
3.828837
20
-3.581824
30
0.0
11
3.828837
21
-3.348101
31
0.0
0
LINE
8
0
6
CONTINUOUS
10
4.127031
20
-3.581824
30
0.0
11
3.828837
21
-3.581824
31
0.0
0
LINE
8
0
6
CONTINUOUS
10
4.127031
20
-3.581824
30
0.0
11
4.247665
21
-3.581824
31
0.0
0
LINE
8
0
6
CONTINUOUS
10
3.828837
20
-3.581824
30
0.0
11
4.127031
21
-3.581824
31
0.0
0
LINE
8
0
6
CONTINUOUS
10
3.651277
20
-3.581824
30
0.0
11
3.828837
21
-3.581824
31
0.0
0
LINE
8
0
6
CONTINUOUS
10
4.127031
20
-3.581824
30
0.0
11
4.127031
21
-3.324025
31
0.0
0
LINE
8
0
6
CONTINUOUS
10
4.247665
20
-3.581824
30
0.0
11
4.127031
21
-3.581824
31
0.0
0
LINE
8
0
6
CONTINUOUS
10
4.247665
20
-3.348543
30
0.0
11
4.247665
21
-3.581824
31
0.0
0
LINE
8
0
6
CONTINUOUS
10
-5.095274
20
-3.592125
30
0.0
11
-5.095274
21
-3.354056
31
0.0
0
LINE
8
0
6
CONTINUOUS
10
-4.926373
20
-3.592125
30
0.0
11
-5.095274
21
-3.592125
31
0.0
0
LINE
8
0
6
CONTINUOUS
10
-4.627204
20
-3.592125
30
0.0
11
-4.496934
21
-3.592125
31
0.0
0
LINE
8
0
6
CONTINUOUS
10
-4.926373
20
-3.592125
30
0.0
11
-4.627204
21
-3.592125
31
0.0
0
LINE
8
0
6
CONTINUOUS
10
-5.095274
20
-3.592125
30
0.0
11
-4.927880
21
-3.592125
31
0.0
0
LINE
8
0
6
CONTINUOUS
10
-4.496934
20
-3.592125
30
0.0
11
-4.627204
21
-3.592125
31
0.0
0
LINE
8
0
6
CONTINUOUS
10
-4.496934
20
-3.411782
30
0.0
11
-4.496934
21
-3.592125
31
0.0
0
LINE
8
0
6
CONTINUOUS
10
-4.926373
20
-3.592125
30
0.0
11
-4.926373
21
-3.342869
31
0.0
0
LINE
8
0
6
CONTINUOUS
10
-4.627204
20
-3.592125
30
0.0
11
-4.926373
21
-3.592125
31
0.0
0
LINE
8
0
6
CONTINUOUS
10
-4.627204
20
-3.371732
30
0.0
11
-4.627204
21
-3.592125
31
0.0
0
LINE
8
0
6
CONTINUOUS
10
7.884369
20
-3.585436
30
0.0
11
7.752113
21
-3.585436
31
0.0
0
LINE
8
0
6
CONTINUOUS
10
7.884369
20
-3.585436
30
0.0
11
7.884369
21
-3.394808
31
0.0
0
LINE
8
0
6
CONTINUOUS
10
8.183695
20
-3.585436
30
0.0
11
7.884369
21
-3.585436
31
0.0
0
LINE
8
0
6
CONTINUOUS
10
8.183695
20
-3.585436
30
0.0
11
8.183695
21
-3.354852
31
0.0
0
LINE
8
0
6
CONTINUOUS
10
8.350763
20
-3.585436
30
0.0
11
8.183695
21
-3.585436
31
0.0
0
LINE
8
0
6
CONTINUOUS
10
8.183695
20
-3.585436
30
0.0
11
8.350763
21
-3.585436
31
0.0
0
LINE
8
0
6
CONTINUOUS
10
7.884369
20
-3.585436
30
0.0
11
8.183695
21
-3.585436
31
0.0
0
LINE
8
0
6
CONTINUOUS
10
7.752113
20
-3.585436
30
0.0
11
7.884369
21
-3.585436
31
0.0
0
LINE
8
0
6
CONTINUOUS
10
8.350763
20
-3.585436
30
0.0
11
8.350763
21
-3.336274
31
0.0
0
LINE
8
0
6
CONTINUOUS
10
1.918111
20
-3.585134
30
0.0
11
1.918111
21
-3.397626
31
0.0
0
LINE
8
0
6
CONTINUOUS
10
2.040764
20
-3.585134
30
0.0
11
1.918111
21
-3.585134
31
0.0
0
LINE
8
0
6
CONTINUOUS
10
2.040764
20
-3.585134
30
0.0
11
2.040764
21
-3.352907
31
0.0
0
LINE
8
0
6
CONTINUOUS
10
2.339192
20
-3.585134
30
0.0
11
2.040764
21
-3.585134
31
0.0
0
LINE
8
0
6
CONTINUOUS
10
2.339192
20
-3.585134
30
0.0
11
2.514967
21
-3.585134
31
0.0
0
LINE
8
0
6
CONTINUOUS
10
2.040764
20
-3.585134
30
0.0
11
2.339192
21
-3.585134
31
0.0
0
LINE
8
0
6
CONTINUOUS
10
1.918111
20
-3.585134
30
0.0
11
2.039742
21
-3.585134
31
0.0
0
LINE
8
0
6
CONTINUOUS
10
2.339192
20
-3.585134
30
0.0
11
2.339192
21
-3.332523
31
0.0
0
LINE
8
0
6
CONTINUOUS
10
2.514967
20
-3.585134
30
0.0
11
2.339192
21
-3.585134
31
0.0
0
LINE
8
0
6
CONTINUOUS
10
2.514967
20
-3.354982
30
0.0
11
2.514967
21
-3.585134
31
0.0
0
LINE
8
0
6
CONTINUOUS
10
-6.484761
20
-3.590565
30
0.0
11
-6.484761
21
-3.352917
31
0.0
0
LINE
8
0
6
CONTINUOUS
10
-6.371864
20
-3.590565
30
0.0
11
-6.484761
21
-3.590565
31
0.0
0
LINE
8
0
6
CONTINUOUS
10
-6.074707
20
-3.590565
30
0.0
11
-5.890445
21
-3.590565
31
0.0
0
LINE
8
0
6
CONTINUOUS
10
-6.371864
20
-3.590565
30
0.0
11
-6.074707
21
-3.590565
31
0.0
0
LINE
8
0
6
CONTINUOUS
10
-6.484761
20
-3.590565
30
0.0
11
-6.371864
21
-3.590565
31
0.0
0
LINE
8
0
6
CONTINUOUS
10
-5.890445
20
-3.590565
30
0.0
11
-6.074707
21
-3.590565
31
0.0
0
LINE
8
0
6
CONTINUOUS
10
-5.890445
20
-3.409787
30
0.0
11
-5.890445
21
-3.590565
31
0.0
0
LINE
8
0
6
CONTINUOUS
10
-6.371864
20
-3.590565
30
0.0
11
-6.371864
21
-3.340907
31
0.0
0
LINE
8
0
6
CONTINUOUS
10
-6.074707
20
-3.590565
30
0.0
11
-6.371864
21
-3.590565
31
0.0
0
LINE
8
0
6
CONTINUOUS
10
-6.074707
20
-3.369492
30
0.0
11
-6.074707
21
-3.590565
31
0.0
0
LINE
8
0
6
CONTINUOUS
10
7.293177
20
-3.581965
30
0.0
11
7.293177
21
-3.415480
31
0.0
0
LINE
8
0
6
CONTINUOUS
10
7.365757
20
-3.581965
30
0.0
11
7.293177
21
-3.581965
31
0.0
0
LINE
8
0
6
CONTINUOUS
10
7.365757
20
-3.581965
30
0.0
11
7.365757
21
-3.390651
31
0.0
0
LINE
8
0
6
CONTINUOUS
10
7.654138
20
-3.581965
30
0.0
11
7.365757
21
-3.581965
31
0.0
0
LINE
8
0
6
CONTINUOUS
10
7.654138
20
-3.581965
30
0.0
11
7.654138
21
-3.353272
31
0.0
0
LINE
8
0
6
CONTINUOUS
10
7.869935
20
-3.581965
30
0.0
11
7.654138
21
-3.581965
31
0.0
0
LINE
8
0
6
CONTINUOUS
10
7.654138
20
-3.581965
30
0.0
11
7.869935
21
-3.581965
31
0.0
0
LINE
8
0
6
CONTINUOUS
10
7.365757
20
-3.581965
30
0.0
11
7.654138
21
-3.581965
31
0.0
0
LINE
8
0
6
CONTINUOUS
10
7.293177
20
-3.581965
30
0.0
11
7.365757
21
-3.581965
31
0.0
0
LINE
8
0
6
CONTINUOUS
10
7.869935
20
-3.581965
30
0.0
11
7.869935
21
-3.335380
31
0.0
0
LINE
8
0
6
CONTINUOUS
10
0.111959
20
-3.585738
30
0.0
11
0.111959
21
-3.394679
31
0.0
0
LINE
8
0
6
CONTINUOUS
10
0.174202
20
-3.585738
30
0.0
11
0.111959
21
-3.585738
31
0.0
0
LINE
8
0
6
CONTINUOUS
10
0.174202
20
-3.585738
30
0.0
11
0.174202
21
-3.353196
31
0.0
0
LINE
8
0
6
CONTINUOUS
10
0.459479
20
-3.585738
30
0.0
11
0.174202
21
-3.585738
31
0.0
0
LINE
8
0
6
CONTINUOUS
10
0.459479
20
-3.585738
30
0.0
11
0.682511
21
-3.585738
31
0.0
0
LINE
8
0
6
CONTINUOUS
10
0.174202
20
-3.585738
30
0.0
11
0.459479
21
-3.585738
31
0.0
0
LINE
8
0
6
CONTINUOUS
10
0.111959
20
-3.585738
30
0.0
11
0.174202
21
-3.585738
31
0.0
0
LINE
8
0
6
CONTINUOUS
10
0.459479
20
-3.585738
30
0.0
11
0.459479
21
-3.335579
31
0.0
0
LINE
8
0
6
CONTINUOUS
10
0.682511
20
-3.585738
30
0.0
11
0.459479
21
-3.585738
31
0.0
0
LINE
8
0
6
CONTINUOUS
10
0.682511
20
-3.359325
30
0.0
11
0.682511
21
-3.585738
31
0.0
0
LINE
8
0
6
CONTINUOUS
10
-7.464239
20
-3.599074
30
0.0
11
-7.464239
21
-3.361295
31
0.0
0
LINE
8
0
6
CONTINUOUS
10
-7.412408
20
-3.599074
30
0.0
11
-7.464239
21
-3.599074
31
0.0
0
LINE
8
0
6
CONTINUOUS
10
-7.130595
20
-3.599074
30
0.0
11
-6.900608
21
-3.599074
31
0.0
0
LINE
8
0
6
CONTINUOUS
10
-7.412408
20
-3.599074
30
0.0
11
-7.130595
21
-3.599074
31
0.0
0
LINE
8
0
6
CONTINUOUS
10
-7.464239
20
-3.599074
30
0.0
11
-7.412408
21
-3.599074
31
0.0
0
LINE
8
0
6
CONTINUOUS
10
-6.900608
20
-3.599074
30
0.0
11
-7.130595
21
-3.599074
31
0.0
0
LINE
8
0
6
CONTINUOUS
10
-6.900608
20
-3.418441
30
0.0
11
-6.900608
21
-3.599074
31
0.0
0
LINE
8
0
6
CONTINUOUS
10
-7.412408
20
-3.599074
30
0.0
11
-7.412408
21
-3.348441
31
0.0
0
LINE
8
0
6
CONTINUOUS
10
-7.130595
20
-3.599074
30
0.0
11
-7.412408
21
-3.599074
31
0.0
0
LINE
8
0
6
CONTINUOUS
10
-7.130595
20
-3.377014
30
0.0
11
-7.130595
21
-3.599074
31
0.0
0
LINE
8
0
6
CONTINUOUS
10
-6.984178
20
-3.716239
30
0.0
11
-6.984178
21
-3.542202
31
0.0
0
LINE
8
0
6
CONTINUOUS
10
-6.969212
20
-3.716239
30
0.0
11
-6.984178
21
-3.716239
31
0.0
0
LINE
8
0
6
CONTINUOUS
10
-6.730477
20
-3.716239
30
0.0
11
-6.506704
21
-3.716239
31
0.0
0
LINE
8
0
6
CONTINUOUS
10
-6.969212
20
-3.716239
30
0.0
11
-6.730477
21
-3.716239
31
0.0
0
LINE
8
0
6
CONTINUOUS
10
-6.984178
20
-3.716239
30
0.0
11
-6.969212
21
-3.716239
31
0.0
0
LINE
8
0
6
CONTINUOUS
10
-6.506704
20
-3.716239
30
0.0
11
-6.730477
21
-3.716239
31
0.0
0
LINE
8
0
6
CONTINUOUS
10
-6.506704
20
-3.529459
30
0.0
11
-6.506704
21
-3.716239
31
0.0
0
LINE
8
0
6
CONTINUOUS
10
-6.969212
20
-3.716239
30
0.0
11
-6.969212
21
-3.544265
31
0.0
0
LINE
8
0
6
CONTINUOUS
10
-6.730477
20
-3.716239
30
0.0
11
-6.969212
21
-3.716239
31
0.0
0
LINE
8
0
6
CONTINUOUS
10
-6.730477
20
-3.494696
30
0.0
11
-6.730477
21
-3.716239
31
0.0
0
LINE
8
0
6
CONTINUOUS
10
-0.742438
20
-3.709883
30
0.0
11
-0.742438
21
-3.510662
31
0.0
0
LINE
8
0
6
CONTINUOUS
10
-0.718043
20
-3.709883
30
0.0
11
-0.742438
21
-3.709883
31
0.0
0
LINE
8
0
6
CONTINUOUS
10
-0.718043
20
-3.709883
30
0.0
11
-0.718043
21
-3.476062
31
0.0
0
LINE
8
0
6
CONTINUOUS
10
-0.475193
20
-3.709883
30
0.0
11
-0.718043
21
-3.709883
31
0.0
0
LINE
8
0
6
CONTINUOUS
10
-0.475193
20
-3.709883
30
0.0
11
-0.256740
21
-3.709883
31
0.0
0
LINE
8
0
6
CONTINUOUS
10
-0.718043
20
-3.709883
30
0.0
11
-0.475193
21
-3.709883
31
0.0
0
LINE
8
0
6
CONTINUOUS
10
-0.742438
20
-3.709883
30
0.0
11
-0.718043
21
-3.709883
31
0.0
0
LINE
8
0
6
CONTINUOUS
10
-0.475193
20
-3.709883
30
0.0
11
-0.475193
21
-3.464543
31
0.0
0
LINE
8
0
6
CONTINUOUS
10
-0.256740
20
-3.709883
30
0.0
11
-0.475193
21
-3.709883
31
0.0
0
LINE
8
0
6
CONTINUOUS
10
-0.256740
20
-3.488915
30
0.0
11
-0.256740
21
-3.709883
31
0.0
0
LINE
8
0
6
CONTINUOUS
10
6.164553
20
-3.712267
30
0.0
11
6.164553
21
-3.533135
31
0.0
0
LINE
8
0
6
CONTINUOUS
10
6.198350
20
-3.712267
30
0.0
11
6.164553
21
-3.712267
31
0.0
0
LINE
8
0
6
CONTINUOUS
10
6.198350
20
-3.712267
30
0.0
11
6.198350
21
-3.516797
31
0.0
0
LINE
8
0
6
CONTINUOUS
10
6.445009
20
-3.712267
30
0.0
11
6.198350
21
-3.712267
31
0.0
0
LINE
8
0
6
CONTINUOUS
10
6.445009
20
-3.712267
30
0.0
11
6.445009
21
-3.607192
31
0.0
0
LINE
8
0
6
CONTINUOUS
10
6.657870
20
-3.712267
30
0.0
11
6.445009
21
-3.712267
31
0.0
0
LINE
8
0
6
CONTINUOUS
10
6.445009
20
-3.712267
30
0.0
11
6.657870
21
-3.712267
31
0.0
0
LINE
8
0
6
CONTINUOUS
10
6.198350
20
-3.712267
30
0.0
11
6.445009
21
-3.712267
31
0.0
0
LINE
8
0
6
CONTINUOUS
10
6.164553
20
-3.712267
30
0.0
11
6.198350
21
-3.712267
31
0.0
0
LINE
8
0
6
CONTINUOUS
10
6.657870
20
-3.712267
30
0.0
11
6.657870
21
-3.582572
31
0.0
0
LINE
8
0
6
CONTINUOUS
10
-6.288456
20
-3.711460
30
0.0
11
-6.288456
21
-3.625299
31
0.0
0
LINE
8
0
6
CONTINUOUS
10
-6.217590
20
-3.711460
30
0.0
11
-6.288456
21
-3.711460
31
0.0
0
LINE
8
0
6
CONTINUOUS
10
-5.958819
20
-3.711460
30
0.0
11
-5.770914
21
-3.711460
31
0.0
0
LINE
8
0
6
CONTINUOUS
10
-6.217590
20
-3.711460
30
0.0
11
-5.958819
21
-3.711460
31
0.0
0
LINE
8
0
6
CONTINUOUS
10
-6.288456
20
-3.711460
30
0.0
11
-6.217590
21
-3.711460
31
0.0
0
LINE
8
0
6
CONTINUOUS
10
-5.770914
20
-3.711460
30
0.0
11
-5.958819
21
-3.711460
31
0.0
0
LINE
8
0
6
CONTINUOUS
10
-5.770914
20
-3.524137
30
0.0
11
-5.770914
21
-3.711460
31
0.0
0
LINE
8
0
6
CONTINUOUS
10
-6.217590
20
-3.711460
30
0.0
11
-6.217590
21
-3.633496
31
0.0
0
LINE
8
0
6
CONTINUOUS
10
-5.958819
20
-3.711460
30
0.0
11
-6.217590
21
-3.711460
31
0.0
0
LINE
8
0
6
CONTINUOUS
10
-5.958819
20
-3.663427
30
0.0
11
-5.958819
21
-3.711460
31
0.0
0
LINE
8
0
6
CONTINUOUS
10
0.883692
20
-3.706217
30
0.0
11
0.883692
21
-3.509967
31
0.0
0
LINE
8
0
6
CONTINUOUS
10
0.963630
20
-3.706217
30
0.0
11
0.883692
21
-3.706217
31
0.0
0
LINE
8
0
6
CONTINUOUS
10
0.963630
20
-3.706217
30
0.0
11
0.963630
21
-3.473403
31
0.0
0
LINE
8
0
6
CONTINUOUS
10
1.224628
20
-3.706217
30
0.0
11
0.963630
21
-3.706217
31
0.0
0
LINE
8
0
6
CONTINUOUS
10
1.224628
20
-3.706217
30
0.0
11
1.405688
21
-3.706217
31
0.0
0
LINE
8
0
6
CONTINUOUS
10
0.963630
20
-3.706217
30
0.0
11
1.224628
21
-3.706217
31
0.0
0
LINE
8
0
6
CONTINUOUS
10
0.883692
20
-3.706217
30
0.0
11
0.963630
21
-3.706217
31
0.0
0
LINE
8
0
6
CONTINUOUS
10
1.224628
20
-3.706217
30
0.0
11
1.224628
21
-3.460446
31
0.0
0
LINE
8
0
6
CONTINUOUS
10
1.405688
20
-3.706217
30
0.0
11
1.224628
21
-3.706217
31
0.0
0
LINE
8
0
6
CONTINUOUS
10
1.405688
20
-3.484154
30
0.0
11
1.405688
21
-3.706217
31
0.0
0
LINE
8
0
6
CONTINUOUS
10
6.752856
20
-3.712336
30
0.0
11
6.752856
21
-3.571585
31
0.0
0
LINE
8
0
6
CONTINUOUS
10
6.841768
20
-3.712336
30
0.0
11
6.752856
21
-3.712336
31
0.0
0
LINE
8
0
6
CONTINUOUS
10
6.841768
20
-3.712336
30
0.0
11
6.841768
21
-3.561301
31
0.0
0
LINE
8
0
6
CONTINUOUS
10
7.104668
20
-3.712336
30
0.0
11
6.841768
21
-3.712336
31
0.0
0
LINE
8
0
6
CONTINUOUS
10
7.104668
20
-3.712336
30
0.0
11
7.104668
21
-3.484760
31
0.0
0
LINE
8
0
6
CONTINUOUS
10
7.278654
20
-3.712336
30
0.0
11
7.104668
21
-3.712336
31
0.0
0
LINE
8
0
6
CONTINUOUS
10
7.104668
20
-3.712336
30
0.0
11
7.278654
21
-3.712336
31
0.0
0
LINE
8
0
6
CONTINUOUS
10
6.841768
20
-3.712336
30
0.0
11
7.104668
21
-3.712336
31
0.0
0
LINE
8
0
6
CONTINUOUS
10
6.752856
20
-3.712336
30
0.0
11
6.841768
21
-3.712336
31
0.0
0
LINE
8
0
6
CONTINUOUS
10
7.278654
20
-3.712336
30
0.0
11
7.278654
21
-3.467587
31
0.0
0
LINE
8
0
6
CONTINUOUS
10
-5.199857
20
-3.709992
30
0.0
11
-5.199857
21
-3.478716
31
0.0
0
LINE
8
0
6
CONTINUOUS
10
-5.076269
20
-3.709992
30
0.0
11
-5.199857
21
-3.709992
31
0.0
0
LINE
8
0
6
CONTINUOUS
10
-4.809072
20
-3.709992
30
0.0
11
-4.665460
21
-3.709992
31
0.0
0
LINE
8
0
6
CONTINUOUS
10
-5.076269
20
-3.709992
30
0.0
11
-4.809072
21
-3.709992
31
0.0
0
LINE
8
0
6
CONTINUOUS
10
-5.199857
20
-3.709992
30
0.0
11
-5.076269
21
-3.709992
31
0.0
0
LINE
8
0
6
CONTINUOUS
10
-4.665460
20
-3.709992
30
0.0
11
-4.809072
21
-3.709992
31
0.0
0
LINE
8
0
6
CONTINUOUS
10
-4.665460
20
-3.522857
30
0.0
11
-4.665460
21
-3.709992
31
0.0
0
LINE
8
0
6
CONTINUOUS
10
-4.809072
20
-3.709992
30
0.0
11
-5.076269
21
-3.709992
31
0.0
0
LINE
8
0
6
CONTINUOUS
10
-4.809072
20
-3.487541
30
0.0
11
-4.809072
21
-3.709992
31
0.0
0
LINE
8
0
6
CONTINUOUS
10
2.484883
20
-3.704367
30
0.0
11
2.484883
21
-3.511127
31
0.0
0
LINE
8
0
6
CONTINUOUS
10
2.616778
20
-3.704367
30
0.0
11
2.484883
21
-3.704367
31
0.0
0
LINE
8
0
6
CONTINUOUS
10
2.616778
20
-3.704367
30
0.0
11
2.616778
21
-3.471503
31
0.0
0
LINE
8
0
6
CONTINUOUS
10
2.884218
20
-3.704367
30
0.0
11
2.616778
21
-3.704367
31
0.0
0
LINE
8
0
6
CONTINUOUS
10
2.884218
20
-3.704367
30
0.0
11
3.019763
21
-3.704367
31
0.0
0
LINE
8
0
6
CONTINUOUS
10
2.616778
20
-3.704367
30
0.0
11
2.884218
21
-3.704367
31
0.0
0
LINE
8
0
6
CONTINUOUS
10
2.484883
20
-3.704367
30
0.0
11
2.616778
21
-3.704367
31
0.0
0
LINE
8
0
6
CONTINUOUS
10
2.884218
20
-3.704367
30
0.0
11
2.884218
21
-3.455536
31
0.0
0
LINE
8
0
6
CONTINUOUS
10
3.019763
20
-3.704367
30
0.0
11
2.884218
21
-3.704367
31
0.0
0
LINE
8
0
6
CONTINUOUS
10
3.019763
20
-3.479193
30
0.0
11
3.019763
21
-3.704367
31
0.0
0
LINE
8
0
6
CONTINUOUS
10
-3.858738
20
-3.710675
30
0.0
11
-3.858738
21
-3.480736
31
0.0
0
LINE
8
0
6
CONTINUOUS
10
-3.687973
20
-3.710675
30
0.0
11
-3.858738
21
-3.710675
31
0.0
0
LINE
8
0
6
CONTINUOUS
10
-3.424332
20
-3.710675
30
0.0
11
-3.331457
21
-3.710675
31
0.0
0
LINE
8
0
6
CONTINUOUS
10
-3.687973
20
-3.710675
30
0.0
11
-3.424332
21
-3.710675
31
0.0
0
LINE
8
0
6
CONTINUOUS
10
-3.858738
20
-3.710675
30
0.0
11
-3.687973
21
-3.710675
31
0.0
0
LINE
8
0
6
CONTINUOUS
10
-3.331457
20
-3.710675
30
0.0
11
-3.424332
21
-3.710675
31
0.0
0
LINE
8
0
6
CONTINUOUS
10
-3.331457
20
-3.522202
30
0.0
11
-3.331457
21
-3.710675
31
0.0
0
LINE
8
0
6
CONTINUOUS
10
-3.687973
20
-3.710675
30
0.0
11
-3.687973
21
-3.465726
31
0.0
0
LINE
8
0
6
CONTINUOUS
10
-3.424332
20
-3.710675
30
0.0
11
-3.687973
21
-3.710675
31
0.0
0
LINE
8
0
6
CONTINUOUS
10
-3.424332
20
-3.486459
30
0.0
11
-3.424332
21
-3.710675
31
0.0
0
LINE
8
0
6
CONTINUOUS
10
3.963040
20
-3.710062
30
0.0
11
3.963040
21
-3.522499
31
0.0
0
LINE
8
0
6
CONTINUOUS
10
4.140976
20
-3.710062
30
0.0
11
3.963040
21
-3.710062
31
0.0
0
LINE
8
0
6
CONTINUOUS
10
4.140976
20
-3.710062
30
0.0
11
4.140976
21
-3.486720
31
0.0
0
LINE
8
0
6
CONTINUOUS
10
4.402861
20
-3.710062
30
0.0
11
4.140976
21
-3.710062
31
0.0
0
LINE
8
0
6
CONTINUOUS
10
4.402861
20
-3.710062
30
0.0
11
4.486811
21
-3.710062
31
0.0
0
LINE
8
0
6
CONTINUOUS
10
4.140976
20
-3.710062
30
0.0
11
4.402861
21
-3.710062
31
0.0
0
LINE
8
0
6
CONTINUOUS
10
3.963040
20
-3.710062
30
0.0
11
4.140976
21
-3.710062
31
0.0
0
LINE
8
0
6
CONTINUOUS
10
4.402861
20
-3.710062
30
0.0
11
4.402861
21
-3.468905
31
0.0
0
LINE
8
0
6
CONTINUOUS
10
4.486811
20
-3.710062
30
0.0
11
4.402861
21
-3.710062
31
0.0
0
LINE
8
0
6
CONTINUOUS
10
4.486811
20
-3.485345
30
0.0
11
4.486811
21
-3.710062
31
0.0
0
LINE
8
0
6
CONTINUOUS
10
7.164298
20
-3.715310
30
0.0
11
6.979414
21
-3.715310
31
0.0
0
LINE
8
0
6
CONTINUOUS
10
7.424101
20
-3.715310
30
0.0
11
7.164298
21
-3.715310
31
0.0
0
LINE
8
0
6
CONTINUOUS
10
7.424101
20
-3.715310
30
0.0
11
7.424101
21
-3.481557
31
0.0
0
LINE
8
0
6
CONTINUOUS
10
7.499019
20
-3.715310
30
0.0
11
7.424101
21
-3.715310
31
0.0
0
LINE
8
0
6
CONTINUOUS
10
7.424101
20
-3.715310
30
0.0
11
7.499019
21
-3.715310
31
0.0
0
LINE
8
0
6
CONTINUOUS
10
7.164298
20
-3.715310
30
0.0
11
7.424101
21
-3.715310
31
0.0
0
LINE
8
0
6
CONTINUOUS
10
6.979414
20
-3.715310
30
0.0
11
7.164298
21
-3.715310
31
0.0
0
LINE
8
0
6
CONTINUOUS
10
7.499019
20
-3.715310
30
0.0
11
7.499019
21
-3.471229
31
0.0
0
LINE
8
0
6
CONTINUOUS
10
-7.242610
20
-3.708687
30
0.0
11
-6.990992
21
-3.708687
31
0.0
0
LINE
8
0
6
CONTINUOUS
10
-7.446920
20
-3.708687
30
0.0
11
-7.242610
21
-3.708687
31
0.0
0
LINE
8
0
6
CONTINUOUS
10
-6.990992
20
-3.708687
30
0.0
11
-7.242610
21
-3.708687
31
0.0
0
LINE
8
0
6
CONTINUOUS
10
-6.990992
20
-3.541263
30
0.0
11
-6.990992
21
-3.708687
31
0.0
0
LINE
8
0
6
CONTINUOUS
10
-7.242610
20
-3.708687
30
0.0
11
-7.446920
21
-3.708687
31
0.0
0
LINE
8
0
6
CONTINUOUS
10
-7.242610
20
-3.506576
30
0.0
11
-7.242610
21
-3.708687
31
0.0
0
LINE
8
0
6
CONTINUOUS
10
-2.381006
20
-3.712977
30
0.0
11
-2.381006
21
-3.480011
31
0.0
0
LINE
8
0
6
CONTINUOUS
10
-2.170722
20
-3.712977
30
0.0
11
-2.381006
21
-3.712977
31
0.0
0
LINE
8
0
6
CONTINUOUS
10
-1.922465
20
-3.712977
30
0.0
11
-1.884492
21
-3.712977
31
0.0
0
LINE
8
0
6
CONTINUOUS
10
-2.170722
20
-3.712977
30
0.0
11
-1.922465
21
-3.712977
31
0.0
0
LINE
8
0
6
CONTINUOUS
10
-2.381006
20
-3.712977
30
0.0
11
-2.170722
21
-3.712977
31
0.0
0
LINE
8
0
6
CONTINUOUS
10
-1.884492
20
-3.712977
30
0.0
11
-1.922465
21
-3.712977
31
0.0
0
LINE
8
0
6
CONTINUOUS
10
-1.884492
20
-3.524388
30
0.0
11
-1.884492
21
-3.712977
31
0.0
0
LINE
8
0
6
CONTINUOUS
10
-2.170722
20
-3.712977
30
0.0
11
-2.170722
21
-3.466702
31
0.0
0
LINE
8
0
6
CONTINUOUS
10
-1.922465
20
-3.712977
30
0.0
11
-2.170722
21
-3.712977
31
0.0
0
LINE
8
0
6
CONTINUOUS
10
-1.922465
20
-3.488683
30
0.0
11
-1.922465
21
-3.712977
31
0.0
0
LINE
8
0
6
CONTINUOUS
10
5.186996
20
-3.700892
30
0.0
11
5.186996
21
-3.503774
31
0.0
0
LINE
8
0
6
CONTINUOUS
10
5.402990
20
-3.700892
30
0.0
11
5.186996
21
-3.700892
31
0.0
0
LINE
8
0
6
CONTINUOUS
10
5.647574
20
-3.700892
30
0.0
11
5.402990
21
-3.700892
31
0.0
0
LINE
8
0
6
CONTINUOUS
10
5.647574
20
-3.700892
30
0.0
11
5.676164
21
-3.700892
31
0.0
0
LINE
8
0
6
CONTINUOUS
10
5.402990
20
-3.700892
30
0.0
11
5.647574
21
-3.700892
31
0.0
0
LINE
8
0
6
CONTINUOUS
10
5.186996
20
-3.700892
30
0.0
11
5.402990
21
-3.700892
31
0.0
0
LINE
8
0
6
CONTINUOUS
10
5.676164
20
-3.700892
30
0.0
11
5.647574
21
-3.700892
31
0.0
0
LINE
8
0
6
CONTINUOUS
10
5.676164
20
-3.696119
30
0.0
11
5.676164
21
-3.700892
31
0.0
0
LINE
8
0
6
CONTINUOUS
10
4.580354
20
-3.912830
30
0.0
11
4.580354
21
-3.810296
31
0.0
0
LINE
8
0
6
CONTINUOUS
10
4.749765
20
-3.912830
30
0.0
11
4.580354
21
-3.912830
31
0.0
0
LINE
8
0
6
CONTINUOUS
10
4.749765
20
-3.912830
30
0.0
11
4.749765
21
-3.691231
31
0.0
0
LINE
8
0
6
CONTINUOUS
10
4.931995
20
-3.912830
30
0.0
11
4.749765
21
-3.912830
31
0.0
0
LINE
8
0
6
CONTINUOUS
10
4.931995
20
-3.912830
30
0.0
11
4.944818
21
-3.912830
31
0.0
0
LINE
8
0
6
CONTINUOUS
10
4.749765
20
-3.912830
30
0.0
11
4.931995
21
-3.912830
31
0.0
0
LINE
8
0
6
CONTINUOUS
10
4.580354
20
-3.912830
30
0.0
11
4.749765
21
-3.912830
31
0.0
0
LINE
8
0
6
CONTINUOUS
10
4.931995
20
-3.912830
30
0.0
11
4.931995
21
-3.676379
31
0.0
0
LINE
8
0
6
CONTINUOUS
10
4.944818
20
-3.912830
30
0.0
11
4.931995
21
-3.912830
31
0.0
0
LINE
8
0
6
CONTINUOUS
10
4.944818
20
-3.688771
30
0.0
11
4.944818
21
-3.912830
31
0.0
0
LINE
8
0
6
CONTINUOUS
10
-1.660669
20
-3.902353
30
0.0
11
-1.660669
21
-3.679843
31
0.0
0
LINE
8
0
6
CONTINUOUS
10
-1.495346
20
-3.902353
30
0.0
11
-1.660669
21
-3.902353
31
0.0
0
LINE
8
0
6
CONTINUOUS
10
-1.310032
20
-3.902353
30
0.0
11
-1.290040
21
-3.902353
31
0.0
0
LINE
8
0
6
CONTINUOUS
10
-1.495346
20
-3.902353
30
0.0
11
-1.310032
21
-3.902353
31
0.0
0
LINE
8
0
6
CONTINUOUS
10
-1.660669
20
-3.902353
30
0.0
11
-1.495346
21
-3.902353
31
0.0
0
LINE
8
0
6
CONTINUOUS
10
-1.290040
20
-3.902353
30
0.0
11
-1.310032
21
-3.902353
31
0.0
0
LINE
8
0
6
CONTINUOUS
10
-1.495346
20
-3.902353
30
0.0
11
-1.495346
21
-3.671231
31
0.0
0
LINE
8
0
6
CONTINUOUS
10
-1.310032
20
-3.902353
30
0.0
11
-1.495346
21
-3.902353
31
0.0
0
LINE
8
0
6
CONTINUOUS
10
-5.187935
20
-3.910376
30
0.0
11
-5.215073
21
-3.910376
31
0.0
0
LINE
8
0
6
CONTINUOUS
10
-5.187935
20
-3.910376
30
0.0
11
-5.187935
21
-3.752590
31
0.0
0
LINE
8
0
6
CONTINUOUS
10
-5.215073
20
-3.910376
30
0.0
11
-5.187935
21
-3.910376
31
0.0
0
LINE
8
0
6
CONTINUOUS
10
-5.403238
20
-3.910376
30
0.0
11
-5.215073
21
-3.910376
31
0.0
0
LINE
8
0
6
CONTINUOUS
10
-5.564266
20
-3.910376
30
0.0
11
-5.403238
21
-3.910376
31
0.0
0
LINE
8
0
6
CONTINUOUS
10
-5.215073
20
-3.910376
30
0.0
11
-5.403238
21
-3.910376
31
0.0
0
LINE
8
0
6
CONTINUOUS
10
-5.215073
20
-3.749451
30
0.0
11
-5.215073
21
-3.910376
31
0.0
0
LINE
8
0
6
CONTINUOUS
10
-5.403238
20
-3.910376
30
0.0
11
-5.564266
21
-3.910376
31
0.0
0
LINE
8
0
6
CONTINUOUS
10
-5.403238
20
-3.693917
30
0.0
11
-5.403238
21
-3.910376
31
0.0
0
LINE
8
0
6
CONTINUOUS
10
3.664713
20
-3.909196
30
0.0
11
3.664713
21
-3.709394
31
0.0
0
LINE
8
0
6
CONTINUOUS
10
3.806607
20
-3.909196
30
0.0
11
3.664713
21
-3.909196
31
0.0
0
LINE
8
0
6
CONTINUOUS
10
3.806607
20
-3.909196
30
0.0
11
3.806607
21
-3.691798
31
0.0
0
LINE
8
0
6
CONTINUOUS
10
4.003791
20
-3.909196
30
0.0
11
3.806607
21
-3.909196
31
0.0
0
LINE
8
0
6
CONTINUOUS
10
4.003791
20
-3.909196
30
0.0
11
4.059081
21
-3.909196
31
0.0
0
LINE
8
0
6
CONTINUOUS
10
3.806607
20
-3.909196
30
0.0
11
4.003791
21
-3.909196
31
0.0
0
LINE
8
0
6
CONTINUOUS
10
3.664713
20
-3.909196
30
0.0
11
3.806607
21
-3.909196
31
0.0
0
LINE
8
0
6
CONTINUOUS
10
4.003791
20
-3.909196
30
0.0
11
4.003791
21
-3.682395
31
0.0
0
LINE
8
0
6
CONTINUOUS
10
4.059081
20
-3.909196
30
0.0
11
4.003791
21
-3.909196
31
0.0
0
LINE
8
0
6
CONTINUOUS
10
4.059081
20
-3.847456
30
0.0
11
4.059081
21
-3.909196
31
0.0
0
LINE
8
0
6
CONTINUOUS
10
-3.004984
20
-3.908338
30
0.0
11
-3.004984
21
-3.681254
31
0.0
0
LINE
8
0
6
CONTINUOUS
10
-2.868333
20
-3.908338
30
0.0
11
-3.004984
21
-3.908338
31
0.0
0
LINE
8
0
6
CONTINUOUS
10
-2.669504
20
-3.908338
30
0.0
11
-2.607326
21
-3.908338
31
0.0
0
LINE
8
0
6
CONTINUOUS
10
-2.868333
20
-3.908338
30
0.0
11
-2.669504
21
-3.908338
31
0.0
0
LINE
8
0
6
CONTINUOUS
10
-3.004984
20
-3.908338
30
0.0
11
-2.868333
21
-3.908338
31
0.0
0
LINE
8
0
6
CONTINUOUS
10
-2.607326
20
-3.908338
30
0.0
11
-2.669504
21
-3.908338
31
0.0
0
LINE
8
0
6
CONTINUOUS
10
-2.607326
20
-3.715511
30
0.0
11
-2.607326
21
-3.908338
31
0.0
0
LINE
8
0
6
CONTINUOUS
10
-2.669504
20
-3.908338
30
0.0
11
-2.868333
21
-3.908338
31
0.0
0
LINE
8
0
6
CONTINUOUS
10
2.484702
20
-3.908409
30
0.0
11
2.484702
21
-3.712420
31
0.0
0
LINE
8
0
6
CONTINUOUS
10
2.592716
20
-3.908409
30
0.0
11
2.484702
21
-3.908409
31
0.0
0
LINE
8
0
6
CONTINUOUS
10
2.592716
20
-3.908409
30
0.0
11
2.592716
21
-3.685406
31
0.0
0
LINE
8
0
6
CONTINUOUS
10
2.796007
20
-3.908409
30
0.0
11
2.592716
21
-3.908409
31
0.0
0
LINE
8
0
6
CONTINUOUS
10
2.796007
20
-3.908409
30
0.0
11
2.891287
21
-3.908409
31
0.0
0
LINE
8
0
6
CONTINUOUS
10
2.592716
20
-3.908409
30
0.0
11
2.796007
21
-3.908409
31
0.0
0
LINE
8
0
6
CONTINUOUS
10
2.484702
20
-3.908409
30
0.0
11
2.592716
21
-3.908409
31
0.0
0
LINE
8
0
6
CONTINUOUS
10
2.891287
20
-3.908409
30
0.0
11
2.796007
21
-3.908409
31
0.0
0
LINE
8
0
6
CONTINUOUS
10
-4.140875
20
-3.908189
30
0.0
11
-4.140875
21
-3.685768
31
0.0
0
LINE
8
0
6
CONTINUOUS
10
-4.039023
20
-3.908189
30
0.0
11
-4.140875
21
-3.908189
31
0.0
0
LINE
8
0
6
CONTINUOUS
10
-3.835599
20
-3.908189
30
0.0
11
-3.734025
21
-3.908189
31
0.0
0
LINE
8
0
6
CONTINUOUS
10
-4.039023
20
-3.908189
30
0.0
11
-3.835599
21
-3.908189
31
0.0
0
LINE
8
0
6
CONTINUOUS
10
-4.140875
20
-3.908189
30
0.0
11
-4.039023
21
-3.908189
31
0.0
0
LINE
8
0
6
CONTINUOUS
10
-3.734025
20
-3.908189
30
0.0
11
-3.835599
21
-3.908189
31
0.0
0
LINE
8
0
6
CONTINUOUS
10
-3.734025
20
-3.870626
30
0.0
11
-3.734025
21
-3.908189
31
0.0
0
LINE
8
0
6
CONTINUOUS
10
-4.039023
20
-3.908189
30
0.0
11
-4.039023
21
-3.848885
31
0.0
0
LINE
8
0
6
CONTINUOUS
10
-3.835599
20
-3.908189
30
0.0
11
-4.039023
21
-3.908189
31
0.0
0
LINE
8
0
6
CONTINUOUS
10
-3.835599
20
-3.863386
30
0.0
11
-3.835599
21
-3.908189
31
0.0
0
LINE
8
0
6
CONTINUOUS
10
1.154978
20
-3.898330
30
0.0
11
1.154978
21
-3.696855
31
0.0
0
LINE
8
0
6
CONTINUOUS
10
1.224265
20
-3.898330
30
0.0
11
1.154978
21
-3.898330
31
0.0
0
LINE
8
0
6
CONTINUOUS
10
1.224265
20
-3.898330
30
0.0
11
1.224265
21
-3.674931
31
0.0
0
LINE
8
0
6
CONTINUOUS
10
1.424547
20
-3.898330
30
0.0
11
1.224265
21
-3.898330
31
0.0
0
LINE
8
0
6
CONTINUOUS
10
1.424547
20
-3.898330
30
0.0
11
1.555540
21
-3.898330
31
0.0
0
LINE
8
0
6
CONTINUOUS
10
1.224265
20
-3.898330
30
0.0
11
1.424547
21
-3.898330
31
0.0
0
LINE
8
0
6
CONTINUOUS
10
1.154978
20
-3.898330
30
0.0
11
1.224265
21
-3.898330
31
0.0
0
LINE
8
0
6
CONTINUOUS
10
1.424547
20
-3.898330
30
0.0
11
1.424547
21
-3.667732
31
0.0
0
LINE
8
0
6
CONTINUOUS
10
1.555540
20
-3.898330
30
0.0
11
1.424547
21
-3.898330
31
0.0
0
LINE
8
0
6
CONTINUOUS
10
-5.013039
20
-3.910480
30
0.0
11
-5.013039
21
-3.772819
31
0.0
0
LINE
8
0
6
CONTINUOUS
10
-4.950556
20
-3.910480
30
0.0
11
-5.013039
21
-3.910480
31
0.0
0
LINE
8
0
6
CONTINUOUS
10
-4.751660
20
-3.910480
30
0.0
11
-4.615245
21
-3.910480
31
0.0
0
LINE
8
0
6
CONTINUOUS
10
-4.950556
20
-3.910480
30
0.0
11
-4.751660
21
-3.910480
31
0.0
0
LINE
8
0
6
CONTINUOUS
10
-5.013039
20
-3.910480
30
0.0
11
-4.950556
21
-3.910480
31
0.0
0
LINE
8
0
6
CONTINUOUS
10
-4.615245
20
-3.910480
30
0.0
11
-4.751660
21
-3.910480
31
0.0
0
LINE
8
0
6
CONTINUOUS
10
-4.615245
20
-3.717503
30
0.0
11
-4.615245
21
-3.910480
31
0.0
0
LINE
8
0
6
CONTINUOUS
10
-4.950556
20
-3.910480
30
0.0
11
-4.950556
21
-3.780046
31
0.0
0
LINE
8
0
6
CONTINUOUS
10
-4.751660
20
-3.910480
30
0.0
11
-4.950556
21
-3.910480
31
0.0
0
LINE
8
0
6
CONTINUOUS
10
-4.751660
20
-3.798085
30
0.0
11
-4.751660
21
-3.910480
31
0.0
0
LINE
8
0
6
CONTINUOUS
10
5.229838
20
-3.900439
30
0.0
11
5.229838
21
-3.747743
31
0.0
0
LINE
8
0
6
CONTINUOUS
10
5.264400
20
-3.900439
30
0.0
11
5.229838
21
-3.900439
31
0.0
0
LINE
8
0
6
CONTINUOUS
10
5.264400
20
-3.900439
30
0.0
11
5.264400
21
-3.743745
31
0.0
0
LINE
8
0
6
CONTINUOUS
10
5.455293
20
-3.900439
30
0.0
11
5.264400
21
-3.900439
31
0.0
0
LINE
8
0
6
CONTINUOUS
10
5.455293
20
-3.900439
30
0.0
11
5.455293
21
-3.721666
31
0.0
0
LINE
8
0
6
CONTINUOUS
10
5.611619
20
-3.900439
30
0.0
11
5.455293
21
-3.900439
31
0.0
0
LINE
8
0
6
CONTINUOUS
10
5.455293
20
-3.900439
30
0.0
11
5.611619
21
-3.900439
31
0.0
0
LINE
8
0
6
CONTINUOUS
10
5.264400
20
-3.900439
30
0.0
11
5.455293
21
-3.900439
31
0.0
0
LINE
8
0
6
CONTINUOUS
10
5.229838
20
-3.900439
30
0.0
11
5.264400
21
-3.900439
31
0.0
0
LINE
8
0
6
CONTINUOUS
10
5.611619
20
-3.900439
30
0.0
11
5.611619
21
-3.703585
31
0.0
0
LINE
8
0
6
CONTINUOUS
10
-0.272778
20
-3.905777
30
0.0
11
-0.272778
21
-3.701409
31
0.0
0
LINE
8
0
6
CONTINUOUS
10
-0.245324
20
-3.905777
30
0.0
11
-0.272778
21
-3.905777
31
0.0
0
LINE
8
0
6
CONTINUOUS
10
-0.245324
20
-3.905777
30
0.0
11
-0.245324
21
-3.679664
31
0.0
0
LINE
8
0
6
CONTINUOUS
10
-0.057037
20
-3.905777
30
0.0
11
-0.245324
21
-3.905777
31
0.0
0
LINE
8
0
6
CONTINUOUS
10
-0.057037
20
-3.905777
30
0.0
11
0.103795
21
-3.905777
31
0.0
0
LINE
8
0
6
CONTINUOUS
10
-0.245324
20
-3.905777
30
0.0
11
-0.057037
21
-3.905777
31
0.0
0
LINE
8
0
6
CONTINUOUS
10
-0.272778
20
-3.905777
30
0.0
11
-0.245324
21
-3.905777
31
0.0
0
LINE
8
0
6
CONTINUOUS
10
-0.057037
20
-3.905777
30
0.0
11
-0.057037
21
-3.674826
31
0.0
0
LINE
8
0
6
CONTINUOUS
10
0.103795
20
-3.905777
30
0.0
11
-0.057037
21
-3.905777
31
0.0
0
LINE
8
0
6
CONTINUOUS
10
-4.527431
20
-4.008335
30
0.0
11
-4.596418
21
-4.008335
31
0.0
0
LINE
8
0
6
CONTINUOUS
10
-4.527431
20
-4.008335
30
0.0
11
-4.527431
21
-3.814069
31
0.0
0
LINE
8
0
6
CONTINUOUS
10
-4.596418
20
-4.008335
30
0.0
11
-4.527431
21
-4.008335
31
0.0
0
LINE
8
0
6
CONTINUOUS
10
-4.796643
20
-4.008335
30
0.0
11
-4.596418
21
-4.008335
31
0.0
0
LINE
8
0
6
CONTINUOUS
10
-4.927880
20
-4.008335
30
0.0
11
-4.796643
21
-4.008335
31
0.0
0
LINE
8
0
6
CONTINUOUS
10
-4.596418
20
-4.008335
30
0.0
11
-4.796643
21
-4.008335
31
0.0
0
LINE
8
0
6
CONTINUOUS
10
-4.596418
20
-3.805486
30
0.0
11
-4.596418
21
-4.008335
31
0.0
0
LINE
8
0
6
CONTINUOUS
10
-4.796643
20
-4.008335
30
0.0
11
-4.927880
21
-4.008335
31
0.0
0
LINE
8
0
6
CONTINUOUS
10
-4.111233
20
-3.999943
30
0.0
11
-4.138371
21
-3.999943
31
0.0
0
LINE
8
0
6
CONTINUOUS
10
-4.111233
20
-3.999943
30
0.0
11
-4.111233
21
-3.843737
31
0.0
0
LINE
8
0
6
CONTINUOUS
10
-4.138371
20
-3.999943
30
0.0
11
-4.111233
21
-3.999943
31
0.0
0
LINE
8
0
6
CONTINUOUS
10
-4.326535
20
-3.999943
30
0.0
11
-4.138371
21
-3.999943
31
0.0
0
LINE
8
0
6
CONTINUOUS
10
-4.487564
20
-3.999943
30
0.0
11
-4.326535
21
-3.999943
31
0.0
0
LINE
8
0
6
CONTINUOUS
10
-4.138371
20
-3.999943
30
0.0
11
-4.326535
21
-3.999943
31
0.0
0
LINE
8
0
6
CONTINUOUS
10
-4.138371
20
-3.841803
30
0.0
11
-4.138371
21
-3.999943
31
0.0
0
LINE
8
0
6
CONTINUOUS
10
-4.487564
20
-3.999943
30
0.0
11
-4.487564
21
-3.776103
31
0.0
0
LINE
8
0
6
CONTINUOUS
10
-4.326535
20
-3.999943
30
0.0
11
-4.487564
21
-3.999943
31
0.0
0
LINE
8
0
6
CONTINUOUS
10
-4.326535
20
-3.784049
30
0.0
11
-4.326535
21
-3.999943
31
0.0
0
LINE
8
0
6
CONTINUOUS
10
-3.154790
20
-4.048243
30
0.0
11
-3.181927
21
-4.048243
31
0.0
0
LINE
8
0
6
CONTINUOUS
10
-3.181927
20
-4.048243
30
0.0
11
-3.154790
21
-4.048243
31
0.0
0
LINE
8
0
6
CONTINUOUS
10
-3.370092
20
-4.048243
30
0.0
11
-3.181927
21
-4.048243
31
0.0
0
LINE
8
0
6
CONTINUOUS
10
-3.531120
20
-4.048243
30
0.0
11
-3.371788
21
-4.048243
31
0.0
0
LINE
8
0
6
CONTINUOUS
10
-3.181927
20
-4.048243
30
0.0
11
-3.370092
21
-4.048243
31
0.0
0
LINE
8
0
6
CONTINUOUS
10
-3.531120
20
-4.048243
30
0.0
11
-3.531120
21
-3.821060
31
0.0
0
LINE
8
0
6
CONTINUOUS
10
-3.370092
20
-4.048243
30
0.0
11
-3.531120
21
-4.048243
31
0.0
0
LINE
8
0
6
CONTINUOUS
10
-3.020552
20
-3.991760
30
0.0
11
-3.047690
21
-3.991760
31
0.0
0
LINE
8
0
6
CONTINUOUS
10
-3.020552
20
-3.991760
30
0.0
11
-3.020552
21
-3.799863
31
0.0
0
LINE
8
0
6
CONTINUOUS
10
-3.047690
20
-3.991760
30
0.0
11
-3.020552
21
-3.991760
31
0.0
0
LINE
8
0
6
CONTINUOUS
10
-3.235855
20
-3.991760
30
0.0
11
-3.047690
21
-3.991760
31
0.0
0
LINE
8
0
6
CONTINUOUS
10
-3.396883
20
-3.991760
30
0.0
11
-3.235855
21
-3.991760
31
0.0
0
LINE
8
0
6
CONTINUOUS
10
-3.047690
20
-3.991760
30
0.0
11
-3.235855
21
-3.991760
31
0.0
0
LINE
8
0
6
CONTINUOUS
10
-3.047690
20
-3.784814
30
0.0
11
-3.047690
21
-3.991760
31
0.0
0
LINE
8
0
6
CONTINUOUS
10
-3.396883
20
-3.991760
30
0.0
11
-3.396883
21
-3.765244
31
0.0
0
LINE
8
0
6
CONTINUOUS
10
-3.235855
20
-3.991760
30
0.0
11
-3.396883
21
-3.991760
31
0.0
0
LINE
8
0
6
CONTINUOUS
10
-3.235855
20
-3.767505
30
0.0
11
-3.235855
21
-3.991760
31
0.0
0
LINE
8
0
6
CONTINUOUS
10
-1.392921
20
-4.001005
30
0.0
11
-1.420058
21
-4.001005
31
0.0
0
LINE
8
0
6
CONTINUOUS
10
-1.392921
20
-4.001005
30
0.0
11
-1.392921
21
-3.990270
31
0.0
0
LINE
8
0
6
CONTINUOUS
10
-1.420058
20
-4.001005
30
0.0
11
-1.392921
21
-4.001005
31
0.0
0
LINE
8
0
6
CONTINUOUS
10
-1.608223
20
-4.001005
30
0.0
11
-1.420058
21
-4.001005
31
0.0
0
LINE
8
0
6
CONTINUOUS
10
-1.769252
20
-4.001005
30
0.0
11
-1.608223
21
-4.001005
31
0.0
0
LINE
8
0
6
CONTINUOUS
10
-1.420058
20
-4.001005
30
0.0
11
-1.608223
21
-4.001005
31
0.0
0
LINE
8
0
6
CONTINUOUS
10
-1.420058
20
-3.989469
30
0.0
11
-1.420058
21
-4.001005
31
0.0
0
LINE
8
0
6
CONTINUOUS
10
-1.769252
20
-4.001005
30
0.0
11
-1.769252
21
-3.782183
31
0.0
0
LINE
8
0
6
CONTINUOUS
10
-1.608223
20
-4.001005
30
0.0
11
-1.769252
21
-4.001005
31
0.0
0
LINE
8
0
6
CONTINUOUS
10
-1.608223
20
-3.983921
30
0.0
11
-1.608223
21
-4.001005
31
0.0
0
LINE
8
0
6
CONTINUOUS
10
0.603864
20
-4.003481
30
0.0
11
0.576726
21
-4.003481
31
0.0
0
LINE
8
0
6
CONTINUOUS
10
0.603864
20
-4.003481
30
0.0
11
0.603864
21
-3.798711
31
0.0
0
LINE
8
0
6
CONTINUOUS
10
0.576726
20
-4.003481
30
0.0
11
0.603864
21
-4.003481
31
0.0
0
LINE
8
0
6
CONTINUOUS
10
0.388562
20
-4.003481
30
0.0
11
0.576726
21
-4.003481
31
0.0
0
LINE
8
0
6
CONTINUOUS
10
0.227533
20
-4.003481
30
0.0
11
0.388562
21
-4.003481
31
0.0
0
LINE
8
0
6
CONTINUOUS
10
0.576726
20
-4.003481
30
0.0
11
0.388562
21
-4.003481
31
0.0
0
LINE
8
0
6
CONTINUOUS
10
0.576726
20
-3.776946
30
0.0
11
0.576726
21
-4.003481
31
0.0
0
LINE
8
0
6
CONTINUOUS
10
0.227533
20
-4.003481
30
0.0
11
0.227533
21
-3.789839
31
0.0
0
LINE
8
0
6
CONTINUOUS
10
0.388562
20
-4.003481
30
0.0
11
0.227533
21
-4.003481
31
0.0
0
LINE
8
0
6
CONTINUOUS
10
0.388562
20
-3.772510
30
0.0
11
0.388562
21
-4.003481
31
0.0
0
LINE
8
0
6
CONTINUOUS
10
2.416072
20
-4.005578
30
0.0
11
2.388935
21
-4.005578
31
0.0
0
LINE
8
0
6
CONTINUOUS
10
2.416072
20
-4.005578
30
0.0
11
2.416072
21
-3.791027
31
0.0
0
LINE
8
0
6
CONTINUOUS
10
2.388935
20
-4.005578
30
0.0
11
2.416072
21
-4.005578
31
0.0
0
LINE
8
0
6
CONTINUOUS
10
2.200769
20
-4.005578
30
0.0
11
2.388935
21
-4.005578
31
0.0
0
LINE
8
0
6
CONTINUOUS
10
2.039742
20
-4.005578
30
0.0
11
2.200769
21
-4.005578
31
0.0
0
LINE
8
0
6
CONTINUOUS
10
2.388935
20
-4.005578
30
0.0
11
2.200769
21
-4.005578
31
0.0
0
LINE
8
0
6
CONTINUOUS
10
2.388935
20
-3.779290
30
0.0
11
2.388935
21
-4.005578
31
0.0
0
LINE
8
0
6
CONTINUOUS
10
2.039742
20
-4.005578
30
0.0
11
2.039742
21
-3.795342
31
0.0
0
LINE
8
0
6
CONTINUOUS
10
2.200769
20
-4.005578
30
0.0
11
2.039742
21
-4.005578
31
0.0
0
LINE
8
0
6
CONTINUOUS
10
2.200769
20
-3.784163
30
0.0
11
2.200769
21
-4.005578
31
0.0
0
LINE
8
0
6
CONTINUOUS
10
3.909466
20
-3.992914
30
0.0
11
3.882329
21
-3.992914
31
0.0
0
LINE
8
0
6
CONTINUOUS
10
3.909466
20
-3.992914
30
0.0
11
3.909466
21
-3.858121
31
0.0
0
LINE
8
0
6
CONTINUOUS
10
3.882329
20
-3.992914
30
0.0
11
3.909466
21
-3.992914
31
0.0
0
LINE
8
0
6
CONTINUOUS
10
3.694164
20
-3.992914
30
0.0
11
3.882329
21
-3.992914
31
0.0
0
LINE
8
0
6
CONTINUOUS
10
3.533136
20
-3.992914
30
0.0
11
3.694164
21
-3.992914
31
0.0
0
LINE
8
0
6
CONTINUOUS
10
3.882329
20
-3.992914
30
0.0
11
3.694164
21
-3.992914
31
0.0
0
LINE
8
0
6
CONTINUOUS
10
3.882329
20
-3.860055
30
0.0
11
3.882329
21
-3.992914
31
0.0
0
LINE
8
0
6
CONTINUOUS
10
3.533136
20
-3.992914
30
0.0
11
3.533136
21
-3.791711
31
0.0
0
LINE
8
0
6
CONTINUOUS
10
3.694164
20
-3.992914
30
0.0
11
3.533136
21
-3.992914
31
0.0
0
LINE
8
0
6
CONTINUOUS
10
3.694164
20
-3.873469
30
0.0
11
3.694164
21
-3.992914
31
0.0
0
LINE
8
0
6
CONTINUOUS
10
4.664553
20
-4.002973
30
0.0
11
4.637415
21
-4.002973
31
0.0
0
LINE
8
0
6
CONTINUOUS
10
4.637415
20
-4.002973
30
0.0
11
4.664553
21
-4.002973
31
0.0
0
LINE
8
0
6
CONTINUOUS
10
4.449250
20
-4.002973
30
0.0
11
4.637415
21
-4.002973
31
0.0
0
LINE
8
0
6
CONTINUOUS
10
4.288222
20
-4.002973
30
0.0
11
4.449250
21
-4.002973
31
0.0
0
LINE
8
0
6
CONTINUOUS
10
4.637415
20
-4.002973
30
0.0
11
4.449250
21
-4.002973
31
0.0
0
LINE
8
0
6
CONTINUOUS
10
4.288222
20
-4.002973
30
0.0
11
4.288222
21
-3.804960
31
0.0
0
LINE
8
0
6
CONTINUOUS
10
4.449250
20
-4.002973
30
0.0
11
4.288222
21
-4.002973
31
0.0
0
LINE
8
0
6
CONTINUOUS
10
4.449250
20
-3.819642
30
0.0
11
4.449250
21
-4.002973
31
0.0
0
LINE
8
0
6
CONTINUOUS
10
-3.842758
20
-4.039567
30
0.0
11
-3.869895
21
-4.039567
31
0.0
0
LINE
8
0
6
CONTINUOUS
10
-3.842758
20
-4.039567
30
0.0
11
-3.842758
21
-3.862875
31
0.0
0
LINE
8
0
6
CONTINUOUS
10
-3.869895
20
-4.039567
30
0.0
11
-3.842758
21
-4.039567
31
0.0
0
LINE
8
0
6
CONTINUOUS
10
-4.058060
20
-4.039567
30
0.0
11
-3.869895
21
-4.039567
31
0.0
0
LINE
8
0
6
CONTINUOUS
10
-4.219088
20
-4.039567
30
0.0
11
-4.058060
21
-4.039567
31
0.0
0
LINE
8
0
6
CONTINUOUS
10
-3.869895
20
-4.039567
30
0.0
11
-4.058060
21
-4.039567
31
0.0
0
LINE
8
0
6
CONTINUOUS
10
-3.869895
20
-3.860941
30
0.0
11
-3.869895
21
-4.039567
31
0.0
0
LINE
8
0
6
CONTINUOUS
10
-4.058060
20
-4.039567
30
0.0
11
-4.219088
21
-4.039567
31
0.0
0
LINE
8
0
6
CONTINUOUS
10
-4.058060
20
-3.847528
30
0.0
11
-4.058060
21
-4.039567
31
0.0
0
LINE
8
0
6
CONTINUOUS
10
-1.896312
20
-4.048966
30
0.0
11
-1.923450
21
-4.048966
31
0.0
0
LINE
8
0
6
CONTINUOUS
10
-1.896312
20
-4.048966
30
0.0
11
-1.896312
21
-3.849412
31
0.0
0
LINE
8
0
6
CONTINUOUS
10
-1.923450
20
-4.048966
30
0.0
11
-1.896312
21
-4.048966
31
0.0
0
LINE
8
0
6
CONTINUOUS
10
-2.111614
20
-4.048966
30
0.0
11
-1.923450
21
-4.048966
31
0.0
0
LINE
8
0
6
CONTINUOUS
10
-2.272643
20
-4.048966
30
0.0
11
-2.111614
21
-4.048966
31
0.0
0
LINE
8
0
6
CONTINUOUS
10
-1.923450
20
-4.048966
30
0.0
11
-2.111614
21
-4.048966
31
0.0
0
LINE
8
0
6
CONTINUOUS
10
-1.923450
20
-3.835988
30
0.0
11
-1.923450
21
-4.048966
31
0.0
0
LINE
8
0
6
CONTINUOUS
10
-2.272643
20
-4.048966
30
0.0
11
-2.272643
21
-3.830111
31
0.0
0
LINE
8
0
6
CONTINUOUS
10
-2.111614
20
-4.048966
30
0.0
11
-2.272643
21
-4.048966
31
0.0
0
LINE
8
0
6
CONTINUOUS
10
-2.111614
20
-3.826337
30
0.0
11
-2.111614
21
-4.048966
31
0.0
0
LINE
8
0
6
CONTINUOUS
10
-0.302240
20
-4.049595
30
0.0
11
-0.329377
21
-4.049595
31
0.0
0
LINE
8
0
6
CONTINUOUS
10
-0.302240
20
-4.049595
30
0.0
11
-0.302240
21
-3.849684
31
0.0
0
LINE
8
0
6
CONTINUOUS
10
-0.329377
20
-4.049595
30
0.0
11
-0.302240
21
-4.049595
31
0.0
0
LINE
8
0
6
CONTINUOUS
10
-0.517542
20
-4.049595
30
0.0
11
-0.329377
21
-4.049595
31
0.0
0
LINE
8
0
6
CONTINUOUS
10
-0.678570
20
-4.049595
30
0.0
11
-0.517542
21
-4.049595
31
0.0
0
LINE
8
0
6
CONTINUOUS
10
-0.329377
20
-4.049595
30
0.0
11
-0.517542
21
-4.049595
31
0.0
0
LINE
8
0
6
CONTINUOUS
10
-0.329377
20
-3.835607
30
0.0
11
-0.329377
21
-4.049595
31
0.0
0
LINE
8
0
6
CONTINUOUS
10
-0.678570
20
-4.049595
30
0.0
11
-0.678570
21
-3.831097
31
0.0
0
LINE
8
0
6
CONTINUOUS
10
-0.517542
20
-4.049595
30
0.0
11
-0.678570
21
-4.049595
31
0.0
0
LINE
8
0
6
CONTINUOUS
10
-0.517542
20
-3.826314
30
0.0
11
-0.517542
21
-4.049595
31
0.0
0
LINE
8
0
6
CONTINUOUS
10
1.392510
20
-4.042537
30
0.0
11
1.365373
21
-4.042537
31
0.0
0
LINE
8
0
6
CONTINUOUS
10
1.392510
20
-4.042537
30
0.0
11
1.392510
21
-3.834361
31
0.0
0
LINE
8
0
6
CONTINUOUS
10
1.365373
20
-4.042537
30
0.0
11
1.392510
21
-4.042537
31
0.0
0
LINE
8
0
6
CONTINUOUS
10
1.177208
20
-4.042537
30
0.0
11
1.365373
21
-4.042537
31
0.0
0
LINE
8
0
6
CONTINUOUS
10
1.016180
20
-4.042537
30
0.0
11
1.177208
21
-4.042537
31
0.0
0
LINE
8
0
6
CONTINUOUS
10
1.365373
20
-4.042537
30
0.0
11
1.177208
21
-4.042537
31
0.0
0
LINE
8
0
6
CONTINUOUS
10
1.365373
20
-3.822154
30
0.0
11
1.365373
21
-4.042537
31
0.0
0
LINE
8
0
6
CONTINUOUS
10
1.016180
20
-4.042537
30
0.0
11
1.016180
21
-3.832303
31
0.0
0
LINE
8
0
6
CONTINUOUS
10
1.177208
20
-4.042537
30
0.0
11
1.016180
21
-4.042537
31
0.0
0
LINE
8
0
6
CONTINUOUS
10
1.177208
20
-3.946405
30
0.0
11
1.177208
21
-4.042537
31
0.0
0
LINE
8
0
6
CONTINUOUS
10
2.818785
20
-4.048054
30
0.0
11
2.791648
21
-4.048054
31
0.0
0
LINE
8
0
6
CONTINUOUS
10
2.818785
20
-4.048054
30
0.0
11
2.818785
21
-3.935871
31
0.0
0
LINE
8
0
6
CONTINUOUS
10
2.791648
20
-4.048054
30
0.0
11
2.818785
21
-4.048054
31
0.0
0
LINE
8
0
6
CONTINUOUS
10
2.603483
20
-4.048054
30
0.0
11
2.791648
21
-4.048054
31
0.0
0
LINE
8
0
6
CONTINUOUS
10
2.442455
20
-4.048054
30
0.0
11
2.603483
21
-4.048054
31
0.0
0
LINE
8
0
6
CONTINUOUS
10
2.791648
20
-4.048054
30
0.0
11
2.603483
21
-4.048054
31
0.0
0
LINE
8
0
6
CONTINUOUS
10
2.791648
20
-3.937805
30
0.0
11
2.791648
21
-4.048054
31
0.0
0
LINE
8
0
6
CONTINUOUS
10
2.442455
20
-4.048054
30
0.0
11
2.442455
21
-3.846852
31
0.0
0
LINE
8
0
6
CONTINUOUS
10
2.603483
20
-4.048054
30
0.0
11
2.442455
21
-4.048054
31
0.0
0
LINE
8
0
6
CONTINUOUS
10
2.603483
20
-3.951219
30
0.0
11
2.603483
21
-4.048054
31
0.0
0
LINE
8
0
6
CONTINUOUS
10
3.842347
20
-4.045375
30
0.0
11
3.815210
21
-4.045375
31
0.0
0
LINE
8
0
6
CONTINUOUS
10
3.815210
20
-4.045375
30
0.0
11
3.842347
21
-4.045375
31
0.0
0
LINE
8
0
6
CONTINUOUS
10
3.627045
20
-4.045375
30
0.0
11
3.815210
21
-4.045375
31
0.0
0
LINE
8
0
6
CONTINUOUS
10
3.466017
20
-4.045375
30
0.0
11
3.627045
21
-4.045375
31
0.0
0
LINE
8
0
6
CONTINUOUS
10
3.815210
20
-4.045375
30
0.0
11
3.627045
21
-4.045375
31
0.0
0
LINE
8
0
6
CONTINUOUS
10
3.466017
20
-4.045375
30
0.0
11
3.466017
21
-3.847363
31
0.0
0
LINE
8
0
6
CONTINUOUS
10
3.627045
20
-4.045375
30
0.0
11
3.466017
21
-4.045375
31
0.0
0
LINE
8
0
6
CONTINUOUS
10
4.295400
20
-4.052312
30
0.0
11
4.268262
21
-4.052312
31
0.0
0
LINE
8
0
6
CONTINUOUS
10
4.268262
20
-4.052312
30
0.0
11
4.295400
21
-4.052312
31
0.0
0
LINE
8
0
6
CONTINUOUS
10
4.080097
20
-4.052312
30
0.0
11
4.268262
21
-4.052312
31
0.0
0
LINE
8
0
6
CONTINUOUS
10
3.919069
20
-4.052312
30
0.0
11
4.080097
21
-4.052312
31
0.0
0
LINE
8
0
6
CONTINUOUS
10
4.268262
20
-4.052312
30
0.0
11
4.080097
21
-4.052312
31
0.0
0
LINE
8
0
6
CONTINUOUS
10
4.268262
20
-3.830744
30
0.0
11
4.268262
21
-4.052312
31
0.0
0
LINE
8
0
6
CONTINUOUS
10
3.919069
20
-4.052312
30
0.0
11
3.919069
21
-3.857436
31
0.0
0
LINE
8
0
6
CONTINUOUS
10
4.080097
20
-4.052312
30
0.0
11
3.919069
21
-4.052312
31
0.0
0
LINE
8
0
6
CONTINUOUS
10
4.080097
20
-3.842267
30
0.0
11
4.080097
21
-4.052312
31
0.0
0
LINE
8
0
6
CONTINUOUS
10
-6.298860
20
-3.809104
30
0.0
11
-6.030501
21
-3.809104
31
0.0
0
LINE
8
0
6
CONTINUOUS
10
-6.549176
20
-3.809104
30
0.0
11
-6.298860
21
-3.809104
31
0.0
0
LINE
8
0
6
CONTINUOUS
10
-6.030501
20
-3.809104
30
0.0
11
-6.298860
21
-3.809104
31
0.0
0
LINE
8
0
6
CONTINUOUS
10
-6.030501
20
-3.655136
30
0.0
11
-6.030501
21
-3.809104
31
0.0
0
LINE
8
0
6
CONTINUOUS
10
-6.298860
20
-3.809104
30
0.0
11
-6.549176
21
-3.809104
31
0.0
0
LINE
8
0
6
CONTINUOUS
10
-6.298860
20
-3.591596
30
0.0
11
-6.298860
21
-3.809104
31
0.0
0
LINE
8
0
6
CONTINUOUS
10
-6.021184
20
-3.809925
30
0.0
11
-6.021184
21
-3.656213
31
0.0
0
LINE
8
0
6
CONTINUOUS
10
-5.969354
20
-3.809925
30
0.0
11
-6.021184
21
-3.809925
31
0.0
0
LINE
8
0
6
CONTINUOUS
10
-5.687540
20
-3.809925
30
0.0
11
-5.457553
21
-3.809925
31
0.0
0
LINE
8
0
6
CONTINUOUS
10
-5.969354
20
-3.809925
30
0.0
11
-5.687540
21
-3.809925
31
0.0
0
LINE
8
0
6
CONTINUOUS
10
-6.021184
20
-3.809925
30
0.0
11
-5.969354
21
-3.809925
31
0.0
0
LINE
8
0
6
CONTINUOUS
10
-5.457553
20
-3.809925
30
0.0
11
-5.687540
21
-3.809925
31
0.0
0
LINE
8
0
6
CONTINUOUS
10
-5.457553
20
-3.624863
30
0.0
11
-5.457553
21
-3.809925
31
0.0
0
LINE
8
0
6
CONTINUOUS
10
-5.969354
20
-3.809925
30
0.0
11
-5.969354
21
-3.662208
31
0.0
0
LINE
8
0
6
CONTINUOUS
10
-5.687540
20
-3.809925
30
0.0
11
-5.969354
21
-3.809925
31
0.0
0
LINE
8
0
6
CONTINUOUS
10
-5.687540
20
-3.589178
30
0.0
11
-5.687540
21
-3.809925
31
0.0
0
LINE
8
0
6
CONTINUOUS
10
-5.226284
20
-3.812626
30
0.0
11
-5.226284
21
-3.575265
31
0.0
0
LINE
8
0
6
CONTINUOUS
10
-5.113386
20
-3.812626
30
0.0
11
-5.226284
21
-3.812626
31
0.0
0
LINE
8
0
6
CONTINUOUS
10
-4.816229
20
-3.812626
30
0.0
11
-4.631968
21
-3.812626
31
0.0
0
LINE
8
0
6
CONTINUOUS
10
-5.113386
20
-3.812626
30
0.0
11
-4.816229
21
-3.812626
31
0.0
0
LINE
8
0
6
CONTINUOUS
10
-5.226284
20
-3.812626
30
0.0
11
-5.113386
21
-3.812626
31
0.0
0
LINE
8
0
6
CONTINUOUS
10
-4.631968
20
-3.812626
30
0.0
11
-4.816229
21
-3.812626
31
0.0
0
LINE
8
0
6
CONTINUOUS
10
-4.631968
20
-3.631577
30
0.0
11
-4.631968
21
-3.812626
31
0.0
0
LINE
8
0
6
CONTINUOUS
10
-5.113386
20
-3.812626
30
0.0
11
-5.113386
21
-3.761212
31
0.0
0
LINE
8
0
6
CONTINUOUS
10
-4.816229
20
-3.812626
30
0.0
11
-5.113386
21
-3.812626
31
0.0
0
LINE
8
0
6
CONTINUOUS
10
-4.816229
20
-3.793482
30
0.0
11
-4.816229
21
-3.812626
31
0.0
0
LINE
8
0
6
CONTINUOUS
10
-4.138831
20
-3.806380
30
0.0
11
-4.138831
21
-3.574360
31
0.0
0
LINE
8
0
6
CONTINUOUS
10
-3.969930
20
-3.806380
30
0.0
11
-4.138831
21
-3.806380
31
0.0
0
LINE
8
0
6
CONTINUOUS
10
-3.670761
20
-3.806380
30
0.0
11
-3.540491
21
-3.806380
31
0.0
0
LINE
8
0
6
CONTINUOUS
10
-3.969930
20
-3.806380
30
0.0
11
-3.670761
21
-3.806380
31
0.0
0
LINE
8
0
6
CONTINUOUS
10
-4.138831
20
-3.806380
30
0.0
11
-3.969930
21
-3.806380
31
0.0
0
LINE
8
0
6
CONTINUOUS
10
-3.540491
20
-3.806380
30
0.0
11
-3.670761
21
-3.806380
31
0.0
0
LINE
8
0
6
CONTINUOUS
10
-3.540491
20
-3.619989
30
0.0
11
-3.540491
21
-3.806380
31
0.0
0
LINE
8
0
6
CONTINUOUS
10
-3.969930
20
-3.806380
30
0.0
11
-3.969930
21
-3.562125
31
0.0
0
LINE
8
0
6
CONTINUOUS
10
-3.670761
20
-3.806380
30
0.0
11
-3.969930
21
-3.806380
31
0.0
0
LINE
8
0
6
CONTINUOUS
10
-2.909019
20
-3.805597
30
0.0
11
-2.909019
21
-3.571039
31
0.0
0
LINE
8
0
6
CONTINUOUS
10
-2.691692
20
-3.805597
30
0.0
11
-2.909019
21
-3.805597
31
0.0
0
LINE
8
0
6
CONTINUOUS
10
-2.403928
20
-3.805597
30
0.0
11
-2.333494
21
-3.805597
31
0.0
0
LINE
8
0
6
CONTINUOUS
10
-2.691692
20
-3.805597
30
0.0
11
-2.403928
21
-3.805597
31
0.0
0
LINE
8
0
6
CONTINUOUS
10
-2.909019
20
-3.805597
30
0.0
11
-2.691692
21
-3.805597
31
0.0
0
LINE
8
0
6
CONTINUOUS
10
-2.333494
20
-3.805597
30
0.0
11
-2.403928
21
-3.805597
31
0.0
0
LINE
8
0
6
CONTINUOUS
10
-2.691692
20
-3.805597
30
0.0
11
-2.691692
21
-3.560376
31
0.0
0
LINE
8
0
6
CONTINUOUS
10
-2.403928
20
-3.805597
30
0.0
11
-2.691692
21
-3.805597
31
0.0
0
LINE
8
0
6
CONTINUOUS
10
-2.403928
20
-3.585729
30
0.0
11
-2.403928
21
-3.805597
31
0.0
0
LINE
8
0
6
CONTINUOUS
10
-0.008854
20
-3.807956
30
0.0
11
-0.008854
21
-3.614460
31
0.0
0
LINE
8
0
6
CONTINUOUS
10
0.053389
20
-3.807956
30
0.0
11
-0.008854
21
-3.807956
31
0.0
0
LINE
8
0
6
CONTINUOUS
10
0.053389
20
-3.807956
30
0.0
11
0.053389
21
-3.579477
31
0.0
0
LINE
8
0
6
CONTINUOUS
10
0.338666
20
-3.807956
30
0.0
11
0.053389
21
-3.807956
31
0.0
0
LINE
8
0
6
CONTINUOUS
10
0.338666
20
-3.807956
30
0.0
11
0.561698
21
-3.807956
31
0.0
0
LINE
8
0
6
CONTINUOUS
10
0.053389
20
-3.807956
30
0.0
11
0.338666
21
-3.807956
31
0.0
0
LINE
8
0
6
CONTINUOUS
10
-0.008854
20
-3.807956
30
0.0
11
0.053389
21
-3.807956
31
0.0
0
LINE
8
0
6
CONTINUOUS
10
0.338666
20
-3.807956
30
0.0
11
0.338666
21
-3.561329
31
0.0
0
LINE
8
0
6
CONTINUOUS
10
0.561698
20
-3.807956
30
0.0
11
0.338666
21
-3.807956
31
0.0
0
LINE
8
0
6
CONTINUOUS
10
0.561698
20
-3.584050
30
0.0
11
0.561698
21
-3.807956
31
0.0
0
LINE
8
0
6
CONTINUOUS
10
-1.463151
20
-3.805385
30
0.0
11
-1.463151
21
-3.575177
31
0.0
0
LINE
8
0
6
CONTINUOUS
10
-1.207144
20
-3.805385
30
0.0
11
-1.463151
21
-3.805385
31
0.0
0
LINE
8
0
6
CONTINUOUS
10
-0.943695
20
-3.805385
30
0.0
11
-0.936253
21
-3.805385
31
0.0
0
LINE
8
0
6
CONTINUOUS
10
-1.207144
20
-3.805385
30
0.0
11
-0.943695
21
-3.805385
31
0.0
0
LINE
8
0
6
CONTINUOUS
10
-1.463151
20
-3.805385
30
0.0
11
-1.207144
21
-3.805385
31
0.0
0
LINE
8
0
6
CONTINUOUS
10
-0.936253
20
-3.805385
30
0.0
11
-0.943695
21
-3.805385
31
0.0
0
LINE
8
0
6
CONTINUOUS
10
-0.936253
20
-3.617182
30
0.0
11
-0.936253
21
-3.805385
31
0.0
0
LINE
8
0
6
CONTINUOUS
10
-1.207144
20
-3.805385
30
0.0
11
-1.207144
21
-3.560334
31
0.0
0
LINE
8
0
6
CONTINUOUS
10
-0.943695
20
-3.805385
30
0.0
11
-1.207144
21
-3.805385
31
0.0
0
LINE
8
0
6
CONTINUOUS
10
-0.943695
20
-3.583887
30
0.0
11
-0.943695
21
-3.805385
31
0.0
0
LINE
8
0
6
CONTINUOUS
10
1.515401
20
-3.811236
30
0.0
11
1.515401
21
-3.610388
31
0.0
0
LINE
8
0
6
CONTINUOUS
10
1.638054
20
-3.811236
30
0.0
11
1.515401
21
-3.811236
31
0.0
0
LINE
8
0
6
CONTINUOUS
10
1.638054
20
-3.811236
30
0.0
11
1.638054
21
-3.579366
31
0.0
0
LINE
8
0
6
CONTINUOUS
10
1.936482
20
-3.811236
30
0.0
11
1.638054
21
-3.811236
31
0.0
0
LINE
8
0
6
CONTINUOUS
10
1.936482
20
-3.811236
30
0.0
11
2.112257
21
-3.811236
31
0.0
0
LINE
8
0
6
CONTINUOUS
10
1.638054
20
-3.811236
30
0.0
11
1.936482
21
-3.811236
31
0.0
0
LINE
8
0
6
CONTINUOUS
10
1.515401
20
-3.811236
30
0.0
11
1.638054
21
-3.811236
31
0.0
0
LINE
8
0
6
CONTINUOUS
10
1.936482
20
-3.811236
30
0.0
11
1.936482
21
-3.571007
31
0.0
0
LINE
8
0
6
CONTINUOUS
10
2.112257
20
-3.811236
30
0.0
11
1.936482
21
-3.811236
31
0.0
0
LINE
8
0
6
CONTINUOUS
10
2.112257
20
-3.587430
30
0.0
11
2.112257
21
-3.811236
31
0.0
0
LINE
8
0
6
CONTINUOUS
10
2.950711
20
-3.796880
30
0.0
11
2.773150
21
-3.796880
31
0.0
0
LINE
8
0
6
CONTINUOUS
10
3.248904
20
-3.796880
30
0.0
11
2.950711
21
-3.796880
31
0.0
0
LINE
8
0
6
CONTINUOUS
10
3.248904
20
-3.796880
30
0.0
11
3.369539
21
-3.796880
31
0.0
0
LINE
8
0
6
CONTINUOUS
10
2.950711
20
-3.796880
30
0.0
11
3.248904
21
-3.796880
31
0.0
0
LINE
8
0
6
CONTINUOUS
10
2.773150
20
-3.796880
30
0.0
11
2.950711
21
-3.796880
31
0.0
0
LINE
8
0
6
CONTINUOUS
10
3.248904
20
-3.796880
30
0.0
11
3.248904
21
-3.556355
31
0.0
0
LINE
8
0
6
CONTINUOUS
10
3.369539
20
-3.796880
30
0.0
11
3.248904
21
-3.796880
31
0.0
0
LINE
8
0
6
CONTINUOUS
10
3.369539
20
-3.575791
30
0.0
11
3.369539
21
-3.796880
31
0.0
0
LINE
8
0
6
CONTINUOUS
10
4.044662
20
-3.814945
30
0.0
11
4.044662
21
-3.615868
31
0.0
0
LINE
8
0
6
CONTINUOUS
10
4.269166
20
-3.814945
30
0.0
11
4.044662
21
-3.814945
31
0.0
0
LINE
8
0
6
CONTINUOUS
10
4.553749
20
-3.814945
30
0.0
11
4.269166
21
-3.814945
31
0.0
0
LINE
8
0
6
CONTINUOUS
10
4.553749
20
-3.814945
30
0.0
11
4.613831
21
-3.814945
31
0.0
0
LINE
8
0
6
CONTINUOUS
10
4.269166
20
-3.814945
30
0.0
11
4.553749
21
-3.814945
31
0.0
0
LINE
8
0
6
CONTINUOUS
10
4.044662
20
-3.814945
30
0.0
11
4.269166
21
-3.814945
31
0.0
0
LINE
8
0
6
CONTINUOUS
10
4.553749
20
-3.814945
30
0.0
11
4.553749
21
-3.559088
31
0.0
0
LINE
8
0
6
CONTINUOUS
10
4.613831
20
-3.814945
30
0.0
11
4.553749
21
-3.814945
31
0.0
0
LINE
8
0
6
CONTINUOUS
10
4.613831
20
-3.584791
30
0.0
11
4.613831
21
-3.814945
31
0.0
0
LINE
8
0
6
CONTINUOUS
10
5.000060
20
-3.809600
30
0.0
11
5.000060
21
-3.636507
31
0.0
0
LINE
8
0
6
CONTINUOUS
10
5.003227
20
-3.809600
30
0.0
11
5.003227
21
-3.617830
31
0.0
0
LINE
8
0
6
CONTINUOUS
10
5.264604
20
-3.809600
30
0.0
11
5.003227
21
-3.809600
31
0.0
0
LINE
8
0
6
CONTINUOUS
10
5.264604
20
-3.809600
30
0.0
11
5.264604
21
-3.743722
31
0.0
0
LINE
8
0
6
CONTINUOUS
10
5.522813
20
-3.809600
30
0.0
11
5.264604
21
-3.809600
31
0.0
0
LINE
8
0
6
CONTINUOUS
10
5.264604
20
-3.809600
30
0.0
11
5.522813
21
-3.809600
31
0.0
0
LINE
8
0
6
CONTINUOUS
10
5.003227
20
-3.809600
30
0.0
11
5.264604
21
-3.809600
31
0.0
0
LINE
8
0
6
CONTINUOUS
10
5.522813
20
-3.809600
30
0.0
11
5.522813
21
-3.713856
31
0.0
0
LINE
8
0
6
CONTINUOUS
10
5.671178
20
-3.813969
30
0.0
11
5.671178
21
-3.696696
31
0.0
0
LINE
8
0
6
CONTINUOUS
10
5.743759
20
-3.813969
30
0.0
11
5.671178
21
-3.813969
31
0.0
0
LINE
8
0
6
CONTINUOUS
10
5.743759
20
-3.813969
30
0.0
11
5.743759
21
-3.615427
31
0.0
0
LINE
8
0
6
CONTINUOUS
10
6.032139
20
-3.813969
30
0.0
11
5.743759
21
-3.813969
31
0.0
0
LINE
8
0
6
CONTINUOUS
10
6.032139
20
-3.813969
30
0.0
11
6.032139
21
-3.576498
31
0.0
0
LINE
8
0
6
CONTINUOUS
10
6.247936
20
-3.813969
30
0.0
11
6.032139
21
-3.813969
31
0.0
0
LINE
8
0
6
CONTINUOUS
10
6.032139
20
-3.813969
30
0.0
11
6.247936
21
-3.813969
31
0.0
0
LINE
8
0
6
CONTINUOUS
10
5.743759
20
-3.813969
30
0.0
11
6.032139
21
-3.813969
31
0.0
0
LINE
8
0
6
CONTINUOUS
10
5.671178
20
-3.813969
30
0.0
11
5.743759
21
-3.813969
31
0.0
0
LINE
8
0
6
CONTINUOUS
10
6.247936
20
-3.813969
30
0.0
11
6.247936
21
-3.629986
31
0.0
0
LINE
8
0
6
CONTINUOUS
10
6.136526
20
-3.815486
30
0.0
11
6.004270
21
-3.815486
31
0.0
0
LINE
8
0
6
CONTINUOUS
10
6.435852
20
-3.815486
30
0.0
11
6.136526
21
-3.815486
31
0.0
0
LINE
8
0
6
CONTINUOUS
10
6.602921
20
-3.815486
30
0.0
11
6.435852
21
-3.815486
31
0.0
0
LINE
8
0
6
CONTINUOUS
10
6.435852
20
-3.815486
30
0.0
11
6.602921
21
-3.815486
31
0.0
0
LINE
8
0
6
CONTINUOUS
10
6.136526
20
-3.815486
30
0.0
11
6.435852
21
-3.815486
31
0.0
0
LINE
8
0
6
CONTINUOUS
10
6.004270
20
-3.815486
30
0.0
11
6.136526
21
-3.815486
31
0.0
0
LINE
8
0
6
CONTINUOUS
10
-3.096024
20
-4.095604
30
0.0
11
-3.115910
21
-4.095604
31
0.0
0
LINE
8
0
6
CONTINUOUS
10
-3.096024
20
-4.095604
30
0.0
11
-3.096024
21
-3.916106
31
0.0
0
LINE
8
0
6
CONTINUOUS
10
-3.115910
20
-4.095604
30
0.0
11
-3.096024
21
-4.095604
31
0.0
0
LINE
8
0
6
CONTINUOUS
10
-3.253792
20
-4.095604
30
0.0
11
-3.115910
21
-4.095604
31
0.0
0
LINE
8
0
6
CONTINUOUS
10
-3.371788
20
-4.095604
30
0.0
11
-3.253792
21
-4.095604
31
0.0
0
LINE
8
0
6
CONTINUOUS
10
-3.115910
20
-4.095604
30
0.0
11
-3.253792
21
-4.095604
31
0.0
0
LINE
8
0
6
CONTINUOUS
10
-3.115910
20
-3.914688
30
0.0
11
-3.115910
21
-4.095604
31
0.0
0
LINE
8
0
6
CONTINUOUS
10
-3.253792
20
-4.095604
30
0.0
11
-3.371788
21
-4.095604
31
0.0
0
LINE
8
0
6
CONTINUOUS
10
-2.187145
20
-4.114073
30
0.0
11
-2.207031
21
-4.114073
31
0.0
0
LINE
8
0
6
CONTINUOUS
10
-2.207031
20
-4.114073
30
0.0
11
-2.187145
21
-4.114073
31
0.0
0
LINE
8
0
6
CONTINUOUS
10
-2.344913
20
-4.114073
30
0.0
11
-2.207031
21
-4.114073
31
0.0
0
LINE
8
0
6
CONTINUOUS
10
-2.462909
20
-4.114073
30
0.0
11
-2.344913
21
-4.114073
31
0.0
0
LINE
8
0
6
CONTINUOUS
10
-2.207031
20
-4.114073
30
0.0
11
-2.344913
21
-4.114073
31
0.0
0
LINE
8
0
6
CONTINUOUS
10
-2.462909
20
-4.114073
30
0.0
11
-2.462909
21
-3.897796
31
0.0
0
LINE
8
0
6
CONTINUOUS
10
-2.344913
20
-4.114073
30
0.0
11
-2.462909
21
-4.114073
31
0.0
0
LINE
8
0
6
CONTINUOUS
10
-2.344913
20
-3.895031
30
0.0
11
-2.344913
21
-4.114073
31
0.0
0
LINE
8
0
6
CONTINUOUS
10
-0.732939
20
-4.098490
30
0.0
11
-0.752825
21
-4.098490
31
0.0
0
LINE
8
0
6
CONTINUOUS
10
-0.732939
20
-4.098490
30
0.0
11
-0.732939
21
-3.896094
31
0.0
0
LINE
8
0
6
CONTINUOUS
10
-0.752825
20
-4.098490
30
0.0
11
-0.732939
21
-4.098490
31
0.0
0
LINE
8
0
6
CONTINUOUS
10
-0.890707
20
-4.098490
30
0.0
11
-0.752825
21
-4.098490
31
0.0
0
LINE
8
0
6
CONTINUOUS
10
-1.008703
20
-4.098490
30
0.0
11
-0.890707
21
-4.098490
31
0.0
0
LINE
8
0
6
CONTINUOUS
10
-0.752825
20
-4.098490
30
0.0
11
-0.890707
21
-4.098490
31
0.0
0
LINE
8
0
6
CONTINUOUS
10
-0.752825
20
-3.885779
30
0.0
11
-0.752825
21
-4.098490
31
0.0
0
LINE
8
0
6
CONTINUOUS
10
-1.008703
20
-4.098490
30
0.0
11
-1.008703
21
-3.882474
31
0.0
0
LINE
8
0
6
CONTINUOUS
10
-0.890707
20
-4.098490
30
0.0
11
-1.008703
21
-4.098490
31
0.0
0
LINE
8
0
6
CONTINUOUS
10
-0.890707
20
-3.878969
30
0.0
11
-0.890707
21
-4.098490
31
0.0
0
LINE
8
0
6
CONTINUOUS
10
0.944991
20
-4.095701
30
0.0
11
0.925105
21
-4.095701
31
0.0
0
LINE
8
0
6
CONTINUOUS
10
0.944991
20
-4.095701
30
0.0
11
0.944991
21
-3.886975
31
0.0
0
LINE
8
0
6
CONTINUOUS
10
0.925105
20
-4.095701
30
0.0
11
0.944991
21
-4.095701
31
0.0
0
LINE
8
0
6
CONTINUOUS
10
0.787223
20
-4.095701
30
0.0
11
0.925105
21
-4.095701
31
0.0
0
LINE
8
0
6
CONTINUOUS
10
0.669227
20
-4.095701
30
0.0
11
0.787223
21
-4.095701
31
0.0
0
LINE
8
0
6
CONTINUOUS
10
0.925105
20
-4.095701
30
0.0
11
0.787223
21
-4.095701
31
0.0
0
LINE
8
0
6
CONTINUOUS
10
0.925105
20
-3.877518
30
0.0
11
0.925105
21
-4.095701
31
0.0
0
LINE
8
0
6
CONTINUOUS
10
0.669227
20
-4.095701
30
0.0
11
0.669227
21
-3.886014
31
0.0
0
LINE
8
0
6
CONTINUOUS
10
0.787223
20
-4.095701
30
0.0
11
0.669227
21
-4.095701
31
0.0
0
LINE
8
0
6
CONTINUOUS
10
0.787223
20
-3.877037
30
0.0
11
0.787223
21
-4.095701
31
0.0
0
LINE
8
0
6
CONTINUOUS
10
2.427162
20
-4.114460
30
0.0
11
2.407277
21
-4.114460
31
0.0
0
LINE
8
0
6
CONTINUOUS
10
2.427162
20
-4.114460
30
0.0
11
2.427162
21
-3.905829
31
0.0
0
LINE
8
0
6
CONTINUOUS
10
2.407277
20
-4.114460
30
0.0
11
2.427162
21
-4.114460
31
0.0
0
LINE
8
0
6
CONTINUOUS
10
2.269395
20
-4.114460
30
0.0
11
2.407277
21
-4.114460
31
0.0
0
LINE
8
0
6
CONTINUOUS
10
2.151398
20
-4.114460
30
0.0
11
2.269395
21
-4.114460
31
0.0
0
LINE
8
0
6
CONTINUOUS
10
2.407277
20
-4.114460
30
0.0
11
2.269395
21
-4.114460
31
0.0
0
LINE
8
0
6
CONTINUOUS
10
2.407277
20
-3.960342
30
0.0
11
2.407277
21
-4.114460
31
0.0
0
LINE
8
0
6
CONTINUOUS
10
2.151398
20
-4.114460
30
0.0
11
2.151398
21
-3.967851
31
0.0
0
LINE
8
0
6
CONTINUOUS
10
2.269395
20
-4.114460
30
0.0
11
2.151398
21
-4.114460
31
0.0
0
LINE
8
0
6
CONTINUOUS
10
2.269395
20
-3.964389
30
0.0
11
2.269395
21
-4.114460
31
0.0
0
LINE
8
0
6
CONTINUOUS
10
3.322058
20
-4.097808
30
0.0
11
3.302173
21
-4.097808
31
0.0
0
LINE
8
0
6
CONTINUOUS
10
3.322058
20
-4.097808
30
0.0
11
3.322058
21
-3.880158
31
0.0
0
LINE
8
0
6
CONTINUOUS
10
3.302173
20
-4.097808
30
0.0
11
3.322058
21
-4.097808
31
0.0
0
LINE
8
0
6
CONTINUOUS
10
3.164291
20
-4.097808
30
0.0
11
3.302173
21
-4.097808
31
0.0
0
LINE
8
0
6
CONTINUOUS
10
3.046295
20
-4.097808
30
0.0
11
3.164291
21
-4.097808
31
0.0
0
LINE
8
0
6
CONTINUOUS
10
3.302173
20
-4.097808
30
0.0
11
3.164291
21
-4.097808
31
0.0
0
LINE
8
0
6
CONTINUOUS
10
3.302173
20
-3.878045
30
0.0
11
3.302173
21
-4.097808
31
0.0
0
LINE
8
0
6
CONTINUOUS
10
3.046295
20
-4.097808
30
0.0
11
3.046295
21
-3.897045
31
0.0
0
LINE
8
0
6
CONTINUOUS
10
3.164291
20
-4.097808
30
0.0
11
3.046295
21
-4.097808
31
0.0
0
LINE
8
0
6
CONTINUOUS
10
3.164291
20
-3.886489
30
0.0
11
3.164291
21
-4.097808
31
0.0
0
LINE
8
0
6
CONTINUOUS
10
2.636904
20
-4.166183
30
0.0
11
2.617018
21
-4.166183
31
0.0
0
LINE
8
0
6
CONTINUOUS
10
2.636904
20
-4.166183
30
0.0
11
2.636904
21
-3.948836
31
0.0
0
LINE
8
0
6
CONTINUOUS
10
2.617018
20
-4.166183
30
0.0
11
2.636904
21
-4.166183
31
0.0
0
LINE
8
0
6
CONTINUOUS
10
2.479136
20
-4.166183
30
0.0
11
2.617018
21
-4.166183
31
0.0
0
LINE
8
0
6
CONTINUOUS
10
2.361140
20
-4.166183
30
0.0
11
2.479136
21
-4.166183
31
0.0
0
LINE
8
0
6
CONTINUOUS
10
2.617018
20
-4.166183
30
0.0
11
2.479136
21
-4.166183
31
0.0
0
LINE
8
0
6
CONTINUOUS
10
2.617018
20
-3.948844
30
0.0
11
2.617018
21
-4.166183
31
0.0
0
LINE
8
0
6
CONTINUOUS
10
2.479136
20
-4.166183
30
0.0
11
2.361140
21
-4.166183
31
0.0
0
LINE
8
0
6
CONTINUOUS
10
2.479136
20
-3.955395
30
0.0
11
2.479136
21
-4.166183
31
0.0
0
LINE
8
0
6
CONTINUOUS
10
1.993697
20
-4.144699
30
0.0
11
1.973812
21
-4.144699
31
0.0
0
LINE
8
0
6
CONTINUOUS
10
1.993697
20
-4.144699
30
0.0
11
1.993697
21
-3.933484
31
0.0
0
LINE
8
0
6
CONTINUOUS
10
1.973812
20
-4.144699
30
0.0
11
1.993697
21
-4.144699
31
0.0
0
LINE
8
0
6
CONTINUOUS
10
1.835930
20
-4.144699
30
0.0
11
1.973812
21
-4.144699
31
0.0
0
LINE
8
0
6
CONTINUOUS
10
1.717933
20
-4.144699
30
0.0
11
1.835930
21
-4.144699
31
0.0
0
LINE
8
0
6
CONTINUOUS
10
1.973812
20
-4.144699
30
0.0
11
1.835930
21
-4.144699
31
0.0
0
LINE
8
0
6
CONTINUOUS
10
1.973812
20
-3.930677
30
0.0
11
1.973812
21
-4.144699
31
0.0
0
LINE
8
0
6
CONTINUOUS
10
1.717933
20
-4.144699
30
0.0
11
1.717933
21
-3.937503
31
0.0
0
LINE
8
0
6
CONTINUOUS
10
1.835930
20
-4.144699
30
0.0
11
1.717933
21
-4.144699
31
0.0
0
LINE
8
0
6
CONTINUOUS
10
1.835930
20
-3.932686
30
0.0
11
1.835930
21
-4.144699
31
0.0
0
LINE
8
0
6
CONTINUOUS
10
0.539491
20
-4.155345
30
0.0
11
0.519605
21
-4.155345
31
0.0
0
LINE
8
0
6
CONTINUOUS
10
0.539491
20
-4.155345
30
0.0
11
0.539491
21
-4.015155
31
0.0
0
LINE
8
0
6
CONTINUOUS
10
0.519605
20
-4.155345
30
0.0
11
0.539491
21
-4.155345
31
0.0
0
LINE
8
0
6
CONTINUOUS
10
0.381724
20
-4.155345
30
0.0
11
0.519605
21
-4.155345
31
0.0
0
LINE
8
0
6
CONTINUOUS
10
0.263727
20
-4.155345
30
0.0
11
0.381724
21
-4.155345
31
0.0
0
LINE
8
0
6
CONTINUOUS
10
0.519605
20
-4.155345
30
0.0
11
0.381724
21
-4.155345
31
0.0
0
LINE
8
0
6
CONTINUOUS
10
0.519605
20
-4.015738
30
0.0
11
0.519605
21
-4.155345
31
0.0
0
LINE
8
0
6
CONTINUOUS
10
0.263727
20
-4.155345
30
0.0
11
0.263727
21
-4.023248
31
0.0
0
LINE
8
0
6
CONTINUOUS
10
0.381724
20
-4.155345
30
0.0
11
0.263727
21
-4.155345
31
0.0
0
LINE
8
0
6
CONTINUOUS
10
0.381724
20
-4.019785
30
0.0
11
0.381724
21
-4.155345
31
0.0
0
LINE
8
0
6
CONTINUOUS
10
-1.166405
20
-4.148475
30
0.0
11
-1.186290
21
-4.148475
31
0.0
0
LINE
8
0
6
CONTINUOUS
10
-1.166405
20
-4.148475
30
0.0
11
-1.166405
21
-3.946405
31
0.0
0
LINE
8
0
6
CONTINUOUS
10
-1.186290
20
-4.148475
30
0.0
11
-1.166405
21
-4.148475
31
0.0
0
LINE
8
0
6
CONTINUOUS
10
-1.324172
20
-4.148475
30
0.0
11
-1.186290
21
-4.148475
31
0.0
0
LINE
8
0
6
CONTINUOUS
10
-1.442168
20
-4.148475
30
0.0
11
-1.324172
21
-4.148475
31
0.0
0
LINE
8
0
6
CONTINUOUS
10
-1.186290
20
-4.148475
30
0.0
11
-1.324172
21
-4.148475
31
0.0
0
LINE
8
0
6
CONTINUOUS
10
-1.186290
20
-3.939623
30
0.0
11
-1.186290
21
-4.148475
31
0.0
0
LINE
8
0
6
CONTINUOUS
10
-1.442168
20
-4.148475
30
0.0
11
-1.442168
21
-3.988817
31
0.0
0
LINE
8
0
6
CONTINUOUS
10
-1.324172
20
-4.148475
30
0.0
11
-1.442168
21
-4.148475
31
0.0
0
LINE
8
0
6
CONTINUOUS
10
-1.324172
20
-3.934141
30
0.0
11
-1.324172
21
-4.148475
31
0.0
0
LINE
8
0
6
CONTINUOUS
10
-2.206712
20
-4.150844
30
0.0
11
-2.226599
21
-4.150844
31
0.0
0
LINE
8
0
6
CONTINUOUS
10
-2.226599
20
-4.150844
30
0.0
11
-2.206712
21
-4.150844
31
0.0
0
LINE
8
0
6
CONTINUOUS
10
-2.364480
20
-4.150844
30
0.0
11
-2.226599
21
-4.150844
31
0.0
0
LINE
8
0
6
CONTINUOUS
10
-2.482476
20
-4.150844
30
0.0
11
-2.364480
21
-4.150844
31
0.0
0
LINE
8
0
6
CONTINUOUS
10
-2.226599
20
-4.150844
30
0.0
11
-2.364480
21
-4.150844
31
0.0
0
LINE
8
0
6
CONTINUOUS
10
-2.482476
20
-4.150844
30
0.0
11
-2.482476
21
-3.936317
31
0.0
0
LINE
8
0
6
CONTINUOUS
10
-2.364480
20
-4.150844
30
0.0
11
-2.482476
21
-4.150844
31
0.0
0
LINE
8
0
6
CONTINUOUS
10
6.670539
20
-3.596532
30
0.0
11
6.657870
21
-3.596532
31
0.0
0
LINE
8
0
6
CONTINUOUS
10
6.670539
20
-3.596532
30
0.0
11
6.752856
21
-3.596532
31
0.0
0
LINE
8
0
6
CONTINUOUS
10
6.657870
20
-3.596532
30
0.0
11
6.670539
21
-3.596532
31
0.0
0
LINE
8
0
6
CONTINUOUS
10
6.670539
20
-3.596532
30
0.0
11
6.670539
21
-3.583385
31
0.0
0
LINE
8
0
6
CONTINUOUS
10
6.752856
20
-3.596532
30
0.0
11
6.670539
21
-3.596532
31
0.0
0
LINE
8
0
6
CONTINUOUS
10
-8.176807
20
-3.593152
30
0.0
11
-8.336155
21
-3.593152
31
0.0
0
LINE
8
0
6
CONTINUOUS
10
-8.336155
20
-3.593152
30
0.0
11
-8.416855
21
-3.593152
31
0.0
0
LINE
8
0
6
CONTINUOUS
10
-8.336155
20
-3.352353
30
0.0
11
-8.336155
21
-3.593152
31
0.0
0
LINE
8
0
6
CONTINUOUS
10
-8.336155
20
-3.593152
30
0.0
11
-8.176807
21
-3.593152
31
0.0
0
LINE
8
0
6
CONTINUOUS
10
-8.416855
20
-3.593152
30
0.0
11
-8.336155
21
-3.593152
31
0.0
0
LINE
8
0
6
CONTINUOUS
10
-8.416855
20
-3.344587
30
0.0
11
-8.416855
21
-3.593152
31
0.0
0
LINE
8
0
6
CONTINUOUS
10
7.919181
20
-3.589685
30
0.0
11
7.752113
21
-3.589685
31
0.0
0
LINE
8
0
6
CONTINUOUS
10
8.218510
20
-3.589685
30
0.0
11
8.350763
21
-3.589685
31
0.0
0
LINE
8
0
6
CONTINUOUS
10
7.919181
20
-3.589685
30
0.0
11
8.218510
21
-3.589685
31
0.0
0
LINE
8
0
6
CONTINUOUS
10
7.752113
20
-3.589685
30
0.0
11
7.919181
21
-3.589685
31
0.0
0
LINE
8
0
6
CONTINUOUS
10
7.919181
20
-3.589685
30
0.0
11
7.919181
21
-3.585436
31
0.0
0
LINE
8
0
6
CONTINUOUS
10
8.218510
20
-3.589685
30
0.0
11
7.919181
21
-3.589685
31
0.0
0
LINE
8
0
6
CONTINUOUS
10
8.218510
20
-3.589685
30
0.0
11
8.218510
21
-3.585436
31
0.0
0
LINE
8
0
6
CONTINUOUS
10
8.350763
20
-3.589685
30
0.0
11
8.218510
21
-3.589685
31
0.0
0
LINE
8
0
6
CONTINUOUS
10
7.508975
20
-3.593749
30
0.0
11
7.499019
21
-3.593749
31
0.0
0
LINE
8
0
6
CONTINUOUS
10
7.797355
20
-3.593749
30
0.0
11
7.869935
21
-3.593749
31
0.0
0
LINE
8
0
6
CONTINUOUS
10
7.508975
20
-3.593749
30
0.0
11
7.797355
21
-3.593749
31
0.0
0
LINE
8
0
6
CONTINUOUS
10
7.499019
20
-3.593749
30
0.0
11
7.508975
21
-3.593749
31
0.0
0
LINE
8
0
6
CONTINUOUS
10
7.508975
20
-3.593749
30
0.0
11
7.508975
21
-3.581965
31
0.0
0
LINE
8
0
6
CONTINUOUS
10
7.797355
20
-3.593749
30
0.0
11
7.508975
21
-3.593749
31
0.0
0
LINE
8
0
6
CONTINUOUS
10
7.797355
20
-3.593749
30
0.0
11
7.797355
21
-3.589685
31
0.0
0
LINE
8
0
6
CONTINUOUS
10
7.869935
20
-3.593749
30
0.0
11
7.797355
21
-3.593749
31
0.0
0
LINE
8
0
6
CONTINUOUS
10
6.926843
20
-3.715070
30
0.0
11
6.752856
21
-3.715070
31
0.0
0
LINE
8
0
6
CONTINUOUS
10
6.926843
20
-3.715070
30
0.0
11
6.979414
21
-3.715070
31
0.0
0
LINE
8
0
6
CONTINUOUS
10
6.752856
20
-3.715070
30
0.0
11
6.926843
21
-3.715070
31
0.0
0
LINE
8
0
6
CONTINUOUS
10
6.979414
20
-3.715070
30
0.0
11
6.926843
21
-3.715070
31
0.0
0
LINE
8
0
6
CONTINUOUS
10
3.917186
20
-3.910222
30
0.0
11
3.909466
21
-3.910222
31
0.0
0
LINE
8
0
6
CONTINUOUS
10
3.909466
20
-3.910222
30
0.0
11
3.917186
21
-3.910222
31
0.0
0
LINE
8
0
6
CONTINUOUS
10
-5.394387
20
-3.914064
30
0.0
11
-5.525624
21
-3.914064
31
0.0
0
LINE
8
0
6
CONTINUOUS
10
-5.525624
20
-3.914064
30
0.0
11
-5.725850
21
-3.914064
31
0.0
0
LINE
8
0
6
CONTINUOUS
10
-5.725850
20
-3.914064
30
0.0
11
-5.794835
21
-3.914064
31
0.0
0
LINE
8
0
6
CONTINUOUS
10
-5.525624
20
-3.914064
30
0.0
11
-5.394387
21
-3.914064
31
0.0
0
LINE
8
0
6
CONTINUOUS
10
-5.725850
20
-3.914064
30
0.0
11
-5.525624
21
-3.914064
31
0.0
0
LINE
8
0
6
CONTINUOUS
10
-5.794835
20
-3.914064
30
0.0
11
-5.725850
21
-3.914064
31
0.0
0
LINE
8
0
6
CONTINUOUS
10
5.299751
20
-3.904000
30
0.0
11
5.229838
21
-3.904000
31
0.0
0
LINE
8
0
6
CONTINUOUS
10
5.229838
20
-3.904000
30
0.0
11
5.299751
21
-3.904000
31
0.0
0
LINE
8
0
6
CONTINUOUS
10
3.909466
20
-3.995289
30
0.0
11
3.842347
21
-3.995289
31
0.0
0
LINE
8
0
6
CONTINUOUS
10
3.842347
20
-3.995289
30
0.0
11
3.909466
21
-3.995289
31
0.0
0
LINE
8
0
6
CONTINUOUS
10
1.392510
20
-4.043903
30
0.0
11
1.231482
21
-4.043903
31
0.0
0
LINE
8
0
6
CONTINUOUS
10
1.231482
20
-4.043903
30
0.0
11
1.043317
21
-4.043903
31
0.0
0
LINE
8
0
6
CONTINUOUS
10
1.043317
20
-4.043903
30
0.0
11
1.016180
21
-4.043903
31
0.0
0
LINE
8
0
6
CONTINUOUS
10
1.231482
20
-4.043903
30
0.0
11
1.392510
21
-4.043903
31
0.0
0
LINE
8
0
6
CONTINUOUS
10
1.043317
20
-4.043903
30
0.0
11
1.231482
21
-4.043903
31
0.0
0
LINE
8
0
6
CONTINUOUS
10
1.016180
20
-4.043903
30
0.0
11
1.043317
21
-4.043903
31
0.0
0
LINE
8
0
6
CONTINUOUS
10
2.818785
20
-4.049081
30
0.0
11
2.657757
21
-4.049081
31
0.0
0
LINE
8
0
6
CONTINUOUS
10
2.657757
20
-4.049081
30
0.0
11
2.636904
21
-4.049081
31
0.0
0
LINE
8
0
6
CONTINUOUS
10
2.657757
20
-4.049081
30
0.0
11
2.818785
21
-4.049081
31
0.0
0
LINE
8
0
6
CONTINUOUS
10
2.636904
20
-4.049081
30
0.0
11
2.657757
21
-4.049081
31
0.0
0
LINE
8
0
6
CONTINUOUS
10
3.842347
20
-4.047154
30
0.0
11
3.681319
21
-4.047154
31
0.0
0
LINE
8
0
6
CONTINUOUS
10
3.681319
20
-4.047154
30
0.0
11
3.493154
21
-4.047154
31
0.0
0
LINE
8
0
6
CONTINUOUS
10
3.493154
20
-4.047154
30
0.0
11
3.466017
21
-4.047154
31
0.0
0
LINE
8
0
6
CONTINUOUS
10
3.681319
20
-4.047154
30
0.0
11
3.842347
21
-4.047154
31
0.0
0
LINE
8
0
6
CONTINUOUS
10
3.493154
20
-4.047154
30
0.0
11
3.681319
21
-4.047154
31
0.0
0
LINE
8
0
6
CONTINUOUS
10
3.466017
20
-4.047154
30
0.0
11
3.493154
21
-4.047154
31
0.0
0
LINE
8
0
6
CONTINUOUS
10
-6.140944
20
-3.817134
30
0.0
11
-6.350822
21
-3.817134
31
0.0
0
LINE
8
0
6
CONTINUOUS
10
-6.350822
20
-3.817134
30
0.0
11
-6.641405
21
-3.817134
31
0.0
0
LINE
8
0
6
CONTINUOUS
10
-6.641405
20
-3.817134
30
0.0
11
-6.722106
21
-3.817134
31
0.0
0
LINE
8
0
6
CONTINUOUS
10
-6.350822
20
-3.817134
30
0.0
11
-6.140944
21
-3.817134
31
0.0
0
LINE
8
0
6
CONTINUOUS
10
-6.641405
20
-3.817134
30
0.0
11
-6.350822
21
-3.817134
31
0.0
0
LINE
8
0
6
CONTINUOUS
10
-6.722106
20
-3.817134
30
0.0
11
-6.641405
21
-3.817134
31
0.0
0
LINE
8
0
6
CONTINUOUS
10
5.229838
20
-3.816219
30
0.0
11
5.000060
21
-3.816219
31
0.0
0
LINE
8
0
6
CONTINUOUS
10
5.000060
20
-3.816219
30
0.0
11
5.229838
21
-3.816219
31
0.0
0
LINE
8
0
6
CONTINUOUS
10
5.886975
20
-3.815913
30
0.0
11
5.681532
21
-3.815913
31
0.0
0
LINE
8
0
6
CONTINUOUS
10
5.886975
20
-3.815913
30
0.0
11
6.004270
21
-3.815913
31
0.0
0
LINE
8
0
6
CONTINUOUS
10
5.681532
20
-3.815913
30
0.0
11
5.886975
21
-3.815913
31
0.0
0
LINE
8
0
6
CONTINUOUS
10
6.004270
20
-3.815913
30
0.0
11
5.886975
21
-3.815913
31
0.0
0
LINE
8
0
6
CONTINUOUS
10
6.171338
20
-3.817614
30
0.0
11
6.004270
21
-3.817614
31
0.0
0
LINE
8
0
6
CONTINUOUS
10
6.470665
20
-3.817614
30
0.0
11
6.602921
21
-3.817614
31
0.0
0
LINE
8
0
6
CONTINUOUS
10
6.171338
20
-3.817614
30
0.0
11
6.470665
21
-3.817614
31
0.0
0
LINE
8
0
6
CONTINUOUS
10
6.004270
20
-3.817614
30
0.0
11
6.171338
21
-3.817614
31
0.0
0
LINE
8
0
6
CONTINUOUS
10
6.470665
20
-3.817614
30
0.0
11
6.171338
21
-3.817614
31
0.0
0
LINE
8
0
6
CONTINUOUS
10
6.602921
20
-3.817614
30
0.0
11
6.470665
21
-3.817614
31
0.0
0
LINE
8
0
6
CONTINUOUS
10
5.456079
20
-3.925790
30
0.0
11
5.299751
21
-3.925790
31
0.0
0
LINE
8
0
6
CONTINUOUS
10
5.646970
20
-3.925790
30
0.0
11
5.681532
21
-3.925790
31
0.0
0
LINE
8
0
6
CONTINUOUS
10
5.456079
20
-3.925790
30
0.0
11
5.646970
21
-3.925790
31
0.0
0
LINE
8
0
6
CONTINUOUS
10
5.299751
20
-3.925790
30
0.0
11
5.456079
21
-3.925790
31
0.0
0
LINE
8
0
6
CONTINUOUS
10
5.456079
20
-3.925790
30
0.0
11
5.456079
21
-3.904000
31
0.0
0
LINE
8
0
6
CONTINUOUS
10
5.646970
20
-3.925790
30
0.0
11
5.456079
21
-3.925790
31
0.0
0
LINE
8
0
6
CONTINUOUS
10
5.646970
20
-3.925790
30
0.0
11
5.646970
21
-3.700892
31
0.0
0
LINE
8
0
6
CONTINUOUS
10
5.681532
20
-3.925790
30
0.0
11
5.646970
21
-3.925790
31
0.0
0
LINE
8
0
6
CONTINUOUS
10
0.944991
20
-4.097658
30
0.0
11
0.826994
21
-4.097658
31
0.0
0
LINE
8
0
6
CONTINUOUS
10
0.826994
20
-4.097658
30
0.0
11
0.689112
21
-4.097658
31
0.0
0
LINE
8
0
6
CONTINUOUS
10
0.689112
20
-4.097658
30
0.0
11
0.669227
21
-4.097658
31
0.0
0
LINE
8
0
6
CONTINUOUS
10
0.826994
20
-4.097658
30
0.0
11
0.944991
21
-4.097658
31
0.0
0
LINE
8
0
6
CONTINUOUS
10
0.689112
20
-4.097658
30
0.0
11
0.826994
21
-4.097658
31
0.0
0
LINE
8
0
6
CONTINUOUS
10
0.669227
20
-4.097658
30
0.0
11
0.689112
21
-4.097658
31
0.0
0
LINE
8
0
6
CONTINUOUS
10
3.322058
20
-4.099269
30
0.0
11
3.204062
21
-4.099269
31
0.0
0
LINE
8
0
6
CONTINUOUS
10
3.204062
20
-4.099269
30
0.0
11
3.066180
21
-4.099269
31
0.0
0
LINE
8
0
6
CONTINUOUS
10
3.066180
20
-4.099269
30
0.0
11
3.046295
21
-4.099269
31
0.0
0
LINE
8
0
6
CONTINUOUS
10
3.204062
20
-4.099269
30
0.0
11
3.322058
21
-4.099269
31
0.0
0
LINE
8
0
6
CONTINUOUS
10
3.066180
20
-4.099269
30
0.0
11
3.204062
21
-4.099269
31
0.0
0
LINE
8
0
6
CONTINUOUS
10
3.046295
20
-4.099269
30
0.0
11
3.066180
21
-4.099269
31
0.0
0
LINE
8
0
6
CONTINUOUS
10
1.993697
20
-4.147739
30
0.0
11
1.875700
21
-4.147739
31
0.0
0
LINE
8
0
6
CONTINUOUS
10
1.875700
20
-4.147739
30
0.0
11
1.737819
21
-4.147739
31
0.0
0
LINE
8
0
6
CONTINUOUS
10
1.737819
20
-4.147739
30
0.0
11
1.717933
21
-4.147739
31
0.0
0
LINE
8
0
6
CONTINUOUS
10
1.875700
20
-4.147739
30
0.0
11
1.993697
21
-4.147739
31
0.0
0
LINE
8
0
6
CONTINUOUS
10
1.737819
20
-4.147739
30
0.0
11
1.875700
21
-4.147739
31
0.0
0
LINE
8
0
6
CONTINUOUS
10
1.717933
20
-4.147739
30
0.0
11
1.737819
21
-4.147739
31
0.0
0
LINE
8
0
6
CONTINUOUS
10
6.412330
20
-3.583385
30
0.0
11
6.412330
21
-3.421800
31
0.0
0
LINE
8
0
6
CONTINUOUS
10
6.415496
20
-3.583385
30
0.0
11
6.415496
21
-3.392870
31
0.0
0
LINE
8
0
6
CONTINUOUS
10
6.676873
20
-3.583385
30
0.0
11
6.415496
21
-3.583385
31
0.0
0
LINE
8
0
6
CONTINUOUS
10
6.676873
20
-3.583385
30
0.0
11
6.676873
21
-3.351020
31
0.0
0
LINE
8
0
6
CONTINUOUS
10
6.935082
20
-3.583385
30
0.0
11
6.676873
21
-3.583385
31
0.0
0
LINE
8
0
6
CONTINUOUS
10
6.676873
20
-3.583385
30
0.0
11
6.935082
21
-3.583385
31
0.0
0
LINE
8
0
6
CONTINUOUS
10
6.415496
20
-3.583385
30
0.0
11
6.676873
21
-3.583385
31
0.0
0
LINE
8
0
6
CONTINUOUS
10
6.935082
20
-3.583385
30
0.0
11
6.935082
21
-3.334042
31
0.0
0
LINE
8
0
6
CONTINUOUS
10
-1.724912
20
-3.588683
30
0.0
11
-1.724912
21
-3.354998
31
0.0
0
LINE
8
0
6
CONTINUOUS
10
-1.468905
20
-3.588683
30
0.0
11
-1.724912
21
-3.588683
31
0.0
0
LINE
8
0
6
CONTINUOUS
10
-1.205456
20
-3.588683
30
0.0
11
-1.198015
21
-3.588683
31
0.0
0
LINE
8
0
6
CONTINUOUS
10
-1.468905
20
-3.588683
30
0.0
11
-1.205456
21
-3.588683
31
0.0
0
LINE
8
0
6
CONTINUOUS
10
-1.724912
20
-3.588683
30
0.0
11
-1.468905
21
-3.588683
31
0.0
0
LINE
8
0
6
CONTINUOUS
10
-1.198015
20
-3.588683
30
0.0
11
-1.205456
21
-3.588683
31
0.0
0
LINE
8
0
6
CONTINUOUS
10
-1.198015
20
-3.403956
30
0.0
11
-1.198015
21
-3.588683
31
0.0
0
LINE
8
0
6
CONTINUOUS
10
-1.468905
20
-3.588683
30
0.0
11
-1.468905
21
-3.339779
31
0.0
0
LINE
8
0
6
CONTINUOUS
10
-1.205456
20
-3.588683
30
0.0
11
-1.468905
21
-3.588683
31
0.0
0
LINE
8
0
6
CONTINUOUS
10
-1.205456
20
-3.363584
30
0.0
11
-1.205456
21
-3.588683
31
0.0
0
LINE
8
0
6
CONTINUOUS
10
0.669227
20
-4.034075
30
0.0
11
0.539491
21
-4.034075
31
0.0
0
LINE
8
0
6
CONTINUOUS
10
0.263727
20
-4.034075
30
0.0
11
0.006085
21
-4.034075
31
0.0
0
LINE
8
0
6
CONTINUOUS
10
0.006085
20
-4.034075
30
0.0
11
-0.302240
21
-4.034075
31
0.0
0
LINE
8
0
6
CONTINUOUS
10
-0.678570
20
-4.034075
30
0.0
11
-0.703329
21
-4.034075
31
0.0
0
LINE
8
0
6
CONTINUOUS
10
-0.703329
20
-4.034075
30
0.0
11
-0.732939
21
-4.034075
31
0.0
0
LINE
8
0
6
CONTINUOUS
10
-1.008703
20
-4.034075
30
0.0
11
-1.166405
21
-4.034075
31
0.0
0
LINE
8
0
6
CONTINUOUS
10
1.424913
20
-4.034075
30
0.0
11
1.392510
21
-4.034075
31
0.0
0
LINE
8
0
6
CONTINUOUS
10
1.424913
20
-3.989171
30
0.0
11
1.424913
21
-4.034075
31
0.0
0
LINE
8
0
6
CONTINUOUS
10
1.016180
20
-4.034075
30
0.0
11
0.944991
21
-4.034075
31
0.0
0
LINE
8
0
6
CONTINUOUS
10
-0.703329
20
-4.034075
30
0.0
11
-0.732939
21
-4.034075
31
0.0
0
LINE
8
0
6
CONTINUOUS
10
-1.008703
20
-4.034075
30
0.0
11
-1.166405
21
-4.034075
31
0.0
0
LINE
8
0
6
CONTINUOUS
10
0.006085
20
-4.034075
30
0.0
11
-0.302240
21
-4.034075
31
0.0
0
LINE
8
0
6
CONTINUOUS
10
-0.678570
20
-4.034075
30
0.0
11
-0.703329
21
-4.034075
31
0.0
0
LINE
8
0
6
CONTINUOUS
10
0.669227
20
-4.034075
30
0.0
11
0.539491
21
-4.034075
31
0.0
0
LINE
8
0
6
CONTINUOUS
10
0.263727
20
-4.034075
30
0.0
11
0.006085
21
-4.034075
31
0.0
0
LINE
8
0
6
CONTINUOUS
10
1.016180
20
-4.034075
30
0.0
11
0.944991
21
-4.034075
31
0.0
0
LINE
8
0
6
CONTINUOUS
10
1.424913
20
-4.034075
30
0.0
11
1.392510
21
-4.034075
31
0.0
0
LINE
8
0
6
CONTINUOUS
10
8.789053
20
-3.267364
30
0.0
11
8.977863
21
-3.267365
31
0.0
0
LINE
8
0
6
CONTINUOUS
10
8.350763
20
-3.353813
30
0.0
11
8.977863
21
-3.267365
31
0.0
0
LINE
8
0
6
CONTINUOUS
10
5.000060
20
-3.774320
30
0.0
11
4.944818
21
-3.780709
31
0.0
0
LINE
8
0
6
CONTINUOUS
10
4.288222
20
-3.831121
30
0.0
11
4.278397
21
-3.831821
31
0.0
0
LINE
8
0
6
CONTINUOUS
10
3.466017
20
-3.889732
30
0.0
11
3.322058
21
-3.899995
31
0.0
0
LINE
8
0
6
CONTINUOUS
10
3.046295
20
-3.919653
30
0.0
11
2.818785
21
-3.935871
31
0.0
0
LINE
8
0
6
CONTINUOUS
10
2.039742
20
-3.971128
30
0.0
11
1.993697
21
-3.972479
31
0.0
0
LINE
8
0
6
CONTINUOUS
10
1.717933
20
-3.980572
30
0.0
11
1.424636
21
-3.989179
31
0.0
0
LINE
8
0
6
CONTINUOUS
10
-1.769252
20
-3.979172
30
0.0
11
-1.896312
21
-3.975425
31
0.0
0
LINE
8
0
6
CONTINUOUS
10
-2.482476
20
-3.958140
30
0.0
11
-2.523197
21
-3.956939
31
0.0
0
LINE
8
0
6
CONTINUOUS
10
-2.523197
20
-3.956939
30
0.0
11
-3.020552
21
-3.921486
31
0.0
0
LINE
8
0
6
CONTINUOUS
10
-3.531120
20
-3.885090
30
0.0
11
-3.734025
21
-3.870626
31
0.0
0
LINE
8
0
6
CONTINUOUS
10
-4.487564
20
-3.816911
30
0.0
11
-4.527431
21
-3.814069
31
0.0
0
LINE
8
0
6
CONTINUOUS
10
-8.977863
20
-3.267365
30
0.0
11
-8.821655
21
-3.267364
31
0.0
0
LINE
8
0
6
CONTINUOUS
10
-7.464239
20
-3.476024
30
0.0
11
-7.640091
21
-3.451782
31
0.0
0
LINE
8
0
6
CONTINUOUS
10
-8.415282
20
-3.344919
30
0.0
11
-8.977863
21
-3.267365
31
0.0
0
LINE
8
0
6
CONTINUOUS
10
8.262486
20
-3.267364
30
0.0
11
8.789053
21
-3.267364
31
0.0
0
LINE
8
0
6
CONTINUOUS
10
-8.821655
20
-3.267364
30
0.0
11
-8.326435
21
-3.267364
31
0.0
0
LINE
8
0
6
CONTINUOUS
10
7.418396
20
-3.267364
30
0.0
11
8.262486
21
-3.267364
31
0.0
0
LINE
8
0
6
CONTINUOUS
10
-8.326435
20
-3.267364
30
0.0
11
-7.511238
21
-3.267364
31
0.0
0
LINE
8
0
6
CONTINUOUS
10
6.289220
20
-3.267364
30
0.0
11
7.418396
21
-3.267364
31
0.0
0
LINE
8
0
6
CONTINUOUS
10
4.918353
20
-3.267364
30
0.0
11
6.289220
21
-3.267364
31
0.0
0
LINE
8
0
6
CONTINUOUS
10
3.358478
20
-3.267364
30
0.0
11
4.918353
21
-3.267364
31
0.0
0
LINE
8
0
6
CONTINUOUS
10
1.669538
20
-3.267364
30
0.0
11
3.358478
21
-3.267364
31
0.0
0
LINE
8
0
6
CONTINUOUS
10
-0.083562
20
-3.267364
30
0.0
11
1.669538
21
-3.267364
31
0.0
0
LINE
8
0
6
CONTINUOUS
10
-1.833437
20
-3.267364
30
0.0
11
-0.083562
21
-3.267364
31
0.0
0
LINE
8
0
6
CONTINUOUS
10
-3.512868
20
-3.267364
30
0.0
11
-1.833437
21
-3.267364
31
0.0
0
LINE
8
0
6
CONTINUOUS
10
-5.057302
20
-3.267364
30
0.0
11
-3.512868
21
-3.267364
31
0.0
0
LINE
8
0
6
CONTINUOUS
10
-6.407386
20
-3.267364
30
0.0
11
-5.057302
21
-3.267364
31
0.0
0
LINE
8
0
6
CONTINUOUS
10
-7.511238
20
-3.267364
30
0.0
11
-6.407386
21
-3.267364
31
0.0
0
LINE
8
0
6
CONTINUOUS
10
9.349022
20
-1.240692
30
0.0
11
9.349022
21
-1.115051
31
0.0
0
LINE
8
0
6
CONTINUOUS
10
-9.349022
20
-1.240692
30
0.0
11
-9.349022
21
-1.115051
31
0.0
0
LINE
8
0
6
CONTINUOUS
10
1.738559
20
-1.115051
30
0.0
11
-0.087017
21
-1.115051
31
0.0
0
LINE
8
0
6
CONTINUOUS
10
3.497323
20
-1.115051
30
0.0
11
1.738559
21
-1.115051
31
0.0
0
LINE
8
0
6
CONTINUOUS
10
5.121686
20
-1.115051
30
0.0
11
3.497323
21
-1.115051
31
0.0
0
LINE
8
0
6
CONTINUOUS
10
6.549226
20
-1.115051
30
0.0
11
5.121686
21
-1.115051
31
0.0
0
LINE
8
0
6
CONTINUOUS
10
7.725084
20
-1.115051
30
0.0
11
6.549226
21
-1.115051
31
0.0
0
LINE
8
0
6
CONTINUOUS
10
8.604069
20
-1.115051
30
0.0
11
7.725084
21
-1.115051
31
0.0
0
LINE
8
0
6
CONTINUOUS
10
9.152407
20
-1.115051
30
0.0
11
8.604069
21
-1.115051
31
0.0
0
LINE
8
0
6
CONTINUOUS
10
9.349022
20
-1.115051
30
0.0
11
9.152407
21
-1.115051
31
0.0
0
LINE
8
0
6
CONTINUOUS
10
9.349022
20
-1.115051
30
0.0
11
9.129004
21
-1.094620
31
0.0
0
LINE
8
0
6
CONTINUOUS
10
-9.349022
20
-1.115051
30
0.0
11
-9.129004
21
-1.094620
31
0.0
0
LINE
8
0
6
CONTINUOUS
10
-9.186357
20
-1.115051
30
0.0
11
-9.349022
21
-1.115051
31
0.0
0
LINE
8
0
6
CONTINUOUS
10
-8.670664
20
-1.115051
30
0.0
11
-9.186357
21
-1.115051
31
0.0
0
LINE
8
0
6
CONTINUOUS
10
-7.821764
20
-1.115051
30
0.0
11
-8.670664
21
-1.115051
31
0.0
0
LINE
8
0
6
CONTINUOUS
10
-6.672278
20
-1.115051
30
0.0
11
-7.821764
21
-1.115051
31
0.0
0
LINE
8
0
6
CONTINUOUS
10
-5.266379
20
-1.115051
30
0.0
11
-6.672278
21
-1.115051
31
0.0
0
LINE
8
0
6
CONTINUOUS
10
-3.658096
20
-1.115051
30
0.0
11
-5.266379
21
-1.115051
31
0.0
0
LINE
8
0
6
CONTINUOUS
10
-1.909234
20
-1.115051
30
0.0
11
-3.658096
21
-1.115051
31
0.0
0
LINE
8
0
6
CONTINUOUS
10
-0.087017
20
-1.115051
30
0.0
11
-1.909234
21
-1.115051
31
0.0
0
LINE
8
0
6
CONTINUOUS
10
9.272346
20
-3.199791
30
0.0
11
9.349022
21
-2.975273
31
0.0
0
LINE
8
0
6
CONTINUOUS
10
-9.272346
20
-3.199791
30
0.0
11
-9.349022
21
-2.975273
31
0.0
0
LINE
8
0
6
CONTINUOUS
10
-0.086303
20
-3.199789
30
0.0
11
1.724300
21
-3.199789
31
0.0
0
LINE
8
0
6
CONTINUOUS
10
1.669538
20
-3.267364
30
0.0
11
-0.083562
21
-3.267364
31
0.0
0
LINE
8
0
6
CONTINUOUS
10
1.724300
20
-3.199789
30
0.0
11
3.468640
21
-3.199789
31
0.0
0
LINE
8
0
6
CONTINUOUS
10
3.358478
20
-3.267364
30
0.0
11
1.669538
21
-3.267364
31
0.0
0
LINE
8
0
6
CONTINUOUS
10
3.468640
20
-3.199789
30
0.0
11
5.079681
21
-3.199789
31
0.0
0
LINE
8
0
6
CONTINUOUS
10
4.918353
20
-3.267364
30
0.0
11
3.358478
21
-3.267364
31
0.0
0
LINE
8
0
6
CONTINUOUS
10
5.079681
20
-3.199789
30
0.0
11
6.495514
21
-3.199791
31
0.0
0
LINE
8
0
6
CONTINUOUS
10
6.289220
20
-3.267364
30
0.0
11
4.918353
21
-3.267364
31
0.0
0
LINE
8
0
6
CONTINUOUS
10
6.495514
20
-3.199791
30
0.0
11
7.661728
21
-3.199791
31
0.0
0
LINE
8
0
6
CONTINUOUS
10
7.418396
20
-3.267364
30
0.0
11
6.289220
21
-3.267364
31
0.0
0
LINE
8
0
6
CONTINUOUS
10
7.661728
20
-3.199791
30
0.0
11
8.533504
21
-3.199791
31
0.0
0
LINE
8
0
6
CONTINUOUS
10
8.262486
20
-3.267364
30
0.0
11
7.418396
21
-3.267364
31
0.0
0
LINE
8
0
6
CONTINUOUS
10
8.533504
20
-3.199791
30
0.0
11
9.077345
21
-3.199791
31
0.0
0
LINE
8
0
6
CONTINUOUS
10
8.789053
20
-3.267364
30
0.0
11
8.262486
21
-3.267364
31
0.0
0
LINE
8
0
6
CONTINUOUS
10
9.077345
20
-3.199791
30
0.0
11
9.272346
21
-3.199791
31
0.0
0
LINE
8
0
6
CONTINUOUS
10
8.977863
20
-3.267365
30
0.0
11
8.789053
21
-3.267364
31
0.0
0
LINE
8
0
6
CONTINUOUS
10
8.977863
20
-3.267365
30
0.0
11
9.272346
21
-3.199791
31
0.0
0
LINE
8
0
6
CONTINUOUS
10
-9.272346
20
-3.199791
30
0.0
11
-9.111015
21
-3.199791
31
0.0
0
LINE
8
0
6
CONTINUOUS
10
-8.977863
20
-3.267365
30
0.0
11
-9.272346
21
-3.199791
31
0.0
0
LINE
8
0
6
CONTINUOUS
10
-8.821655
20
-3.267364
30
0.0
11
-8.977863
21
-3.267365
31
0.0
0
LINE
8
0
6
CONTINUOUS
10
-9.111015
20
-3.199791
30
0.0
11
-8.599554
21
-3.199791
31
0.0
0
LINE
8
0
6
CONTINUOUS
10
-8.326435
20
-3.267364
30
0.0
11
-8.821655
21
-3.267364
31
0.0
0
LINE
8
0
6
CONTINUOUS
10
-8.599554
20
-3.199791
30
0.0
11
-7.757615
21
-3.199791
31
0.0
0
LINE
8
0
6
CONTINUOUS
10
-7.511238
20
-3.267364
30
0.0
11
-8.326435
21
-3.267364
31
0.0
0
LINE
8
0
6
CONTINUOUS
10
-7.757615
20
-3.199791
30
0.0
11
-6.617557
21
-3.199791
31
0.0
0
LINE
8
0
6
CONTINUOUS
10
-6.407386
20
-3.267364
30
0.0
11
-7.511238
21
-3.267364
31
0.0
0
LINE
8
0
6
CONTINUOUS
10
-6.617557
20
-3.199791
30
0.0
11
-5.226284
21
-3.199790
31
0.0
0
LINE
8
0
6
CONTINUOUS
10
-5.057302
20
-3.267364
30
0.0
11
-6.407386
21
-3.267364
31
0.0
0
LINE
8
0
6
CONTINUOUS
10
-5.223188
20
-3.199789
30
0.0
11
-3.628095
21
-3.199789
31
0.0
0
LINE
8
0
6
CONTINUOUS
10
-3.512868
20
-3.267364
30
0.0
11
-5.057302
21
-3.267364
31
0.0
0
LINE
8
0
6
CONTINUOUS
10
-3.628095
20
-3.199789
30
0.0
11
-1.893576
21
-3.199789
31
0.0
0
LINE
8
0
6
CONTINUOUS
10
-1.833437
20
-3.267364
30
0.0
11
-3.512868
21
-3.267364
31
0.0
0
LINE
8
0
6
CONTINUOUS
10
-1.893576
20
-3.199789
30
0.0
11
-0.086303
21
-3.199789
31
0.0
0
LINE
8
0
6
CONTINUOUS
10
-0.083562
20
-3.267364
30
0.0
11
-1.833437
21
-3.267364
31
0.0
0
LINE
8
0
6
CONTINUOUS
10
9.349022
20
-2.888543
30
0.0
11
9.349022
21
-1.240692
31
0.0
0
LINE
8
0
6
CONTINUOUS
10
-9.349022
20
-2.888543
30
0.0
11
-9.349022
21
-1.240692
31
0.0
0
LINE
8
0
6
CONTINUOUS
10
9.129004
20
-1.094620
30
0.0
11
1.543780
21
-0.390126
31
0.0
0
LINE
8
0
6
CONTINUOUS
10
-9.129004
20
-1.094620
30
0.0
11
-1.543779
21
-0.390126
31
0.0
0
LINE
8
0
6
CONTINUOUS
10
9.349022
20
-2.975273
30
0.0
11
9.349022
21
-2.888543
31
0.0
0
LINE
8
0
6
CONTINUOUS
10
-9.349022
20
-2.975273
30
0.0
11
-9.349022
21
-2.888543
31
0.0
0
LINE
8
0
6
CONTINUOUS
10
1.127425
20
2.886422
30
0.0
11
1.127425
21
2.926414
31
0.0
0
LINE
8
0
6
CONTINUOUS
10
-1.127418
20
2.926414
30
0.0
11
-1.127418
21
2.886422
31
0.0
0
LINE
8
0
6
CONTINUOUS
10
-0.863106
20
2.149601
30
0.0
11
-1.127418
21
2.886422
31
0.0
0
LINE
8
0
6
CONTINUOUS
10
0.863114
20
2.149601
30
0.0
11
1.127425
21
2.886422
31
0.0
0
LINE
8
0
6
CONTINUOUS
10
1.127423
20
4.102181
30
0.0
11
1.127423
21
4.166168
31
0.0
0
LINE
8
0
6
CONTINUOUS
10
-1.127419
20
4.166168
30
0.0
11
-1.127419
21
4.102181
31
0.0
0
LINE
8
0
6
CONTINUOUS
10
1.127425
20
2.926414
30
0.0
11
1.127423
21
4.102181
31
0.0
0
LINE
8
0
6
CONTINUOUS
10
-1.127419
20
4.102181
30
0.0
11
-1.127418
21
2.926414
31
0.0
0
LINE
8
0
6
CONTINUOUS
10
0.010495
20
4.166168
30
0.0
11
0.572800
21
4.166183
31
0.0
0
LINE
8
0
6
CONTINUOUS
10
0.521497
20
4.166183
30
0.0
11
0.009556
21
4.166168
31
0.0
0
LINE
8
0
6
CONTINUOUS
10
0.572800
20
4.166183
30
0.0
11
0.981624
21
4.166168
31
0.0
0
LINE
8
0
6
CONTINUOUS
10
0.521497
20
4.166183
30
0.0
11
0.572800
21
4.166183
31
0.0
0
LINE
8
0
6
CONTINUOUS
10
1.127423
20
4.166168
30
0.0
11
0.971130
21
4.166176
31
0.0
0
LINE
8
0
6
CONTINUOUS
10
0.971130
20
4.166176
30
0.0
11
0.554625
21
4.166176
31
0.0
0
LINE
8
0
6
CONTINUOUS
10
0.884150
20
4.166176
30
0.0
11
0.971130
21
4.166176
31
0.0
0
LINE
8
0
6
CONTINUOUS
10
0.554625
20
4.166176
30
0.0
11
-0.010492
21
4.166168
31
0.0
0
LINE
8
0
6
CONTINUOUS
10
-0.010492
20
4.166168
30
0.0
11
-0.572796
21
4.166176
31
0.0
0
LINE
8
0
6
CONTINUOUS
10
-0.572796
20
4.166176
30
0.0
11
-0.981620
21
4.166176
31
0.0
0
LINE
8
0
6
CONTINUOUS
10
-0.981620
20
4.166176
30
0.0
11
-1.127419
21
4.166168
31
0.0
0
LINE
8
0
6
CONTINUOUS
10
-0.893700
20
4.166176
30
0.0
11
-0.981620
21
4.166176
31
0.0
0
LINE
8
0
6
CONTINUOUS
10
-0.971127
20
4.166168
30
0.0
11
-0.554621
21
4.166183
31
0.0
0
LINE
8
0
6
CONTINUOUS
10
-0.554621
20
4.166183
30
0.0
11
0.010495
21
4.166168
31
0.0
0
LINE
8
0
6
CONTINUOUS
10
-0.504946
20
4.166183
30
0.0
11
-0.554621
21
4.166183
31
0.0
0
LINE
8
0
6
CONTINUOUS
10
0.009556
20
4.166168
30
0.0
11
-0.504946
21
4.166183
31
0.0
0
LINE
8
0
6
CONTINUOUS
10
1.543780
20
-0.390126
30
0.0
11
1.543783
21
1.537712
31
0.0
0
LINE
8
0
6
CONTINUOUS
10
-1.543777
20
1.537712
30
0.0
11
-1.543779
21
-0.390126
31
0.0
0
LINE
8
0
6
CONTINUOUS
10
1.543783
20
1.537712
30
0.0
11
1.451801
21
2.083954
31
0.0
0
LINE
8
0
6
CONTINUOUS
10
-1.451793
20
2.083954
30
0.0
11
-1.543777
21
1.537712
31
0.0
0
LINE
8
0
6
CONTINUOUS
10
1.451801
20
2.083954
30
0.0
11
1.440749
21
2.149589
31
0.0
0
LINE
8
0
6
CONTINUOUS
10
-1.440741
20
2.149589
30
0.0
11
-1.451793
21
2.083954
31
0.0
0
LINE
8
0
6
CONTINUOUS
10
0.863114
20
2.149601
30
0.0
11
1.254431
21
2.149589
31
0.0
0
LINE
8
0
6
CONTINUOUS
10
1.440749
20
2.149589
30
0.0
11
1.241021
21
2.149589
31
0.0
0
LINE
8
0
6
CONTINUOUS
10
1.241021
20
2.149589
30
0.0
11
0.708763
21
2.149589
31
0.0
0
LINE
8
0
6
CONTINUOUS
10
0.708763
20
2.149589
30
0.0
11
-0.013405
21
2.149589
31
0.0
0
LINE
8
0
6
CONTINUOUS
10
-0.013405
20
2.149589
30
0.0
11
-0.731981
21
2.149589
31
0.0
0
LINE
8
0
6
CONTINUOUS
10
-0.731981
20
2.149589
30
0.0
11
-1.254421
21
2.149589
31
0.0
0
LINE
8
0
6
CONTINUOUS
10
-1.254421
20
2.149589
30
0.0
11
-1.440741
21
2.149589
31
0.0
0
LINE
8
0
6
CONTINUOUS
10
-1.241013
20
2.149589
30
0.0
11
-0.863106
21
2.149601
31
0.0
0
LINE
8
0
6
CONTINUOUS
10
-1.202130
20
-3.382001
30
0.0
11
-1.198015
21
-3.403956
31
0.0
0
LINE
8
0
6
CONTINUOUS
10
-1.205456
20
-3.363584
30
0.0
11
-1.202130
21
-3.382001
31
0.0
0
LINE
8
0
6
CONTINUOUS
10
6.572126
20
-3.364332
30
0.0
11
6.676873
21
-3.351020
31
0.0
0
LINE
8
0
6
CONTINUOUS
10
6.415496
20
-3.392870
30
0.0
11
6.412330
21
-3.421800
31
0.0
0
LINE
8
0
6
CONTINUOUS
10
0.963630
20
-3.473403
30
0.0
11
0.883692
21
-3.509967
31
0.0
0
LINE
8
0
6
CONTINUOUS
10
6.198350
20
-3.516797
30
0.0
11
6.164553
21
-3.533135
31
0.0
0
LINE
8
0
6
CONTINUOUS
10
-0.718043
20
-3.476062
30
0.0
11
-0.742438
21
-3.510662
31
0.0
0
LINE
8
0
6
CONTINUOUS
10
-7.412408
20
-3.348441
30
0.0
11
-7.464239
21
-3.361295
31
0.0
0
LINE
8
0
6
CONTINUOUS
10
7.344946
20
-3.396238
30
0.0
11
7.293177
21
-3.415480
31
0.0
0
LINE
8
0
6
CONTINUOUS
10
7.365757
20
-3.390651
30
0.0
11
7.344946
21
-3.396238
31
0.0
0
LINE
8
0
6
CONTINUOUS
10
-6.371864
20
-3.340907
30
0.0
11
-6.484761
21
-3.352917
31
0.0
0
LINE
8
0
6
CONTINUOUS
10
2.339192
20
-3.332523
30
0.0
11
2.514967
21
-3.354982
31
0.0
0
LINE
8
0
6
CONTINUOUS
10
-4.627204
20
-3.371732
30
0.0
11
-4.496934
21
-3.411782
31
0.0
0
LINE
8
0
6
CONTINUOUS
10
4.127031
20
-3.324025
30
0.0
11
4.247665
21
-3.348543
31
0.0
0
LINE
8
0
6
CONTINUOUS
10
-2.921557
20
-3.389954
30
0.0
11
-2.887224
21
-3.409151
31
0.0
0
LINE
8
0
6
CONTINUOUS
10
-2.957659
20
-3.368410
30
0.0
11
-2.921557
21
-3.389954
31
0.0
0
LINE
8
0
6
CONTINUOUS
10
5.700344
20
-3.337885
30
0.0
11
5.760425
21
-3.365079
31
0.0
0
LINE
8
0
6
CONTINUOUS
10
-8.176807
20
-3.342907
30
0.0
11
-7.926491
21
-3.370252
31
0.0
0
LINE
8
0
6
CONTINUOUS
10
-7.658133
20
-3.411938
30
0.0
11
-7.645215
21
-3.422206
31
0.0
0
LINE
8
0
6
CONTINUOUS
10
-7.645215
20
-3.422206
30
0.0
11
-7.640091
21
-3.424380
31
0.0
0
LINE
8
0
6
CONTINUOUS
10
0.053389
20
-3.579477
30
0.0
11
0.040798
21
-3.587868
31
0.0
0
LINE
8
0
6
CONTINUOUS
10
2.884218
20
-3.455536
30
0.0
11
3.019763
21
-3.479193
31
0.0
0
LINE
8
0
6
CONTINUOUS
10
2.616778
20
-3.471503
30
0.0
11
2.514967
21
-3.502089
31
0.0
0
LINE
8
0
6
CONTINUOUS
10
4.402861
20
-3.468905
30
0.0
11
4.430311
21
-3.477174
31
0.0
0
LINE
8
0
6
CONTINUOUS
10
4.247665
20
-3.479462
30
0.0
11
4.402861
21
-3.468905
31
0.0
0
LINE
8
0
6
CONTINUOUS
10
-4.665460
20
-3.624440
30
0.0
11
-4.631968
21
-3.631577
31
0.0
0
LINE
8
0
6
CONTINUOUS
10
-5.095274
20
-3.467507
30
0.0
11
-5.199857
21
-3.478716
31
0.0
0
LINE
8
0
6
CONTINUOUS
10
-2.911712
20
-3.677782
30
0.0
11
-3.004984
21
-3.681254
31
0.0
0
LINE
8
0
6
CONTINUOUS
10
-2.887224
20
-3.569970
30
0.0
11
-2.691692
21
-3.560376
31
0.0
0
LINE
8
0
6
CONTINUOUS
10
-1.769252
20
-3.782183
30
0.0
11
-1.660669
21
-3.775894
31
0.0
0
LINE
8
0
6
CONTINUOUS
10
-0.943695
20
-3.583887
30
0.0
11
-0.936253
21
-3.617182
31
0.0
0
LINE
8
0
6
CONTINUOUS
10
0.576726
20
-3.776946
30
0.0
11
0.603864
21
-3.798711
31
0.0
0
LINE
8
0
6
CONTINUOUS
10
1.638054
20
-3.579366
30
0.0
11
1.515401
21
-3.610388
31
0.0
0
LINE
8
0
6
CONTINUOUS
10
0.040798
20
-3.587868
30
0.0
11
0.025114
21
-3.595948
31
0.0
0
LINE
8
0
6
CONTINUOUS
10
3.248904
20
-3.556355
30
0.0
11
3.369539
21
-3.575791
31
0.0
0
LINE
8
0
6
CONTINUOUS
10
4.553749
20
-3.559088
30
0.0
11
4.613831
21
-3.584791
31
0.0
0
LINE
8
0
6
CONTINUOUS
10
4.430311
20
-3.477174
30
0.0
11
4.486811
21
-3.485345
31
0.0
0
LINE
8
0
6
CONTINUOUS
10
-3.531120
20
-3.821060
30
0.0
11
-3.396883
21
-3.824443
31
0.0
0
LINE
8
0
6
CONTINUOUS
10
-4.337817
20
-3.783765
30
0.0
11
-4.326535
21
-3.784049
31
0.0
0
LINE
8
0
6
CONTINUOUS
10
-3.047690
20
-3.784814
30
0.0
11
-3.020552
21
-3.799863
31
0.0
0
LINE
8
0
6
CONTINUOUS
10
-1.345601
20
-3.934643
30
0.0
11
-1.324172
21
-3.934141
31
0.0
0
LINE
8
0
6
CONTINUOUS
10
-1.923450
20
-3.835988
30
0.0
11
-1.896312
21
-3.849412
31
0.0
0
LINE
8
0
6
CONTINUOUS
10
-0.752825
20
-3.885779
30
0.0
11
-0.732939
21
-3.896094
31
0.0
0
LINE
8
0
6
CONTINUOUS
10
-0.678570
20
-3.831097
30
0.0
11
-0.517542
21
-3.826314
31
0.0
0
LINE
8
0
6
CONTINUOUS
10
-0.329377
20
-3.835607
30
0.0
11
-0.302240
21
-3.849684
31
0.0
0
LINE
8
0
6
CONTINUOUS
10
0.925105
20
-3.877518
30
0.0
11
0.944991
21
-3.886975
31
0.0
0
LINE
8
0
6
CONTINUOUS
10
2.407277
20
-3.896883
30
0.0
11
2.427162
21
-3.905829
31
0.0
0
LINE
8
0
6
CONTINUOUS
10
1.016180
20
-3.832303
30
0.0
11
1.154978
21
-3.822668
31
0.0
0
LINE
8
0
6
CONTINUOUS
10
3.533136
20
-3.791711
30
0.0
11
3.664713
21
-3.775580
31
0.0
0
LINE
8
0
6
CONTINUOUS
10
2.388935
20
-3.779290
30
0.0
11
2.416072
21
-3.791027
31
0.0
0
LINE
8
0
6
CONTINUOUS
10
3.806607
20
-3.691798
30
0.0
11
3.664713
21
-3.709394
31
0.0
0
LINE
8
0
6
CONTINUOUS
10
5.743759
20
-3.615427
30
0.0
11
5.671178
21
-3.643691
31
0.0
0
LINE
8
0
6
CONTINUOUS
10
5.002029
20
-3.623534
30
0.0
11
5.000060
21
-3.636507
31
0.0
0
LINE
8
0
6
CONTINUOUS
10
4.931995
20
-3.676379
30
0.0
11
4.944818
21
-3.688771
31
0.0
0
LINE
8
0
6
CONTINUOUS
10
5.003227
20
-3.617830
30
0.0
11
5.186996
21
-3.594965
31
0.0
0
LINE
8
0
6
CONTINUOUS
10
6.935082
20
-3.509689
30
0.0
11
7.104668
21
-3.484760
31
0.0
0
LINE
8
0
6
CONTINUOUS
10
-6.506704
20
-3.571398
30
0.0
11
-6.484761
21
-3.573530
31
0.0
0
LINE
8
0
6
CONTINUOUS
10
-5.457553
20
-3.688765
30
0.0
11
-5.403238
21
-3.693917
31
0.0
0
LINE
8
0
6
CONTINUOUS
10
-4.487564
20
-3.776103
30
0.0
11
-4.337817
21
-3.783765
31
0.0
0
LINE
8
0
6
CONTINUOUS
10
-1.186290
20
-3.939623
30
0.0
11
-1.166405
21
-3.944185
31
0.0
0
LINE
8
0
6
CONTINUOUS
10
1.973812
20
-3.930677
30
0.0
11
1.993697
21
-3.933484
31
0.0
0
LINE
8
0
6
CONTINUOUS
10
3.302173
20
-3.878045
30
0.0
11
3.322058
21
-3.880158
31
0.0
0
LINE
8
0
6
CONTINUOUS
10
4.059081
20
-3.844147
30
0.0
11
4.080097
21
-3.842267
31
0.0
0
LINE
8
0
6
CONTINUOUS
10
4.268262
20
-3.830744
30
0.0
11
4.278397
21
-3.831821
31
0.0
0
LINE
8
0
6
CONTINUOUS
10
3.466017
20
-3.847363
30
0.0
11
3.533136
21
-3.841738
31
0.0
0
LINE
8
0
6
CONTINUOUS
10
7.166229
20
-3.480609
30
0.0
11
7.278654
21
-3.467587
31
0.0
0
ENDSEC
0
EOF
