999
unknown String-ID: 20550
0
SECTION
2
HEADER
9
$ACADVER
1
AC1009
9
$DWGCODEPAGE
3
unknown String-ID: 20561
0
ENDSEC
0
SECTION
2
TABLES
0
TABLE
2
LAYER
70
1
0
LAYER
2
0
70
0
62
7
6
CONTINUOUS
0
ENDTAB
0
ENDSEC
0
SECTION
2
ENTITIES
0
LINE
8
0
6
CONTINUOUS
10
-0.024345
20
0.062546
30
0.0
11
-0.024328
21
0.063747
31
0.0
0
LINE
8
0
6
CONTINUOUS
10
-0.024347
20
0.063238
30
0.0
11
-0.024345
21
0.062546
31
0.0
0
LINE
8
0
6
CONTINUOUS
10
-0.024328
20
0.063747
30
0.0
11
-0.022984
21
0.064335
31
0.0
0
LINE
8
0
6
CONTINUOUS
10
-0.021658
20
0.063723
30
0.0
11
-0.021660
21
0.064294
31
0.0
0
LINE
8
0
6
CONTINUOUS
10
-0.022984
20
0.064335
30
0.0
11
-0.021658
21
0.063723
31
0.0
0
LINE
8
0
6
CONTINUOUS
10
-0.038054
20
0.059791
30
0.0
11
-0.038039
21
0.060821
31
0.0
0
LINE
8
0
6
CONTINUOUS
10
-0.038056
20
0.060487
30
0.0
11
-0.038054
21
0.059791
31
0.0
0
LINE
8
0
6
CONTINUOUS
10
0.001003
20
0.062480
30
0.0
11
0.002450
21
0.060916
31
0.0
0
LINE
8
0
6
CONTINUOUS
10
-0.001459
20
0.062285
30
0.0
11
0.001003
21
0.062480
31
0.0
0
LINE
8
0
6
CONTINUOUS
10
-0.022098
20
0.068925
30
0.0
11
-0.022081
21
0.070126
31
0.0
0
LINE
8
0
6
CONTINUOUS
10
-0.022100
20
0.069601
30
0.0
11
-0.022098
21
0.068925
31
0.0
0
LINE
8
0
6
CONTINUOUS
10
-0.029761
20
0.068196
30
0.0
11
-0.029746
21
0.069226
31
0.0
0
LINE
8
0
6
CONTINUOUS
10
-0.029763
20
0.068862
30
0.0
11
-0.029761
21
0.068196
31
0.0
0
LINE
8
0
6
CONTINUOUS
10
-0.029746
20
0.069226
30
0.0
11
-0.028593
21
0.069731
31
0.0
0
LINE
8
0
6
CONTINUOUS
10
-0.025964
20
0.074134
30
0.0
11
-0.025950
21
0.075165
31
0.0
0
LINE
8
0
6
CONTINUOUS
10
-0.025966
20
0.074791
30
0.0
11
-0.025964
21
0.074134
31
0.0
0
LINE
8
0
6
CONTINUOUS
10
-0.030632
20
0.079795
30
0.0
11
-0.029387
21
0.080143
31
0.0
0
LINE
8
0
6
CONTINUOUS
10
-0.005060
20
0.039415
30
0.0
11
-0.003854
21
0.038993
31
0.0
0
LINE
8
0
6
CONTINUOUS
10
-0.006133
20
0.038813
30
0.0
11
-0.005060
21
0.039415
31
0.0
0
LINE
8
0
6
CONTINUOUS
10
-0.006128
20
0.039431
30
0.0
11
-0.006133
21
0.038813
31
0.0
0
LINE
8
0
6
CONTINUOUS
10
-0.013024
20
0.035962
30
0.0
11
-0.011818
21
0.035539
31
0.0
0
LINE
8
0
6
CONTINUOUS
10
-0.014097
20
0.035359
30
0.0
11
-0.013024
21
0.035962
31
0.0
0
LINE
8
0
6
CONTINUOUS
10
-0.014091
20
0.035987
30
0.0
11
-0.014097
21
0.035359
31
0.0
0
LINE
8
0
6
CONTINUOUS
10
-0.011796
20
0.039987
30
0.0
11
-0.011790
21
0.040625
31
0.0
0
LINE
8
0
6
CONTINUOUS
10
-0.011930
20
0.041012
30
0.0
11
-0.011796
21
0.039987
31
0.0
0
LINE
8
0
6
CONTINUOUS
10
-0.013024
20
0.054699
30
0.0
11
-0.011572
21
0.054191
31
0.0
0
LINE
8
0
6
CONTINUOUS
10
-0.011411
20
0.052957
30
0.0
11
-0.011404
21
0.053576
31
0.0
0
LINE
8
0
6
CONTINUOUS
10
-0.011572
20
0.054191
30
0.0
11
-0.011411
21
0.052957
31
0.0
0
LINE
8
0
6
CONTINUOUS
10
-0.019841
20
0.050979
30
0.0
11
-0.018591
21
0.051682
31
0.0
0
LINE
8
0
6
CONTINUOUS
10
-0.019834
20
0.051655
30
0.0
11
-0.019841
21
0.050979
31
0.0
0
LINE
8
0
6
CONTINUOUS
10
-0.023489
20
0.056777
30
0.0
11
-0.022239
21
0.057479
31
0.0
0
LINE
8
0
6
CONTINUOUS
10
-0.023482
20
0.057466
30
0.0
11
-0.023489
21
0.056777
31
0.0
0
LINE
8
0
6
CONTINUOUS
10
-0.029147
20
0.056474
30
0.0
11
-0.027941
21
0.056052
31
0.0
0
LINE
8
0
6
CONTINUOUS
10
-0.033210
20
0.048098
30
0.0
11
-0.032023
21
0.048553
31
0.0
0
LINE
8
0
6
CONTINUOUS
10
-0.028136
20
0.042706
30
0.0
11
-0.026949
21
0.043161
31
0.0
0
LINE
8
0
6
CONTINUOUS
10
-0.021752
20
0.037470
30
0.0
11
-0.021665
21
0.038498
31
0.0
0
LINE
8
0
6
CONTINUOUS
10
-0.021747
20
0.038159
30
0.0
11
-0.021752
21
0.037470
31
0.0
0
LINE
8
0
6
CONTINUOUS
10
-0.019379
20
0.038379
30
0.0
11
-0.019375
21
0.038962
31
0.0
0
LINE
8
0
6
CONTINUOUS
10
-0.020478
20
0.038952
30
0.0
11
-0.019379
21
0.038379
31
0.0
0
LINE
8
0
6
CONTINUOUS
10
-0.021665
20
0.038498
30
0.0
11
-0.020478
21
0.038952
31
0.0
0
LINE
8
0
6
CONTINUOUS
10
0.005643
20
0.065587
30
0.0
11
0.006834
21
0.066409
31
0.0
0
LINE
8
0
6
CONTINUOUS
10
0.005651
20
0.066209
30
0.0
11
0.005643
21
0.065587
31
0.0
0
LINE
8
0
6
CONTINUOUS
10
0.002397
20
0.054124
30
0.0
11
0.003576
21
0.053291
31
0.0
0
LINE
8
0
6
CONTINUOUS
10
0.002734
20
0.055336
30
0.0
11
0.002397
21
0.054124
31
0.0
0
LINE
8
0
6
CONTINUOUS
10
0.004250
20
0.055714
30
0.0
11
0.002734
21
0.055336
31
0.0
0
LINE
8
0
6
CONTINUOUS
10
0.005429
20
0.054881
30
0.0
11
0.004250
21
0.055714
31
0.0
0
LINE
8
0
6
CONTINUOUS
10
0.005092
20
0.053669
30
0.0
11
0.005429
21
0.054881
31
0.0
0
LINE
8
0
6
CONTINUOUS
10
0.003576
20
0.053291
30
0.0
11
0.005092
21
0.053669
31
0.0
0
LINE
8
0
6
CONTINUOUS
10
-0.003211
20
0.055523
30
0.0
11
-0.002280
21
0.054517
31
0.0
0
LINE
8
0
6
CONTINUOUS
10
0.024294
20
0.063484
30
0.0
11
0.024290
21
0.062283
31
0.0
0
LINE
8
0
6
CONTINUOUS
10
0.014237
20
0.069080
30
0.0
11
0.014233
21
0.067840
31
0.0
0
LINE
8
0
6
CONTINUOUS
10
0.019236
20
0.069883
30
0.0
11
0.020573
21
0.070481
31
0.0
0
LINE
8
0
6
CONTINUOUS
10
0.019238
20
0.070480
30
0.0
11
0.019236
21
0.069883
31
0.0
0
LINE
8
0
6
CONTINUOUS
10
0.014203
20
0.075140
30
0.0
11
0.015540
21
0.075738
31
0.0
0
LINE
8
0
6
CONTINUOUS
10
0.014205
20
0.075753
30
0.0
11
0.014203
21
0.075140
31
0.0
0
LINE
8
0
6
CONTINUOUS
10
0.026766
20
0.074300
30
0.0
11
0.026763
21
0.073270
31
0.0
0
LINE
8
0
6
CONTINUOUS
10
0.022577
20
0.084257
30
0.0
11
0.023598
21
0.084912
31
0.0
0
LINE
8
0
6
CONTINUOUS
10
0.022580
20
0.084865
30
0.0
11
0.022577
21
0.084257
31
0.0
0
LINE
8
0
6
CONTINUOUS
10
0.029474
20
0.080003
30
0.0
11
0.030712
21
0.079642
31
0.0
0
LINE
8
0
6
CONTINUOUS
10
0.002022
20
0.049812
30
0.0
11
0.003301
21
0.049073
31
0.0
0
LINE
8
0
6
CONTINUOUS
10
0.012838
20
0.035828
30
0.0
11
0.013901
21
0.035214
31
0.0
0
LINE
8
0
6
CONTINUOUS
10
0.009796
20
0.052142
30
0.0
11
0.011075
21
0.051403
31
0.0
0
LINE
8
0
6
CONTINUOUS
10
0.013212
20
0.055628
30
0.0
11
0.013394
21
0.056860
31
0.0
0
LINE
8
0
6
CONTINUOUS
10
0.013206
20
0.056239
30
0.0
11
0.013212
21
0.055628
31
0.0
0
LINE
8
0
6
CONTINUOUS
10
0.017106
20
0.051261
30
0.0
11
0.018521
21
0.051738
31
0.0
0
LINE
8
0
6
CONTINUOUS
10
0.018521
20
0.051738
30
0.0
11
0.019759
21
0.051022
31
0.0
0
LINE
8
0
6
CONTINUOUS
10
0.016930
20
0.050067
30
0.0
11
0.017106
21
0.051261
31
0.0
0
LINE
8
0
6
CONTINUOUS
10
0.016924
20
0.050666
30
0.0
11
0.016930
21
0.050067
31
0.0
0
LINE
8
0
6
CONTINUOUS
10
0.022436
20
0.057508
30
0.0
11
0.023674
21
0.056792
31
0.0
0
LINE
8
0
6
CONTINUOUS
10
0.034293
20
0.054118
30
0.0
11
0.035401
21
0.054679
31
0.0
0
LINE
8
0
6
CONTINUOUS
10
0.034288
20
0.054694
30
0.0
11
0.034293
21
0.054118
31
0.0
0
LINE
8
0
6
CONTINUOUS
10
0.035401
20
0.054679
30
0.0
11
0.036580
21
0.054212
31
0.0
0
LINE
8
0
6
CONTINUOUS
10
0.033154
20
0.048055
30
0.0
11
0.033225
21
0.047026
31
0.0
0
LINE
8
0
6
CONTINUOUS
10
0.030867
20
0.047960
30
0.0
11
0.031976
21
0.048522
31
0.0
0
LINE
8
0
6
CONTINUOUS
10
0.030863
20
0.048536
30
0.0
11
0.030867
21
0.047960
31
0.0
0
LINE
8
0
6
CONTINUOUS
10
0.031976
20
0.048522
30
0.0
11
0.033154
21
0.048055
31
0.0
0
LINE
8
0
6
CONTINUOUS
10
0.025700
20
0.042533
30
0.0
11
0.026808
21
0.043095
31
0.0
0
LINE
8
0
6
CONTINUOUS
10
0.025696
20
0.043106
30
0.0
11
0.025700
21
0.042533
31
0.0
0
LINE
8
0
6
CONTINUOUS
10
0.026808
20
0.043095
30
0.0
11
0.027987
21
0.042627
31
0.0
0
LINE
8
0
6
CONTINUOUS
10
0.021522
20
0.038280
30
0.0
11
0.021592
21
0.037251
31
0.0
0
LINE
8
0
6
CONTINUOUS
10
0.019234
20
0.038186
30
0.0
11
0.020343
21
0.038747
31
0.0
0
LINE
8
0
6
CONTINUOUS
10
0.019230
20
0.038761
30
0.0
11
0.019234
21
0.038186
31
0.0
0
LINE
8
0
6
CONTINUOUS
10
0.020343
20
0.038747
30
0.0
11
0.021522
21
0.038280
31
0.0
0
LINE
8
0
6
CONTINUOUS
10
0.004759
20
0.072776
30
0.0
11
0.005782
21
0.073726
31
0.0
0
LINE
8
0
6
CONTINUOUS
10
0.004768
20
0.073409
30
0.0
11
0.004759
21
0.072776
31
0.0
0
LINE
8
0
6
CONTINUOUS
10
0.012654
20
0.083735
30
0.0
11
0.013956
21
0.083556
31
0.0
0
LINE
8
0
6
CONTINUOUS
10
0.011803
20
0.082946
30
0.0
11
0.012654
21
0.083735
31
0.0
0
LINE
8
0
6
CONTINUOUS
10
0.011811
20
0.083576
30
0.0
11
0.011803
21
0.082946
31
0.0
0
LINE
8
0
6
CONTINUOUS
10
0.013956
20
0.083556
30
0.0
11
0.014408
21
0.082588
31
0.0
0
LINE
8
0
6
CONTINUOUS
10
0.007804
20
0.079099
30
0.0
11
0.009322
21
0.078891
31
0.0
0
LINE
8
0
6
CONTINUOUS
10
0.006813
20
0.078180
30
0.0
11
0.007804
21
0.079099
31
0.0
0
LINE
8
0
6
CONTINUOUS
10
0.006821
20
0.078805
30
0.0
11
0.006813
21
0.078180
31
0.0
0
LINE
8
0
6
CONTINUOUS
10
0.009322
20
0.078891
30
0.0
11
0.009849
21
0.077762
31
0.0
0
LINE
8
0
6
CONTINUOUS
10
0.008085
20
0.090824
30
0.0
11
0.009387
21
0.090645
31
0.0
0
LINE
8
0
6
CONTINUOUS
10
0.007235
20
0.090035
30
0.0
11
0.008085
21
0.090824
31
0.0
0
LINE
8
0
6
CONTINUOUS
10
0.007242
20
0.090673
30
0.0
11
0.007235
21
0.090035
31
0.0
0
LINE
8
0
6
CONTINUOUS
10
-0.011336
20
0.071159
30
0.0
11
-0.010313
21
0.072109
31
0.0
0
LINE
8
0
6
CONTINUOUS
10
-0.011327
20
0.071838
30
0.0
11
-0.011336
21
0.071159
31
0.0
0
LINE
8
0
6
CONTINUOUS
10
-0.014583
20
0.075478
30
0.0
11
-0.014056
21
0.074350
31
0.0
0
LINE
8
0
6
CONTINUOUS
10
-0.004123
20
0.085749
30
0.0
11
-0.002821
21
0.085570
31
0.0
0
LINE
8
0
6
CONTINUOUS
10
-0.004974
20
0.084960
30
0.0
11
-0.004123
21
0.085749
31
0.0
0
LINE
8
0
6
CONTINUOUS
10
-0.004966
20
0.085612
30
0.0
11
-0.004974
21
0.084960
31
0.0
0
LINE
8
0
6
CONTINUOUS
10
-0.009764
20
0.089896
30
0.0
11
-0.009095
21
0.090785
31
0.0
0
LINE
8
0
6
CONTINUOUS
10
-0.009757
20
0.090561
30
0.0
11
-0.009764
21
0.089896
31
0.0
0
LINE
8
0
6
CONTINUOUS
10
-0.000619
20
0.091649
30
0.0
11
0.000704
21
0.091642
31
0.0
0
LINE
8
0
6
CONTINUOUS
10
0.000704
20
0.091642
30
0.0
11
0.001357
21
0.090746
31
0.0
0
LINE
8
0
6
CONTINUOUS
10
-0.024328
20
0.063747
30
0.0
11
-0.024345
21
0.062546
31
0.0
0
LINE
8
0
6
CONTINUOUS
10
-0.022984
20
0.064335
30
0.0
11
-0.024328
21
0.063747
31
0.0
0
LINE
8
0
6
CONTINUOUS
10
-0.021658
20
0.063723
30
0.0
11
-0.022984
21
0.064335
31
0.0
0
LINE
8
0
6
CONTINUOUS
10
-0.021675
20
0.062522
30
0.0
11
-0.021658
21
0.063723
31
0.0
0
LINE
8
0
6
CONTINUOUS
10
-0.023019
20
0.061934
30
0.0
11
-0.021675
21
0.062522
31
0.0
0
LINE
8
0
6
CONTINUOUS
10
-0.024345
20
0.062546
30
0.0
11
-0.023019
21
0.061934
31
0.0
0
LINE
8
0
6
CONTINUOUS
10
-0.031151
20
0.061630
30
0.0
11
-0.031136
21
0.062660
31
0.0
0
LINE
8
0
6
CONTINUOUS
10
-0.031153
20
0.062304
30
0.0
11
-0.031151
21
0.061630
31
0.0
0
LINE
8
0
6
CONTINUOUS
10
-0.031136
20
0.062660
30
0.0
11
-0.029984
21
0.063165
31
0.0
0
LINE
8
0
6
CONTINUOUS
10
-0.028846
20
0.062640
30
0.0
11
-0.028848
21
0.063231
31
0.0
0
LINE
8
0
6
CONTINUOUS
10
-0.029984
20
0.063165
30
0.0
11
-0.028846
21
0.062640
31
0.0
0
LINE
8
0
6
CONTINUOUS
10
-0.031136
20
0.062660
30
0.0
11
-0.031151
21
0.061630
31
0.0
0
LINE
8
0
6
CONTINUOUS
10
-0.029984
20
0.063165
30
0.0
11
-0.031136
21
0.062660
31
0.0
0
LINE
8
0
6
CONTINUOUS
10
-0.028846
20
0.062640
30
0.0
11
-0.029984
21
0.063165
31
0.0
0
LINE
8
0
6
CONTINUOUS
10
-0.028861
20
0.061610
30
0.0
11
-0.028846
21
0.062640
31
0.0
0
LINE
8
0
6
CONTINUOUS
10
-0.030013
20
0.061105
30
0.0
11
-0.028861
21
0.061610
31
0.0
0
LINE
8
0
6
CONTINUOUS
10
-0.031151
20
0.061630
30
0.0
11
-0.030013
21
0.061105
31
0.0
0
LINE
8
0
6
CONTINUOUS
10
-0.038039
20
0.060821
30
0.0
11
-0.036887
21
0.061326
31
0.0
0
LINE
8
0
6
CONTINUOUS
10
-0.035749
20
0.060801
30
0.0
11
-0.035750
21
0.061379
31
0.0
0
LINE
8
0
6
CONTINUOUS
10
-0.036887
20
0.061326
30
0.0
11
-0.035749
21
0.060801
31
0.0
0
LINE
8
0
6
CONTINUOUS
10
-0.038039
20
0.060821
30
0.0
11
-0.038054
21
0.059791
31
0.0
0
LINE
8
0
6
CONTINUOUS
10
-0.036887
20
0.061326
30
0.0
11
-0.038039
21
0.060821
31
0.0
0
LINE
8
0
6
CONTINUOUS
10
-0.035749
20
0.060801
30
0.0
11
-0.036887
21
0.061326
31
0.0
0
LINE
8
0
6
CONTINUOUS
10
-0.035763
20
0.059771
30
0.0
11
-0.035749
21
0.060801
31
0.0
0
LINE
8
0
6
CONTINUOUS
10
-0.036916
20
0.059266
30
0.0
11
-0.035763
21
0.059771
31
0.0
0
LINE
8
0
6
CONTINUOUS
10
-0.038054
20
0.059791
30
0.0
11
-0.036916
21
0.059266
31
0.0
0
LINE
8
0
6
CONTINUOUS
10
-0.002474
20
0.060527
30
0.0
11
-0.001459
21
0.062285
31
0.0
0
LINE
8
0
6
CONTINUOUS
10
-0.002484
20
0.061171
30
0.0
11
-0.002474
21
0.060527
31
0.0
0
LINE
8
0
6
CONTINUOUS
10
-0.001459
20
0.062285
30
0.0
11
-0.002474
21
0.060527
31
0.0
0
LINE
8
0
6
CONTINUOUS
10
0.001003
20
0.062480
30
0.0
11
-0.001459
21
0.062285
31
0.0
0
LINE
8
0
6
CONTINUOUS
10
0.002450
20
0.060916
30
0.0
11
0.001003
21
0.062480
31
0.0
0
LINE
8
0
6
CONTINUOUS
10
0.001435
20
0.059158
30
0.0
11
0.002450
21
0.060916
31
0.0
0
LINE
8
0
6
CONTINUOUS
10
-0.001026
20
0.058964
30
0.0
11
0.001435
21
0.059158
31
0.0
0
LINE
8
0
6
CONTINUOUS
10
-0.002474
20
0.060527
30
0.0
11
-0.001026
21
0.058964
31
0.0
0
LINE
8
0
6
CONTINUOUS
10
-0.022081
20
0.070126
30
0.0
11
-0.020737
21
0.070715
31
0.0
0
LINE
8
0
6
CONTINUOUS
10
-0.019411
20
0.070103
30
0.0
11
-0.019413
21
0.070699
31
0.0
0
LINE
8
0
6
CONTINUOUS
10
-0.020737
20
0.070715
30
0.0
11
-0.019411
21
0.070103
31
0.0
0
LINE
8
0
6
CONTINUOUS
10
-0.022081
20
0.070126
30
0.0
11
-0.022098
21
0.068925
31
0.0
0
LINE
8
0
6
CONTINUOUS
10
-0.020737
20
0.070715
30
0.0
11
-0.022081
21
0.070126
31
0.0
0
LINE
8
0
6
CONTINUOUS
10
-0.019411
20
0.070103
30
0.0
11
-0.020737
21
0.070715
31
0.0
0
LINE
8
0
6
CONTINUOUS
10
-0.019428
20
0.068902
30
0.0
11
-0.019411
21
0.070103
31
0.0
0
LINE
8
0
6
CONTINUOUS
10
-0.020772
20
0.068313
30
0.0
11
-0.019428
21
0.068902
31
0.0
0
LINE
8
0
6
CONTINUOUS
10
-0.022098
20
0.068925
30
0.0
11
-0.020772
21
0.068313
31
0.0
0
LINE
8
0
6
CONTINUOUS
10
-0.027456
20
0.069206
30
0.0
11
-0.027457
21
0.069804
31
0.0
0
LINE
8
0
6
CONTINUOUS
10
-0.028593
20
0.069731
30
0.0
11
-0.027456
21
0.069206
31
0.0
0
LINE
8
0
6
CONTINUOUS
10
-0.029746
20
0.069226
30
0.0
11
-0.029761
21
0.068196
31
0.0
0
LINE
8
0
6
CONTINUOUS
10
-0.028593
20
0.069731
30
0.0
11
-0.029746
21
0.069226
31
0.0
0
LINE
8
0
6
CONTINUOUS
10
-0.027456
20
0.069206
30
0.0
11
-0.028593
21
0.069731
31
0.0
0
LINE
8
0
6
CONTINUOUS
10
-0.027470
20
0.068176
30
0.0
11
-0.027456
21
0.069206
31
0.0
0
LINE
8
0
6
CONTINUOUS
10
-0.028623
20
0.067671
30
0.0
11
-0.027470
21
0.068176
31
0.0
0
LINE
8
0
6
CONTINUOUS
10
-0.029761
20
0.068196
30
0.0
11
-0.028623
21
0.067671
31
0.0
0
LINE
8
0
6
CONTINUOUS
10
-0.025950
20
0.075165
30
0.0
11
-0.024797
21
0.075670
31
0.0
0
LINE
8
0
6
CONTINUOUS
10
-0.023659
20
0.075144
30
0.0
11
-0.023661
21
0.075752
31
0.0
0
LINE
8
0
6
CONTINUOUS
10
-0.024797
20
0.075670
30
0.0
11
-0.023659
21
0.075144
31
0.0
0
LINE
8
0
6
CONTINUOUS
10
-0.025950
20
0.075165
30
0.0
11
-0.025964
21
0.074134
31
0.0
0
LINE
8
0
6
CONTINUOUS
10
-0.024797
20
0.075670
30
0.0
11
-0.025950
21
0.075165
31
0.0
0
LINE
8
0
6
CONTINUOUS
10
-0.023659
20
0.075144
30
0.0
11
-0.024797
21
0.075670
31
0.0
0
LINE
8
0
6
CONTINUOUS
10
-0.023674
20
0.074114
30
0.0
11
-0.023659
21
0.075144
31
0.0
0
LINE
8
0
6
CONTINUOUS
10
-0.024827
20
0.073609
30
0.0
11
-0.023674
21
0.074114
31
0.0
0
LINE
8
0
6
CONTINUOUS
10
-0.025964
20
0.074134
30
0.0
11
-0.024827
21
0.073609
31
0.0
0
LINE
8
0
6
CONTINUOUS
10
-0.024921
20
0.083674
30
0.0
11
-0.024686
21
0.084688
31
0.0
0
LINE
8
0
6
CONTINUOUS
10
-0.024924
20
0.084340
30
0.0
11
-0.024921
21
0.083674
31
0.0
0
LINE
8
0
6
CONTINUOUS
10
-0.024686
20
0.084688
30
0.0
11
-0.023441
21
0.085036
31
0.0
0
LINE
8
0
6
CONTINUOUS
10
-0.022432
20
0.084371
30
0.0
11
-0.022434
21
0.084979
31
0.0
0
LINE
8
0
6
CONTINUOUS
10
-0.023441
20
0.085036
30
0.0
11
-0.022432
21
0.084371
31
0.0
0
LINE
8
0
6
CONTINUOUS
10
-0.024686
20
0.084688
30
0.0
11
-0.024921
21
0.083674
31
0.0
0
LINE
8
0
6
CONTINUOUS
10
-0.023441
20
0.085036
30
0.0
11
-0.024686
21
0.084688
31
0.0
0
LINE
8
0
6
CONTINUOUS
10
-0.022432
20
0.084371
30
0.0
11
-0.023441
21
0.085036
31
0.0
0
LINE
8
0
6
CONTINUOUS
10
-0.022667
20
0.083357
30
0.0
11
-0.022432
21
0.084371
31
0.0
0
LINE
8
0
6
CONTINUOUS
10
-0.023912
20
0.083009
30
0.0
11
-0.022667
21
0.083357
31
0.0
0
LINE
8
0
6
CONTINUOUS
10
-0.024921
20
0.083674
30
0.0
11
-0.023912
21
0.083009
31
0.0
0
LINE
8
0
6
CONTINUOUS
10
-0.030867
20
0.078781
30
0.0
11
-0.030632
21
0.079795
31
0.0
0
LINE
8
0
6
CONTINUOUS
10
-0.030870
20
0.079455
30
0.0
11
-0.030867
21
0.078781
31
0.0
0
LINE
8
0
6
CONTINUOUS
10
-0.028378
20
0.079478
30
0.0
11
-0.028380
21
0.080073
31
0.0
0
LINE
8
0
6
CONTINUOUS
10
-0.029387
20
0.080143
30
0.0
11
-0.028378
21
0.079478
31
0.0
0
LINE
8
0
6
CONTINUOUS
10
-0.030632
20
0.079795
30
0.0
11
-0.030867
21
0.078781
31
0.0
0
LINE
8
0
6
CONTINUOUS
10
-0.029387
20
0.080143
30
0.0
11
-0.030632
21
0.079795
31
0.0
0
LINE
8
0
6
CONTINUOUS
10
-0.028378
20
0.079478
30
0.0
11
-0.029387
21
0.080143
31
0.0
0
LINE
8
0
6
CONTINUOUS
10
-0.028613
20
0.078464
30
0.0
11
-0.028378
21
0.079478
31
0.0
0
LINE
8
0
6
CONTINUOUS
10
-0.029858
20
0.078116
30
0.0
11
-0.028613
21
0.078464
31
0.0
0
LINE
8
0
6
CONTINUOUS
10
-0.030867
20
0.078781
30
0.0
11
-0.029858
21
0.078116
31
0.0
0
LINE
8
0
6
CONTINUOUS
10
-0.035195
20
0.073029
30
0.0
11
-0.034960
21
0.074043
31
0.0
0
LINE
8
0
6
CONTINUOUS
10
-0.035198
20
0.073713
30
0.0
11
-0.035195
21
0.073029
31
0.0
0
LINE
8
0
6
CONTINUOUS
10
-0.034960
20
0.074043
30
0.0
11
-0.033715
21
0.074391
31
0.0
0
LINE
8
0
6
CONTINUOUS
10
-0.032706
20
0.073725
30
0.0
11
-0.032708
21
0.074312
31
0.0
0
LINE
8
0
6
CONTINUOUS
10
-0.033715
20
0.074391
30
0.0
11
-0.032706
21
0.073725
31
0.0
0
LINE
8
0
6
CONTINUOUS
10
-0.034960
20
0.074043
30
0.0
11
-0.035195
21
0.073029
31
0.0
0
LINE
8
0
6
CONTINUOUS
10
-0.033715
20
0.074391
30
0.0
11
-0.034960
21
0.074043
31
0.0
0
LINE
8
0
6
CONTINUOUS
10
-0.032706
20
0.073725
30
0.0
11
-0.033715
21
0.074391
31
0.0
0
LINE
8
0
6
CONTINUOUS
10
-0.032941
20
0.072712
30
0.0
11
-0.032706
21
0.073725
31
0.0
0
LINE
8
0
6
CONTINUOUS
10
-0.034186
20
0.072364
30
0.0
11
-0.032941
21
0.072712
31
0.0
0
LINE
8
0
6
CONTINUOUS
10
-0.035195
20
0.073029
30
0.0
11
-0.034186
21
0.072364
31
0.0
0
LINE
8
0
6
CONTINUOUS
10
-0.037727
20
0.066581
30
0.0
11
-0.037491
21
0.067595
31
0.0
0
LINE
8
0
6
CONTINUOUS
10
-0.037730
20
0.067276
30
0.0
11
-0.037727
21
0.066581
31
0.0
0
LINE
8
0
6
CONTINUOUS
10
-0.037491
20
0.067595
30
0.0
11
-0.036247
21
0.067943
31
0.0
0
LINE
8
0
6
CONTINUOUS
10
-0.035237
20
0.067277
30
0.0
11
-0.035240
21
0.067854
31
0.0
0
LINE
8
0
6
CONTINUOUS
10
-0.036247
20
0.067943
30
0.0
11
-0.035237
21
0.067277
31
0.0
0
LINE
8
0
6
CONTINUOUS
10
-0.037491
20
0.067595
30
0.0
11
-0.037727
21
0.066581
31
0.0
0
LINE
8
0
6
CONTINUOUS
10
-0.036247
20
0.067943
30
0.0
11
-0.037491
21
0.067595
31
0.0
0
LINE
8
0
6
CONTINUOUS
10
-0.035237
20
0.067277
30
0.0
11
-0.036247
21
0.067943
31
0.0
0
LINE
8
0
6
CONTINUOUS
10
-0.035473
20
0.066263
30
0.0
11
-0.035237
21
0.067277
31
0.0
0
LINE
8
0
6
CONTINUOUS
10
-0.036717
20
0.065915
30
0.0
11
-0.035473
21
0.066263
31
0.0
0
LINE
8
0
6
CONTINUOUS
10
-0.037727
20
0.066581
30
0.0
11
-0.036717
21
0.065915
31
0.0
0
LINE
8
0
6
CONTINUOUS
10
-0.006446
20
0.050707
30
0.0
11
-0.004995
21
0.050199
31
0.0
0
LINE
8
0
6
CONTINUOUS
10
-0.007737
20
0.049982
30
0.0
11
-0.006446
21
0.050707
31
0.0
0
LINE
8
0
6
CONTINUOUS
10
-0.007730
20
0.050617
30
0.0
11
-0.007737
21
0.049982
31
0.0
0
LINE
8
0
6
CONTINUOUS
10
-0.004834
20
0.048965
30
0.0
11
-0.004827
21
0.049601
31
0.0
0
LINE
8
0
6
CONTINUOUS
10
-0.004995
20
0.050199
30
0.0
11
-0.004834
21
0.048965
31
0.0
0
LINE
8
0
6
CONTINUOUS
10
-0.007576
20
0.048749
30
0.0
11
-0.006125
21
0.048240
31
0.0
0
LINE
8
0
6
CONTINUOUS
10
-0.007737
20
0.049982
30
0.0
11
-0.007576
21
0.048749
31
0.0
0
LINE
8
0
6
CONTINUOUS
10
-0.006446
20
0.050707
30
0.0
11
-0.007737
21
0.049982
31
0.0
0
LINE
8
0
6
CONTINUOUS
10
-0.004995
20
0.050199
30
0.0
11
-0.006446
21
0.050707
31
0.0
0
LINE
8
0
6
CONTINUOUS
10
-0.004834
20
0.048965
30
0.0
11
-0.004995
21
0.050199
31
0.0
0
LINE
8
0
6
CONTINUOUS
10
-0.006125
20
0.048240
30
0.0
11
-0.004834
21
0.048965
31
0.0
0
LINE
8
0
6
CONTINUOUS
10
-0.004614
20
0.034147
30
0.0
11
-0.003408
21
0.033724
31
0.0
0
LINE
8
0
6
CONTINUOUS
10
-0.005687
20
0.033544
30
0.0
11
-0.004614
21
0.034147
31
0.0
0
LINE
8
0
6
CONTINUOUS
10
-0.005681
20
0.034155
30
0.0
11
-0.005687
21
0.033544
31
0.0
0
LINE
8
0
6
CONTINUOUS
10
-0.003274
20
0.032699
30
0.0
11
-0.003269
21
0.033356
31
0.0
0
LINE
8
0
6
CONTINUOUS
10
-0.003408
20
0.033724
30
0.0
11
-0.003274
21
0.032699
31
0.0
0
LINE
8
0
6
CONTINUOUS
10
-0.005553
20
0.032519
30
0.0
11
-0.004347
21
0.032097
31
0.0
0
LINE
8
0
6
CONTINUOUS
10
-0.005687
20
0.033544
30
0.0
11
-0.005553
21
0.032519
31
0.0
0
LINE
8
0
6
CONTINUOUS
10
-0.004614
20
0.034147
30
0.0
11
-0.005687
21
0.033544
31
0.0
0
LINE
8
0
6
CONTINUOUS
10
-0.003408
20
0.033724
30
0.0
11
-0.004614
21
0.034147
31
0.0
0
LINE
8
0
6
CONTINUOUS
10
-0.003274
20
0.032699
30
0.0
11
-0.003408
21
0.033724
31
0.0
0
LINE
8
0
6
CONTINUOUS
10
-0.004347
20
0.032097
30
0.0
11
-0.003274
21
0.032699
31
0.0
0
LINE
8
0
6
CONTINUOUS
10
-0.003721
20
0.037968
30
0.0
11
-0.003715
21
0.038617
31
0.0
0
LINE
8
0
6
CONTINUOUS
10
-0.003854
20
0.038993
30
0.0
11
-0.003721
21
0.037968
31
0.0
0
LINE
8
0
6
CONTINUOUS
10
-0.005999
20
0.037788
30
0.0
11
-0.004793
21
0.037365
31
0.0
0
LINE
8
0
6
CONTINUOUS
10
-0.006133
20
0.038813
30
0.0
11
-0.005999
21
0.037788
31
0.0
0
LINE
8
0
6
CONTINUOUS
10
-0.005060
20
0.039415
30
0.0
11
-0.006133
21
0.038813
31
0.0
0
LINE
8
0
6
CONTINUOUS
10
-0.003854
20
0.038993
30
0.0
11
-0.005060
21
0.039415
31
0.0
0
LINE
8
0
6
CONTINUOUS
10
-0.003721
20
0.037968
30
0.0
11
-0.003854
21
0.038993
31
0.0
0
LINE
8
0
6
CONTINUOUS
10
-0.004793
20
0.037365
30
0.0
11
-0.003721
21
0.037968
31
0.0
0
LINE
8
0
6
CONTINUOUS
10
-0.004274
20
0.044869
30
0.0
11
-0.002868
21
0.044377
31
0.0
0
LINE
8
0
6
CONTINUOUS
10
-0.005524
20
0.044167
30
0.0
11
-0.004274
21
0.044869
31
0.0
0
LINE
8
0
6
CONTINUOUS
10
-0.005518
20
0.044782
30
0.0
11
-0.005524
21
0.044167
31
0.0
0
LINE
8
0
6
CONTINUOUS
10
-0.002712
20
0.043182
30
0.0
11
-0.002705
21
0.043838
31
0.0
0
LINE
8
0
6
CONTINUOUS
10
-0.002868
20
0.044377
30
0.0
11
-0.002712
21
0.043182
31
0.0
0
LINE
8
0
6
CONTINUOUS
10
-0.005369
20
0.042972
30
0.0
11
-0.003963
21
0.042479
31
0.0
0
LINE
8
0
6
CONTINUOUS
10
-0.005524
20
0.044167
30
0.0
11
-0.005369
21
0.042972
31
0.0
0
LINE
8
0
6
CONTINUOUS
10
-0.004274
20
0.044869
30
0.0
11
-0.005524
21
0.044167
31
0.0
0
LINE
8
0
6
CONTINUOUS
10
-0.002868
20
0.044377
30
0.0
11
-0.004274
21
0.044869
31
0.0
0
LINE
8
0
6
CONTINUOUS
10
-0.002712
20
0.043182
30
0.0
11
-0.002868
21
0.044377
31
0.0
0
LINE
8
0
6
CONTINUOUS
10
-0.003963
20
0.042479
30
0.0
11
-0.002712
21
0.043182
31
0.0
0
LINE
8
0
6
CONTINUOUS
10
-0.011684
20
0.034514
30
0.0
11
-0.011679
21
0.035155
31
0.0
0
LINE
8
0
6
CONTINUOUS
10
-0.011818
20
0.035539
30
0.0
11
-0.011684
21
0.034514
31
0.0
0
LINE
8
0
6
CONTINUOUS
10
-0.013963
20
0.034334
30
0.0
11
-0.012757
21
0.033912
31
0.0
0
LINE
8
0
6
CONTINUOUS
10
-0.014097
20
0.035359
30
0.0
11
-0.013963
21
0.034334
31
0.0
0
LINE
8
0
6
CONTINUOUS
10
-0.013024
20
0.035962
30
0.0
11
-0.014097
21
0.035359
31
0.0
0
LINE
8
0
6
CONTINUOUS
10
-0.011818
20
0.035539
30
0.0
11
-0.013024
21
0.035962
31
0.0
0
LINE
8
0
6
CONTINUOUS
10
-0.011684
20
0.034514
30
0.0
11
-0.011818
21
0.035539
31
0.0
0
LINE
8
0
6
CONTINUOUS
10
-0.012757
20
0.033912
30
0.0
11
-0.011684
21
0.034514
31
0.0
0
LINE
8
0
6
CONTINUOUS
10
-0.013136
20
0.041435
30
0.0
11
-0.011930
21
0.041012
31
0.0
0
LINE
8
0
6
CONTINUOUS
10
-0.014209
20
0.040832
30
0.0
11
-0.013136
21
0.041435
31
0.0
0
LINE
8
0
6
CONTINUOUS
10
-0.014203
20
0.041472
30
0.0
11
-0.014209
21
0.040832
31
0.0
0
LINE
8
0
6
CONTINUOUS
10
-0.014075
20
0.039807
30
0.0
11
-0.012869
21
0.039385
31
0.0
0
LINE
8
0
6
CONTINUOUS
10
-0.014209
20
0.040832
30
0.0
11
-0.014075
21
0.039807
31
0.0
0
LINE
8
0
6
CONTINUOUS
10
-0.013136
20
0.041435
30
0.0
11
-0.014209
21
0.040832
31
0.0
0
LINE
8
0
6
CONTINUOUS
10
-0.011930
20
0.041012
30
0.0
11
-0.013136
21
0.041435
31
0.0
0
LINE
8
0
6
CONTINUOUS
10
-0.011796
20
0.039987
30
0.0
11
-0.011930
21
0.041012
31
0.0
0
LINE
8
0
6
CONTINUOUS
10
-0.012869
20
0.039385
30
0.0
11
-0.011796
21
0.039987
31
0.0
0
LINE
8
0
6
CONTINUOUS
10
-0.012174
20
0.047282
30
0.0
11
-0.010768
21
0.046789
31
0.0
0
LINE
8
0
6
CONTINUOUS
10
-0.013425
20
0.046579
30
0.0
11
-0.012174
21
0.047282
31
0.0
0
LINE
8
0
6
CONTINUOUS
10
-0.013418
20
0.047223
30
0.0
11
-0.013425
21
0.046579
31
0.0
0
LINE
8
0
6
CONTINUOUS
10
-0.010613
20
0.045594
30
0.0
11
-0.010606
21
0.046217
31
0.0
0
LINE
8
0
6
CONTINUOUS
10
-0.010768
20
0.046789
30
0.0
11
-0.010613
21
0.045594
31
0.0
0
LINE
8
0
6
CONTINUOUS
10
-0.013269
20
0.045385
30
0.0
11
-0.011863
21
0.044892
31
0.0
0
LINE
8
0
6
CONTINUOUS
10
-0.013425
20
0.046579
30
0.0
11
-0.013269
21
0.045385
31
0.0
0
LINE
8
0
6
CONTINUOUS
10
-0.012174
20
0.047282
30
0.0
11
-0.013425
21
0.046579
31
0.0
0
LINE
8
0
6
CONTINUOUS
10
-0.010768
20
0.046789
30
0.0
11
-0.012174
21
0.047282
31
0.0
0
LINE
8
0
6
CONTINUOUS
10
-0.010613
20
0.045594
30
0.0
11
-0.010768
21
0.046789
31
0.0
0
LINE
8
0
6
CONTINUOUS
10
-0.011863
20
0.044892
30
0.0
11
-0.010613
21
0.045594
31
0.0
0
LINE
8
0
6
CONTINUOUS
10
-0.014315
20
0.053974
30
0.0
11
-0.013024
21
0.054699
31
0.0
0
LINE
8
0
6
CONTINUOUS
10
-0.014307
20
0.054628
30
0.0
11
-0.014315
21
0.053974
31
0.0
0
LINE
8
0
6
CONTINUOUS
10
-0.014154
20
0.052740
30
0.0
11
-0.012702
21
0.052232
31
0.0
0
LINE
8
0
6
CONTINUOUS
10
-0.014315
20
0.053974
30
0.0
11
-0.014154
21
0.052740
31
0.0
0
LINE
8
0
6
CONTINUOUS
10
-0.013024
20
0.054699
30
0.0
11
-0.014315
21
0.053974
31
0.0
0
LINE
8
0
6
CONTINUOUS
10
-0.011572
20
0.054191
30
0.0
11
-0.013024
21
0.054699
31
0.0
0
LINE
8
0
6
CONTINUOUS
10
-0.011411
20
0.052957
30
0.0
11
-0.011572
21
0.054191
31
0.0
0
LINE
8
0
6
CONTINUOUS
10
-0.012702
20
0.052232
30
0.0
11
-0.011411
21
0.052957
31
0.0
0
LINE
8
0
6
CONTINUOUS
10
-0.016137
20
0.060687
30
0.0
11
-0.014685
21
0.060179
31
0.0
0
LINE
8
0
6
CONTINUOUS
10
-0.017428
20
0.059962
30
0.0
11
-0.016137
21
0.060687
31
0.0
0
LINE
8
0
6
CONTINUOUS
10
-0.017420
20
0.060643
30
0.0
11
-0.017428
21
0.059962
31
0.0
0
LINE
8
0
6
CONTINUOUS
10
-0.014524
20
0.058945
30
0.0
11
-0.014518
21
0.059550
31
0.0
0
LINE
8
0
6
CONTINUOUS
10
-0.014685
20
0.060179
30
0.0
11
-0.014524
21
0.058945
31
0.0
0
LINE
8
0
6
CONTINUOUS
10
-0.017267
20
0.058728
30
0.0
11
-0.015815
21
0.058220
31
0.0
0
LINE
8
0
6
CONTINUOUS
10
-0.017428
20
0.059962
30
0.0
11
-0.017267
21
0.058728
31
0.0
0
LINE
8
0
6
CONTINUOUS
10
-0.016137
20
0.060687
30
0.0
11
-0.017428
21
0.059962
31
0.0
0
LINE
8
0
6
CONTINUOUS
10
-0.014685
20
0.060179
30
0.0
11
-0.016137
21
0.060687
31
0.0
0
LINE
8
0
6
CONTINUOUS
10
-0.014524
20
0.058945
30
0.0
11
-0.014685
21
0.060179
31
0.0
0
LINE
8
0
6
CONTINUOUS
10
-0.015815
20
0.058220
30
0.0
11
-0.014524
21
0.058945
31
0.0
0
LINE
8
0
6
CONTINUOUS
10
-0.018591
20
0.051682
30
0.0
11
-0.017184
21
0.051189
31
0.0
0
LINE
8
0
6
CONTINUOUS
10
-0.017029
20
0.049994
30
0.0
11
-0.017023
21
0.050594
31
0.0
0
LINE
8
0
6
CONTINUOUS
10
-0.017184
20
0.051189
30
0.0
11
-0.017029
21
0.049994
31
0.0
0
LINE
8
0
6
CONTINUOUS
10
-0.019685
20
0.049784
30
0.0
11
-0.018279
21
0.049292
31
0.0
0
LINE
8
0
6
CONTINUOUS
10
-0.019841
20
0.050979
30
0.0
11
-0.019685
21
0.049784
31
0.0
0
LINE
8
0
6
CONTINUOUS
10
-0.018591
20
0.051682
30
0.0
11
-0.019841
21
0.050979
31
0.0
0
LINE
8
0
6
CONTINUOUS
10
-0.017184
20
0.051189
30
0.0
11
-0.018591
21
0.051682
31
0.0
0
LINE
8
0
6
CONTINUOUS
10
-0.017029
20
0.049994
30
0.0
11
-0.017184
21
0.051189
31
0.0
0
LINE
8
0
6
CONTINUOUS
10
-0.018279
20
0.049292
30
0.0
11
-0.017029
21
0.049994
31
0.0
0
LINE
8
0
6
CONTINUOUS
10
-0.022239
20
0.057479
30
0.0
11
-0.020833
21
0.056987
31
0.0
0
LINE
8
0
6
CONTINUOUS
10
-0.020677
20
0.055792
30
0.0
11
-0.020671
21
0.056371
31
0.0
0
LINE
8
0
6
CONTINUOUS
10
-0.020833
20
0.056987
30
0.0
11
-0.020677
21
0.055792
31
0.0
0
LINE
8
0
6
CONTINUOUS
10
-0.023334
20
0.055582
30
0.0
11
-0.021928
21
0.055090
31
0.0
0
LINE
8
0
6
CONTINUOUS
10
-0.023489
20
0.056777
30
0.0
11
-0.023334
21
0.055582
31
0.0
0
LINE
8
0
6
CONTINUOUS
10
-0.022239
20
0.057479
30
0.0
11
-0.023489
21
0.056777
31
0.0
0
LINE
8
0
6
CONTINUOUS
10
-0.020833
20
0.056987
30
0.0
11
-0.022239
21
0.057479
31
0.0
0
LINE
8
0
6
CONTINUOUS
10
-0.020677
20
0.055792
30
0.0
11
-0.020833
21
0.056987
31
0.0
0
LINE
8
0
6
CONTINUOUS
10
-0.021928
20
0.055090
30
0.0
11
-0.020677
21
0.055792
31
0.0
0
LINE
8
0
6
CONTINUOUS
10
-0.020216
20
0.045288
30
0.0
11
-0.019010
21
0.044865
31
0.0
0
LINE
8
0
6
CONTINUOUS
10
-0.021289
20
0.044685
30
0.0
11
-0.020216
21
0.045288
31
0.0
0
LINE
8
0
6
CONTINUOUS
10
-0.021283
20
0.045338
30
0.0
11
-0.021289
21
0.044685
31
0.0
0
LINE
8
0
6
CONTINUOUS
10
-0.018876
20
0.043840
30
0.0
11
-0.018871
21
0.044456
31
0.0
0
LINE
8
0
6
CONTINUOUS
10
-0.019010
20
0.044865
30
0.0
11
-0.018876
21
0.043840
31
0.0
0
LINE
8
0
6
CONTINUOUS
10
-0.021155
20
0.043660
30
0.0
11
-0.019949
21
0.043238
31
0.0
0
LINE
8
0
6
CONTINUOUS
10
-0.021289
20
0.044685
30
0.0
11
-0.021155
21
0.043660
31
0.0
0
LINE
8
0
6
CONTINUOUS
10
-0.020216
20
0.045288
30
0.0
11
-0.021289
21
0.044685
31
0.0
0
LINE
8
0
6
CONTINUOUS
10
-0.019010
20
0.044865
30
0.0
11
-0.020216
21
0.045288
31
0.0
0
LINE
8
0
6
CONTINUOUS
10
-0.018876
20
0.043840
30
0.0
11
-0.019010
21
0.044865
31
0.0
0
LINE
8
0
6
CONTINUOUS
10
-0.019949
20
0.043238
30
0.0
11
-0.018876
21
0.043840
31
0.0
0
LINE
8
0
6
CONTINUOUS
10
-0.025723
20
0.050385
30
0.0
11
-0.024517
21
0.049962
31
0.0
0
LINE
8
0
6
CONTINUOUS
10
-0.026796
20
0.049782
30
0.0
11
-0.025723
21
0.050385
31
0.0
0
LINE
8
0
6
CONTINUOUS
10
-0.026790
20
0.050445
30
0.0
11
-0.026796
21
0.049782
31
0.0
0
LINE
8
0
6
CONTINUOUS
10
-0.024383
20
0.048937
30
0.0
11
-0.024378
21
0.049543
31
0.0
0
LINE
8
0
6
CONTINUOUS
10
-0.024517
20
0.049962
30
0.0
11
-0.024383
21
0.048937
31
0.0
0
LINE
8
0
6
CONTINUOUS
10
-0.026662
20
0.048757
30
0.0
11
-0.025456
21
0.048335
31
0.0
0
LINE
8
0
6
CONTINUOUS
10
-0.026796
20
0.049782
30
0.0
11
-0.026662
21
0.048757
31
0.0
0
LINE
8
0
6
CONTINUOUS
10
-0.025723
20
0.050385
30
0.0
11
-0.026796
21
0.049782
31
0.0
0
LINE
8
0
6
CONTINUOUS
10
-0.024517
20
0.049962
30
0.0
11
-0.025723
21
0.050385
31
0.0
0
LINE
8
0
6
CONTINUOUS
10
-0.024383
20
0.048937
30
0.0
11
-0.024517
21
0.049962
31
0.0
0
LINE
8
0
6
CONTINUOUS
10
-0.025456
20
0.048335
30
0.0
11
-0.024383
21
0.048937
31
0.0
0
LINE
8
0
6
CONTINUOUS
10
-0.030220
20
0.055872
30
0.0
11
-0.029147
21
0.056474
31
0.0
0
LINE
8
0
6
CONTINUOUS
10
-0.030214
20
0.056544
30
0.0
11
-0.030220
21
0.055872
31
0.0
0
LINE
8
0
6
CONTINUOUS
10
-0.027807
20
0.055027
30
0.0
11
-0.027802
21
0.055624
31
0.0
0
LINE
8
0
6
CONTINUOUS
10
-0.027941
20
0.056052
30
0.0
11
-0.027807
21
0.055027
31
0.0
0
LINE
8
0
6
CONTINUOUS
10
-0.030086
20
0.054847
30
0.0
11
-0.028880
21
0.054424
31
0.0
0
LINE
8
0
6
CONTINUOUS
10
-0.030220
20
0.055872
30
0.0
11
-0.030086
21
0.054847
31
0.0
0
LINE
8
0
6
CONTINUOUS
10
-0.029147
20
0.056474
30
0.0
11
-0.030220
21
0.055872
31
0.0
0
LINE
8
0
6
CONTINUOUS
10
-0.027941
20
0.056052
30
0.0
11
-0.029147
21
0.056474
31
0.0
0
LINE
8
0
6
CONTINUOUS
10
-0.027807
20
0.055027
30
0.0
11
-0.027941
21
0.056052
31
0.0
0
LINE
8
0
6
CONTINUOUS
10
-0.028880
20
0.054424
30
0.0
11
-0.027807
21
0.055027
31
0.0
0
LINE
8
0
6
CONTINUOUS
10
-0.036738
20
0.053204
30
0.0
11
-0.036650
21
0.054232
31
0.0
0
LINE
8
0
6
CONTINUOUS
10
-0.036733
20
0.053906
30
0.0
11
-0.036738
21
0.053204
31
0.0
0
LINE
8
0
6
CONTINUOUS
10
-0.034365
20
0.054113
30
0.0
11
-0.034360
21
0.054687
31
0.0
0
LINE
8
0
6
CONTINUOUS
10
-0.035463
20
0.054687
30
0.0
11
-0.034365
21
0.054113
31
0.0
0
LINE
8
0
6
CONTINUOUS
10
-0.036650
20
0.054232
30
0.0
11
-0.035463
21
0.054687
31
0.0
0
LINE
8
0
6
CONTINUOUS
10
-0.036738
20
0.053204
30
0.0
11
-0.035639
21
0.052631
31
0.0
0
LINE
8
0
6
CONTINUOUS
10
-0.036650
20
0.054232
30
0.0
11
-0.036738
21
0.053204
31
0.0
0
LINE
8
0
6
CONTINUOUS
10
-0.035463
20
0.054687
30
0.0
11
-0.036650
21
0.054232
31
0.0
0
LINE
8
0
6
CONTINUOUS
10
-0.034365
20
0.054113
30
0.0
11
-0.035463
21
0.054687
31
0.0
0
LINE
8
0
6
CONTINUOUS
10
-0.034452
20
0.053085
30
0.0
11
-0.034365
21
0.054113
31
0.0
0
LINE
8
0
6
CONTINUOUS
10
-0.035639
20
0.052631
30
0.0
11
-0.034452
21
0.053085
31
0.0
0
LINE
8
0
6
CONTINUOUS
10
-0.033297
20
0.047070
30
0.0
11
-0.033210
21
0.048098
31
0.0
0
LINE
8
0
6
CONTINUOUS
10
-0.033292
20
0.047771
30
0.0
11
-0.033297
21
0.047070
31
0.0
0
LINE
8
0
6
CONTINUOUS
10
-0.030924
20
0.047980
30
0.0
11
-0.030920
21
0.048555
31
0.0
0
LINE
8
0
6
CONTINUOUS
10
-0.032023
20
0.048553
30
0.0
11
-0.030924
21
0.047980
31
0.0
0
LINE
8
0
6
CONTINUOUS
10
-0.033297
20
0.047070
30
0.0
11
-0.032199
21
0.046497
31
0.0
0
LINE
8
0
6
CONTINUOUS
10
-0.033210
20
0.048098
30
0.0
11
-0.033297
21
0.047070
31
0.0
0
LINE
8
0
6
CONTINUOUS
10
-0.032023
20
0.048553
30
0.0
11
-0.033210
21
0.048098
31
0.0
0
LINE
8
0
6
CONTINUOUS
10
-0.030924
20
0.047980
30
0.0
11
-0.032023
21
0.048553
31
0.0
0
LINE
8
0
6
CONTINUOUS
10
-0.031012
20
0.046952
30
0.0
11
-0.030924
21
0.047980
31
0.0
0
LINE
8
0
6
CONTINUOUS
10
-0.032199
20
0.046497
30
0.0
11
-0.031012
21
0.046952
31
0.0
0
LINE
8
0
6
CONTINUOUS
10
-0.028224
20
0.041678
30
0.0
11
-0.028136
21
0.042706
31
0.0
0
LINE
8
0
6
CONTINUOUS
10
-0.028218
20
0.042376
30
0.0
11
-0.028224
21
0.041678
31
0.0
0
LINE
8
0
6
CONTINUOUS
10
-0.025850
20
0.042588
30
0.0
11
-0.025846
21
0.043164
31
0.0
0
LINE
8
0
6
CONTINUOUS
10
-0.026949
20
0.043161
30
0.0
11
-0.025850
21
0.042588
31
0.0
0
LINE
8
0
6
CONTINUOUS
10
-0.028224
20
0.041678
30
0.0
11
-0.027125
21
0.041105
31
0.0
0
LINE
8
0
6
CONTINUOUS
10
-0.028136
20
0.042706
30
0.0
11
-0.028224
21
0.041678
31
0.0
0
LINE
8
0
6
CONTINUOUS
10
-0.026949
20
0.043161
30
0.0
11
-0.028136
21
0.042706
31
0.0
0
LINE
8
0
6
CONTINUOUS
10
-0.025850
20
0.042588
30
0.0
11
-0.026949
21
0.043161
31
0.0
0
LINE
8
0
6
CONTINUOUS
10
-0.025938
20
0.041560
30
0.0
11
-0.025850
21
0.042588
31
0.0
0
LINE
8
0
6
CONTINUOUS
10
-0.027125
20
0.041105
30
0.0
11
-0.025938
21
0.041560
31
0.0
0
LINE
8
0
6
CONTINUOUS
10
-0.021752
20
0.037470
30
0.0
11
-0.020654
21
0.036896
31
0.0
0
LINE
8
0
6
CONTINUOUS
10
-0.021665
20
0.038498
30
0.0
11
-0.021752
21
0.037470
31
0.0
0
LINE
8
0
6
CONTINUOUS
10
-0.020478
20
0.038952
30
0.0
11
-0.021665
21
0.038498
31
0.0
0
LINE
8
0
6
CONTINUOUS
10
-0.019379
20
0.038379
30
0.0
11
-0.020478
21
0.038952
31
0.0
0
LINE
8
0
6
CONTINUOUS
10
-0.019467
20
0.037351
30
0.0
11
-0.019379
21
0.038379
31
0.0
0
LINE
8
0
6
CONTINUOUS
10
-0.020654
20
0.036896
30
0.0
11
-0.019467
21
0.037351
31
0.0
0
LINE
8
0
6
CONTINUOUS
10
0.010211
20
0.059804
30
0.0
11
0.010207
21
0.058564
31
0.0
0
LINE
8
0
6
CONTINUOUS
10
0.008834
20
0.060426
30
0.0
11
0.010211
21
0.059804
31
0.0
0
LINE
8
0
6
CONTINUOUS
10
0.007454
20
0.059809
30
0.0
11
0.008834
21
0.060426
31
0.0
0
LINE
8
0
6
CONTINUOUS
10
0.007457
20
0.060410
30
0.0
11
0.007454
21
0.059809
31
0.0
0
LINE
8
0
6
CONTINUOUS
10
0.008827
20
0.057946
30
0.0
11
0.010207
21
0.058564
31
0.0
0
LINE
8
0
6
CONTINUOUS
10
0.007451
20
0.058569
30
0.0
11
0.008827
21
0.057946
31
0.0
0
LINE
8
0
6
CONTINUOUS
10
0.007454
20
0.059809
30
0.0
11
0.007451
21
0.058569
31
0.0
0
LINE
8
0
6
CONTINUOUS
10
0.008834
20
0.060426
30
0.0
11
0.007454
21
0.059809
31
0.0
0
LINE
8
0
6
CONTINUOUS
10
0.010211
20
0.059804
30
0.0
11
0.008834
21
0.060426
31
0.0
0
LINE
8
0
6
CONTINUOUS
10
0.010207
20
0.058564
30
0.0
11
0.010211
21
0.059804
31
0.0
0
LINE
8
0
6
CONTINUOUS
10
-0.008510
20
0.065276
30
0.0
11
-0.007567
21
0.066274
31
0.0
0
LINE
8
0
6
CONTINUOUS
10
-0.008507
20
0.065949
30
0.0
11
-0.008510
21
0.065276
31
0.0
0
LINE
8
0
6
CONTINUOUS
10
-0.007567
20
0.066274
30
0.0
11
-0.005985
21
0.066136
31
0.0
0
LINE
8
0
6
CONTINUOUS
10
-0.005985
20
0.066136
30
0.0
11
-0.005347
21
0.065000
31
0.0
0
LINE
8
0
6
CONTINUOUS
10
-0.005985
20
0.066136
30
0.0
11
-0.007567
21
0.066274
31
0.0
0
LINE
8
0
6
CONTINUOUS
10
-0.005347
20
0.065000
30
0.0
11
-0.005985
21
0.066136
31
0.0
0
LINE
8
0
6
CONTINUOUS
10
-0.006290
20
0.064002
30
0.0
11
-0.005347
21
0.065000
31
0.0
0
LINE
8
0
6
CONTINUOUS
10
-0.007872
20
0.064140
30
0.0
11
-0.006290
21
0.064002
31
0.0
0
LINE
8
0
6
CONTINUOUS
10
-0.008510
20
0.065276
30
0.0
11
-0.007872
21
0.064140
31
0.0
0
LINE
8
0
6
CONTINUOUS
10
-0.007567
20
0.066274
30
0.0
11
-0.008510
21
0.065276
31
0.0
0
LINE
8
0
6
CONTINUOUS
10
0.008344
20
0.066016
30
0.0
11
0.008662
21
0.064801
31
0.0
0
LINE
8
0
6
CONTINUOUS
10
0.006834
20
0.066409
30
0.0
11
0.008344
21
0.066016
31
0.0
0
LINE
8
0
6
CONTINUOUS
10
0.008662
20
0.064801
30
0.0
11
0.008344
21
0.066016
31
0.0
0
LINE
8
0
6
CONTINUOUS
10
0.007471
20
0.063979
30
0.0
11
0.008662
21
0.064801
31
0.0
0
LINE
8
0
6
CONTINUOUS
10
0.005961
20
0.064372
30
0.0
11
0.007471
21
0.063979
31
0.0
0
LINE
8
0
6
CONTINUOUS
10
0.005643
20
0.065587
30
0.0
11
0.005961
21
0.064372
31
0.0
0
LINE
8
0
6
CONTINUOUS
10
0.006834
20
0.066409
30
0.0
11
0.005643
21
0.065587
31
0.0
0
LINE
8
0
6
CONTINUOUS
10
0.008344
20
0.066016
30
0.0
11
0.006834
21
0.066409
31
0.0
0
LINE
8
0
6
CONTINUOUS
10
-0.010366
20
0.059058
30
0.0
11
-0.009713
21
0.060188
31
0.0
0
LINE
8
0
6
CONTINUOUS
10
-0.010372
20
0.059732
30
0.0
11
-0.010366
21
0.059058
31
0.0
0
LINE
8
0
6
CONTINUOUS
10
-0.009713
20
0.060188
30
0.0
11
-0.008130
21
0.060313
31
0.0
0
LINE
8
0
6
CONTINUOUS
10
-0.008130
20
0.060313
30
0.0
11
-0.007199
21
0.059308
31
0.0
0
LINE
8
0
6
CONTINUOUS
10
-0.009713
20
0.060188
30
0.0
11
-0.010366
21
0.059058
31
0.0
0
LINE
8
0
6
CONTINUOUS
10
-0.008130
20
0.060313
30
0.0
11
-0.009713
21
0.060188
31
0.0
0
LINE
8
0
6
CONTINUOUS
10
-0.007199
20
0.059308
30
0.0
11
-0.008130
21
0.060313
31
0.0
0
LINE
8
0
6
CONTINUOUS
10
-0.007851
20
0.058177
30
0.0
11
-0.007199
21
0.059308
31
0.0
0
LINE
8
0
6
CONTINUOUS
10
-0.009435
20
0.058052
30
0.0
11
-0.007851
21
0.058177
31
0.0
0
LINE
8
0
6
CONTINUOUS
10
-0.010366
20
0.059058
30
0.0
11
-0.009435
21
0.058052
31
0.0
0
LINE
8
0
6
CONTINUOUS
10
0.002397
20
0.054124
30
0.0
11
0.002734
21
0.055336
31
0.0
0
LINE
8
0
6
CONTINUOUS
10
0.002390
20
0.054757
30
0.0
11
0.002397
21
0.054124
31
0.0
0
LINE
8
0
6
CONTINUOUS
10
0.002734
20
0.055336
30
0.0
11
0.004250
21
0.055714
31
0.0
0
LINE
8
0
6
CONTINUOUS
10
0.004250
20
0.055714
30
0.0
11
0.005429
21
0.054881
31
0.0
0
LINE
8
0
6
CONTINUOUS
10
-0.005447
20
0.054267
30
0.0
11
-0.004795
21
0.055398
31
0.0
0
LINE
8
0
6
CONTINUOUS
10
-0.005454
20
0.054929
30
0.0
11
-0.005447
21
0.054267
31
0.0
0
LINE
8
0
6
CONTINUOUS
10
-0.004795
20
0.055398
30
0.0
11
-0.003211
21
0.055523
31
0.0
0
LINE
8
0
6
CONTINUOUS
10
-0.004795
20
0.055398
30
0.0
11
-0.005447
21
0.054267
31
0.0
0
LINE
8
0
6
CONTINUOUS
10
-0.003211
20
0.055523
30
0.0
11
-0.004795
21
0.055398
31
0.0
0
LINE
8
0
6
CONTINUOUS
10
-0.002280
20
0.054517
30
0.0
11
-0.003211
21
0.055523
31
0.0
0
LINE
8
0
6
CONTINUOUS
10
-0.002933
20
0.053386
30
0.0
11
-0.002280
21
0.054517
31
0.0
0
LINE
8
0
6
CONTINUOUS
10
-0.004516
20
0.053261
30
0.0
11
-0.002933
21
0.053386
31
0.0
0
LINE
8
0
6
CONTINUOUS
10
-0.005447
20
0.054267
30
0.0
11
-0.004516
21
0.053261
31
0.0
0
LINE
8
0
6
CONTINUOUS
10
-0.001545
20
0.067705
30
0.0
11
-0.000892
21
0.068836
31
0.0
0
LINE
8
0
6
CONTINUOUS
10
-0.001551
20
0.068347
30
0.0
11
-0.001545
21
0.067705
31
0.0
0
LINE
8
0
6
CONTINUOUS
10
-0.000892
20
0.068836
30
0.0
11
0.000691
21
0.068961
31
0.0
0
LINE
8
0
6
CONTINUOUS
10
0.000691
20
0.068961
30
0.0
11
0.001622
21
0.067955
31
0.0
0
LINE
8
0
6
CONTINUOUS
10
-0.000892
20
0.068836
30
0.0
11
-0.001545
21
0.067705
31
0.0
0
LINE
8
0
6
CONTINUOUS
10
0.000691
20
0.068961
30
0.0
11
-0.000892
21
0.068836
31
0.0
0
LINE
8
0
6
CONTINUOUS
10
0.001622
20
0.067955
30
0.0
11
0.000691
21
0.068961
31
0.0
0
LINE
8
0
6
CONTINUOUS
10
0.000970
20
0.066824
30
0.0
11
0.001622
21
0.067955
31
0.0
0
LINE
8
0
6
CONTINUOUS
10
-0.000614
20
0.066699
30
0.0
11
0.000970
21
0.066824
31
0.0
0
LINE
8
0
6
CONTINUOUS
10
-0.001545
20
0.067705
30
0.0
11
-0.000614
21
0.066699
31
0.0
0
LINE
8
0
6
CONTINUOUS
10
0.017403
20
0.062999
30
0.0
11
0.017399
21
0.061759
31
0.0
0
LINE
8
0
6
CONTINUOUS
10
0.016026
20
0.063621
30
0.0
11
0.017403
21
0.062999
31
0.0
0
LINE
8
0
6
CONTINUOUS
10
0.014646
20
0.063004
30
0.0
11
0.016026
21
0.063621
31
0.0
0
LINE
8
0
6
CONTINUOUS
10
0.014649
20
0.063608
30
0.0
11
0.014646
21
0.063004
31
0.0
0
LINE
8
0
6
CONTINUOUS
10
0.016019
20
0.061141
30
0.0
11
0.017399
21
0.061759
31
0.0
0
LINE
8
0
6
CONTINUOUS
10
0.014643
20
0.061764
30
0.0
11
0.016019
21
0.061141
31
0.0
0
LINE
8
0
6
CONTINUOUS
10
0.014646
20
0.063004
30
0.0
11
0.014643
21
0.061764
31
0.0
0
LINE
8
0
6
CONTINUOUS
10
0.016026
20
0.063621
30
0.0
11
0.014646
21
0.063004
31
0.0
0
LINE
8
0
6
CONTINUOUS
10
0.017403
20
0.062999
30
0.0
11
0.016026
21
0.063621
31
0.0
0
LINE
8
0
6
CONTINUOUS
10
0.017399
20
0.061759
30
0.0
11
0.017403
21
0.062999
31
0.0
0
LINE
8
0
6
CONTINUOUS
10
0.022960
20
0.064087
30
0.0
11
0.024294
21
0.063484
31
0.0
0
LINE
8
0
6
CONTINUOUS
10
0.021624
20
0.063489
30
0.0
11
0.022960
21
0.064087
31
0.0
0
LINE
8
0
6
CONTINUOUS
10
0.021626
20
0.064060
30
0.0
11
0.021624
21
0.063489
31
0.0
0
LINE
8
0
6
CONTINUOUS
10
0.022954
20
0.061685
30
0.0
11
0.024290
21
0.062283
31
0.0
0
LINE
8
0
6
CONTINUOUS
10
0.021620
20
0.062288
30
0.0
11
0.022954
21
0.061685
31
0.0
0
LINE
8
0
6
CONTINUOUS
10
0.021624
20
0.063489
30
0.0
11
0.021620
21
0.062288
31
0.0
0
LINE
8
0
6
CONTINUOUS
10
0.022960
20
0.064087
30
0.0
11
0.021624
21
0.063489
31
0.0
0
LINE
8
0
6
CONTINUOUS
10
0.024294
20
0.063484
30
0.0
11
0.022960
21
0.064087
31
0.0
0
LINE
8
0
6
CONTINUOUS
10
0.024290
20
0.062283
30
0.0
11
0.024294
21
0.063484
31
0.0
0
LINE
8
0
6
CONTINUOUS
10
0.031199
20
0.061545
30
0.0
11
0.031197
21
0.060515
31
0.0
0
LINE
8
0
6
CONTINUOUS
10
0.030056
20
0.062063
30
0.0
11
0.031199
21
0.061545
31
0.0
0
LINE
8
0
6
CONTINUOUS
10
0.028909
20
0.061550
30
0.0
11
0.030056
21
0.062063
31
0.0
0
LINE
8
0
6
CONTINUOUS
10
0.028911
20
0.062135
30
0.0
11
0.028909
21
0.061550
31
0.0
0
LINE
8
0
6
CONTINUOUS
10
0.030050
20
0.060002
30
0.0
11
0.031197
21
0.060515
31
0.0
0
LINE
8
0
6
CONTINUOUS
10
0.028906
20
0.060519
30
0.0
11
0.030050
21
0.060002
31
0.0
0
LINE
8
0
6
CONTINUOUS
10
0.028909
20
0.061550
30
0.0
11
0.028906
21
0.060519
31
0.0
0
LINE
8
0
6
CONTINUOUS
10
0.030056
20
0.062063
30
0.0
11
0.028909
21
0.061550
31
0.0
0
LINE
8
0
6
CONTINUOUS
10
0.031199
20
0.061545
30
0.0
11
0.030056
21
0.062063
31
0.0
0
LINE
8
0
6
CONTINUOUS
10
0.031197
20
0.060515
30
0.0
11
0.031199
21
0.061545
31
0.0
0
LINE
8
0
6
CONTINUOUS
10
0.038213
20
0.060524
30
0.0
11
0.038210
21
0.059494
31
0.0
0
LINE
8
0
6
CONTINUOUS
10
0.038039
20
0.060603
30
0.0
11
0.038213
21
0.060524
31
0.0
0
LINE
8
0
6
CONTINUOUS
10
0.037063
20
0.058981
30
0.0
11
0.038210
21
0.059494
31
0.0
0
LINE
8
0
6
CONTINUOUS
10
0.038213
20
0.060524
30
0.0
11
0.038039
21
0.060603
31
0.0
0
LINE
8
0
6
CONTINUOUS
10
0.038210
20
0.059494
30
0.0
11
0.038213
21
0.060524
31
0.0
0
LINE
8
0
6
CONTINUOUS
10
0.038039
20
0.060605
30
0.0
11
0.038036
21
0.059574
31
0.0
0
LINE
8
0
6
CONTINUOUS
10
0.036895
20
0.061122
30
0.0
11
0.038039
21
0.060605
31
0.0
0
LINE
8
0
6
CONTINUOUS
10
0.035749
20
0.060609
30
0.0
11
0.036895
21
0.061122
31
0.0
0
LINE
8
0
6
CONTINUOUS
10
0.035751
20
0.061186
30
0.0
11
0.035749
21
0.060609
31
0.0
0
LINE
8
0
6
CONTINUOUS
10
0.036890
20
0.059061
30
0.0
11
0.038036
21
0.059574
31
0.0
0
LINE
8
0
6
CONTINUOUS
10
0.035746
20
0.059579
30
0.0
11
0.036890
21
0.059061
31
0.0
0
LINE
8
0
6
CONTINUOUS
10
0.035749
20
0.060609
30
0.0
11
0.035746
21
0.059579
31
0.0
0
LINE
8
0
6
CONTINUOUS
10
0.036895
20
0.061122
30
0.0
11
0.035749
21
0.060609
31
0.0
0
LINE
8
0
6
CONTINUOUS
10
0.038039
20
0.060605
30
0.0
11
0.036895
21
0.061122
31
0.0
0
LINE
8
0
6
CONTINUOUS
10
0.038036
20
0.059574
30
0.0
11
0.038039
21
0.060605
31
0.0
0
LINE
8
0
6
CONTINUOUS
10
0.012860
20
0.069702
30
0.0
11
0.014237
21
0.069080
31
0.0
0
LINE
8
0
6
CONTINUOUS
10
0.011480
20
0.069085
30
0.0
11
0.012860
21
0.069702
31
0.0
0
LINE
8
0
6
CONTINUOUS
10
0.011482
20
0.069706
30
0.0
11
0.011480
21
0.069085
31
0.0
0
LINE
8
0
6
CONTINUOUS
10
0.012853
20
0.067223
30
0.0
11
0.014233
21
0.067840
31
0.0
0
LINE
8
0
6
CONTINUOUS
10
0.011476
20
0.067845
30
0.0
11
0.012853
21
0.067223
31
0.0
0
LINE
8
0
6
CONTINUOUS
10
0.011480
20
0.069085
30
0.0
11
0.011476
21
0.067845
31
0.0
0
LINE
8
0
6
CONTINUOUS
10
0.012860
20
0.069702
30
0.0
11
0.011480
21
0.069085
31
0.0
0
LINE
8
0
6
CONTINUOUS
10
0.014237
20
0.069080
30
0.0
11
0.012860
21
0.069702
31
0.0
0
LINE
8
0
6
CONTINUOUS
10
0.014233
20
0.067840
30
0.0
11
0.014237
21
0.069080
31
0.0
0
LINE
8
0
6
CONTINUOUS
10
0.021906
20
0.069878
30
0.0
11
0.021903
21
0.068677
31
0.0
0
LINE
8
0
6
CONTINUOUS
10
0.020573
20
0.070481
30
0.0
11
0.021906
21
0.069878
31
0.0
0
LINE
8
0
6
CONTINUOUS
10
0.020566
20
0.068080
30
0.0
11
0.021903
21
0.068677
31
0.0
0
LINE
8
0
6
CONTINUOUS
10
0.019232
20
0.068682
30
0.0
11
0.020566
21
0.068080
31
0.0
0
LINE
8
0
6
CONTINUOUS
10
0.019236
20
0.069883
30
0.0
11
0.019232
21
0.068682
31
0.0
0
LINE
8
0
6
CONTINUOUS
10
0.020573
20
0.070481
30
0.0
11
0.019236
21
0.069883
31
0.0
0
LINE
8
0
6
CONTINUOUS
10
0.021906
20
0.069878
30
0.0
11
0.020573
21
0.070481
31
0.0
0
LINE
8
0
6
CONTINUOUS
10
0.021903
20
0.068677
30
0.0
11
0.021906
21
0.069878
31
0.0
0
LINE
8
0
6
CONTINUOUS
10
0.016873
20
0.075135
30
0.0
11
0.016870
21
0.073934
31
0.0
0
LINE
8
0
6
CONTINUOUS
10
0.015540
20
0.075738
30
0.0
11
0.016873
21
0.075135
31
0.0
0
LINE
8
0
6
CONTINUOUS
10
0.015533
20
0.073336
30
0.0
11
0.016870
21
0.073934
31
0.0
0
LINE
8
0
6
CONTINUOUS
10
0.014200
20
0.073939
30
0.0
11
0.015533
21
0.073336
31
0.0
0
LINE
8
0
6
CONTINUOUS
10
0.014203
20
0.075140
30
0.0
11
0.014200
21
0.073939
31
0.0
0
LINE
8
0
6
CONTINUOUS
10
0.015540
20
0.075738
30
0.0
11
0.014203
21
0.075140
31
0.0
0
LINE
8
0
6
CONTINUOUS
10
0.016873
20
0.075135
30
0.0
11
0.015540
21
0.075738
31
0.0
0
LINE
8
0
6
CONTINUOUS
10
0.016870
20
0.073934
30
0.0
11
0.016873
21
0.075135
31
0.0
0
LINE
8
0
6
CONTINUOUS
10
0.030057
20
0.068142
30
0.0
11
0.030054
21
0.067112
31
0.0
0
LINE
8
0
6
CONTINUOUS
10
0.028913
20
0.068659
30
0.0
11
0.030057
21
0.068142
31
0.0
0
LINE
8
0
6
CONTINUOUS
10
0.027766
20
0.068146
30
0.0
11
0.028913
21
0.068659
31
0.0
0
LINE
8
0
6
CONTINUOUS
10
0.027768
20
0.068745
30
0.0
11
0.027766
21
0.068146
31
0.0
0
LINE
8
0
6
CONTINUOUS
10
0.028907
20
0.066599
30
0.0
11
0.030054
21
0.067112
31
0.0
0
LINE
8
0
6
CONTINUOUS
10
0.027763
20
0.067116
30
0.0
11
0.028907
21
0.066599
31
0.0
0
LINE
8
0
6
CONTINUOUS
10
0.027766
20
0.068146
30
0.0
11
0.027763
21
0.067116
31
0.0
0
LINE
8
0
6
CONTINUOUS
10
0.028913
20
0.068659
30
0.0
11
0.027766
21
0.068146
31
0.0
0
LINE
8
0
6
CONTINUOUS
10
0.030057
20
0.068142
30
0.0
11
0.028913
21
0.068659
31
0.0
0
LINE
8
0
6
CONTINUOUS
10
0.030054
20
0.067112
30
0.0
11
0.030057
21
0.068142
31
0.0
0
LINE
8
0
6
CONTINUOUS
10
0.025622
20
0.074817
30
0.0
11
0.026766
21
0.074300
31
0.0
0
LINE
8
0
6
CONTINUOUS
10
0.024476
20
0.074304
30
0.0
11
0.025622
21
0.074817
31
0.0
0
LINE
8
0
6
CONTINUOUS
10
0.024478
20
0.074912
30
0.0
11
0.024476
21
0.074304
31
0.0
0
LINE
8
0
6
CONTINUOUS
10
0.025617
20
0.072757
30
0.0
11
0.026763
21
0.073270
31
0.0
0
LINE
8
0
6
CONTINUOUS
10
0.024473
20
0.073274
30
0.0
11
0.025617
21
0.072757
31
0.0
0
LINE
8
0
6
CONTINUOUS
10
0.024476
20
0.074304
30
0.0
11
0.024473
21
0.073274
31
0.0
0
LINE
8
0
6
CONTINUOUS
10
0.025622
20
0.074817
30
0.0
11
0.024476
21
0.074304
31
0.0
0
LINE
8
0
6
CONTINUOUS
10
0.026766
20
0.074300
30
0.0
11
0.025622
21
0.074817
31
0.0
0
LINE
8
0
6
CONTINUOUS
10
0.026763
20
0.073270
30
0.0
11
0.026766
21
0.074300
31
0.0
0
LINE
8
0
6
CONTINUOUS
10
0.021211
20
0.079411
30
0.0
11
0.021208
21
0.078380
31
0.0
0
LINE
8
0
6
CONTINUOUS
10
0.020067
20
0.079928
30
0.0
11
0.021211
21
0.079411
31
0.0
0
LINE
8
0
6
CONTINUOUS
10
0.018920
20
0.079415
30
0.0
11
0.020067
21
0.079928
31
0.0
0
LINE
8
0
6
CONTINUOUS
10
0.018922
20
0.080034
30
0.0
11
0.018920
21
0.079415
31
0.0
0
LINE
8
0
6
CONTINUOUS
10
0.020061
20
0.077867
30
0.0
11
0.021208
21
0.078380
31
0.0
0
LINE
8
0
6
CONTINUOUS
10
0.018917
20
0.078385
30
0.0
11
0.020061
21
0.077867
31
0.0
0
LINE
8
0
6
CONTINUOUS
10
0.018920
20
0.079415
30
0.0
11
0.018917
21
0.078385
31
0.0
0
LINE
8
0
6
CONTINUOUS
10
0.020067
20
0.079928
30
0.0
11
0.018920
21
0.079415
31
0.0
0
LINE
8
0
6
CONTINUOUS
10
0.021211
20
0.079411
30
0.0
11
0.020067
21
0.079928
31
0.0
0
LINE
8
0
6
CONTINUOUS
10
0.021208
20
0.078380
30
0.0
11
0.021211
21
0.079411
31
0.0
0
LINE
8
0
6
CONTINUOUS
10
0.024837
20
0.084550
30
0.0
11
0.025055
21
0.083534
31
0.0
0
LINE
8
0
6
CONTINUOUS
10
0.023598
20
0.084912
30
0.0
11
0.024837
21
0.084550
31
0.0
0
LINE
8
0
6
CONTINUOUS
10
0.024034
20
0.082879
30
0.0
11
0.025055
21
0.083534
31
0.0
0
LINE
8
0
6
CONTINUOUS
10
0.022795
20
0.083241
30
0.0
11
0.024034
21
0.082879
31
0.0
0
LINE
8
0
6
CONTINUOUS
10
0.022577
20
0.084257
30
0.0
11
0.022795
21
0.083241
31
0.0
0
LINE
8
0
6
CONTINUOUS
10
0.023598
20
0.084912
30
0.0
11
0.022577
21
0.084257
31
0.0
0
LINE
8
0
6
CONTINUOUS
10
0.024837
20
0.084550
30
0.0
11
0.023598
21
0.084912
31
0.0
0
LINE
8
0
6
CONTINUOUS
10
0.025055
20
0.083534
30
0.0
11
0.024837
21
0.084550
31
0.0
0
LINE
8
0
6
CONTINUOUS
10
0.030712
20
0.079642
30
0.0
11
0.030930
21
0.078625
31
0.0
0
LINE
8
0
6
CONTINUOUS
10
0.028453
20
0.079348
30
0.0
11
0.029474
21
0.080003
31
0.0
0
LINE
8
0
6
CONTINUOUS
10
0.028456
20
0.079944
30
0.0
11
0.028453
21
0.079348
31
0.0
0
LINE
8
0
6
CONTINUOUS
10
0.029909
20
0.077970
30
0.0
11
0.030930
21
0.078625
31
0.0
0
LINE
8
0
6
CONTINUOUS
10
0.028671
20
0.078332
30
0.0
11
0.029909
21
0.077970
31
0.0
0
LINE
8
0
6
CONTINUOUS
10
0.028453
20
0.079348
30
0.0
11
0.028671
21
0.078332
31
0.0
0
LINE
8
0
6
CONTINUOUS
10
0.029474
20
0.080003
30
0.0
11
0.028453
21
0.079348
31
0.0
0
LINE
8
0
6
CONTINUOUS
10
0.030712
20
0.079642
30
0.0
11
0.029474
21
0.080003
31
0.0
0
LINE
8
0
6
CONTINUOUS
10
0.030930
20
0.078625
30
0.0
11
0.030712
21
0.079642
31
0.0
0
LINE
8
0
6
CONTINUOUS
10
0.035041
20
0.073782
30
0.0
11
0.035259
21
0.072766
31
0.0
0
LINE
8
0
6
CONTINUOUS
10
0.033803
20
0.074143
30
0.0
11
0.035041
21
0.073782
31
0.0
0
LINE
8
0
6
CONTINUOUS
10
0.032782
20
0.073488
30
0.0
11
0.033803
21
0.074143
31
0.0
0
LINE
8
0
6
CONTINUOUS
10
0.032785
20
0.074074
30
0.0
11
0.032782
21
0.073488
31
0.0
0
LINE
8
0
6
CONTINUOUS
10
0.034238
20
0.072111
30
0.0
11
0.035259
21
0.072766
31
0.0
0
LINE
8
0
6
CONTINUOUS
10
0.033000
20
0.072472
30
0.0
11
0.034238
21
0.072111
31
0.0
0
LINE
8
0
6
CONTINUOUS
10
0.032782
20
0.073488
30
0.0
11
0.033000
21
0.072472
31
0.0
0
LINE
8
0
6
CONTINUOUS
10
0.033803
20
0.074143
30
0.0
11
0.032782
21
0.073488
31
0.0
0
LINE
8
0
6
CONTINUOUS
10
0.035041
20
0.073782
30
0.0
11
0.033803
21
0.074143
31
0.0
0
LINE
8
0
6
CONTINUOUS
10
0.035259
20
0.072766
30
0.0
11
0.035041
21
0.073782
31
0.0
0
LINE
8
0
6
CONTINUOUS
10
0.037582
20
0.067432
30
0.0
11
0.037799
21
0.066415
31
0.0
0
LINE
8
0
6
CONTINUOUS
10
0.036343
20
0.067793
30
0.0
11
0.037582
21
0.067432
31
0.0
0
LINE
8
0
6
CONTINUOUS
10
0.035322
20
0.067138
30
0.0
11
0.036343
21
0.067793
31
0.0
0
LINE
8
0
6
CONTINUOUS
10
0.035325
20
0.067715
30
0.0
11
0.035322
21
0.067138
31
0.0
0
LINE
8
0
6
CONTINUOUS
10
0.036779
20
0.065761
30
0.0
11
0.037799
21
0.066415
31
0.0
0
LINE
8
0
6
CONTINUOUS
10
0.035540
20
0.066122
30
0.0
11
0.036779
21
0.065761
31
0.0
0
LINE
8
0
6
CONTINUOUS
10
0.035322
20
0.067138
30
0.0
11
0.035540
21
0.066122
31
0.0
0
LINE
8
0
6
CONTINUOUS
10
0.036343
20
0.067793
30
0.0
11
0.035322
21
0.067138
31
0.0
0
LINE
8
0
6
CONTINUOUS
10
0.037582
20
0.067432
30
0.0
11
0.036343
21
0.067793
31
0.0
0
LINE
8
0
6
CONTINUOUS
10
0.037799
20
0.066415
30
0.0
11
0.037582
21
0.067432
31
0.0
0
LINE
8
0
6
CONTINUOUS
10
0.000562
20
0.049319
30
0.0
11
0.002022
21
0.049812
31
0.0
0
LINE
8
0
6
CONTINUOUS
10
0.000380
20
0.048087
30
0.0
11
0.000562
21
0.049319
31
0.0
0
LINE
8
0
6
CONTINUOUS
10
0.000373
20
0.048730
30
0.0
11
0.000380
21
0.048087
31
0.0
0
LINE
8
0
6
CONTINUOUS
10
0.000380
20
0.048087
30
0.0
11
0.001658
21
0.047348
31
0.0
0
LINE
8
0
6
CONTINUOUS
10
0.000562
20
0.049319
30
0.0
11
0.000380
21
0.048087
31
0.0
0
LINE
8
0
6
CONTINUOUS
10
0.002022
20
0.049812
30
0.0
11
0.000562
21
0.049319
31
0.0
0
LINE
8
0
6
CONTINUOUS
10
0.003301
20
0.049073
30
0.0
11
0.002022
21
0.049812
31
0.0
0
LINE
8
0
6
CONTINUOUS
10
0.003119
20
0.047841
30
0.0
11
0.003301
21
0.049073
31
0.0
0
LINE
8
0
6
CONTINUOUS
10
0.001658
20
0.047348
30
0.0
11
0.003119
21
0.047841
31
0.0
0
LINE
8
0
6
CONTINUOUS
10
0.003184
20
0.033690
30
0.0
11
0.004398
21
0.034099
31
0.0
0
LINE
8
0
6
CONTINUOUS
10
0.004398
20
0.034099
30
0.0
11
0.005460
21
0.033485
31
0.0
0
LINE
8
0
6
CONTINUOUS
10
0.003033
20
0.032666
30
0.0
11
0.003184
21
0.033690
31
0.0
0
LINE
8
0
6
CONTINUOUS
10
0.003028
20
0.033322
30
0.0
11
0.003033
21
0.032666
31
0.0
0
LINE
8
0
6
CONTINUOUS
10
0.003033
20
0.032666
30
0.0
11
0.004095
21
0.032052
31
0.0
0
LINE
8
0
6
CONTINUOUS
10
0.003184
20
0.033690
30
0.0
11
0.003033
21
0.032666
31
0.0
0
LINE
8
0
6
CONTINUOUS
10
0.004398
20
0.034099
30
0.0
11
0.003184
21
0.033690
31
0.0
0
LINE
8
0
6
CONTINUOUS
10
0.005460
20
0.033485
30
0.0
11
0.004398
21
0.034099
31
0.0
0
LINE
8
0
6
CONTINUOUS
10
0.005309
20
0.032462
30
0.0
11
0.005460
21
0.033485
31
0.0
0
LINE
8
0
6
CONTINUOUS
10
0.004095
20
0.032052
30
0.0
11
0.005309
21
0.032462
31
0.0
0
LINE
8
0
6
CONTINUOUS
10
0.002389
20
0.038959
30
0.0
11
0.003603
21
0.039368
31
0.0
0
LINE
8
0
6
CONTINUOUS
10
0.003603
20
0.039368
30
0.0
11
0.004665
21
0.038754
31
0.0
0
LINE
8
0
6
CONTINUOUS
10
0.002238
20
0.037935
30
0.0
11
0.002389
21
0.038959
31
0.0
0
LINE
8
0
6
CONTINUOUS
10
0.002233
20
0.038584
30
0.0
11
0.002238
21
0.037935
31
0.0
0
LINE
8
0
6
CONTINUOUS
10
0.002238
20
0.037935
30
0.0
11
0.003300
21
0.037321
31
0.0
0
LINE
8
0
6
CONTINUOUS
10
0.002389
20
0.038959
30
0.0
11
0.002238
21
0.037935
31
0.0
0
LINE
8
0
6
CONTINUOUS
10
0.003603
20
0.039368
30
0.0
11
0.002389
21
0.038959
31
0.0
0
LINE
8
0
6
CONTINUOUS
10
0.004665
20
0.038754
30
0.0
11
0.003603
21
0.039368
31
0.0
0
LINE
8
0
6
CONTINUOUS
10
0.004514
20
0.037731
30
0.0
11
0.004665
21
0.038754
31
0.0
0
LINE
8
0
6
CONTINUOUS
10
0.003300
20
0.037321
30
0.0
11
0.004514
21
0.037731
31
0.0
0
LINE
8
0
6
CONTINUOUS
10
0.002837
20
0.044347
30
0.0
11
0.004252
21
0.044825
31
0.0
0
LINE
8
0
6
CONTINUOUS
10
0.004252
20
0.044825
30
0.0
11
0.005490
21
0.044109
31
0.0
0
LINE
8
0
6
CONTINUOUS
10
0.002661
20
0.043154
30
0.0
11
0.002837
21
0.044347
31
0.0
0
LINE
8
0
6
CONTINUOUS
10
0.002655
20
0.043810
30
0.0
11
0.002661
21
0.043154
31
0.0
0
LINE
8
0
6
CONTINUOUS
10
0.002661
20
0.043154
30
0.0
11
0.003899
21
0.042439
31
0.0
0
LINE
8
0
6
CONTINUOUS
10
0.002837
20
0.044347
30
0.0
11
0.002661
21
0.043154
31
0.0
0
LINE
8
0
6
CONTINUOUS
10
0.004252
20
0.044825
30
0.0
11
0.002837
21
0.044347
31
0.0
0
LINE
8
0
6
CONTINUOUS
10
0.005490
20
0.044109
30
0.0
11
0.004252
21
0.044825
31
0.0
0
LINE
8
0
6
CONTINUOUS
10
0.005314
20
0.042916
30
0.0
11
0.005490
21
0.044109
31
0.0
0
LINE
8
0
6
CONTINUOUS
10
0.003899
20
0.042439
30
0.0
11
0.005314
21
0.042916
31
0.0
0
LINE
8
0
6
CONTINUOUS
10
0.011625
20
0.035418
30
0.0
11
0.012838
21
0.035828
31
0.0
0
LINE
8
0
6
CONTINUOUS
10
0.011474
20
0.034395
30
0.0
11
0.011625
21
0.035418
31
0.0
0
LINE
8
0
6
CONTINUOUS
10
0.011468
20
0.035034
30
0.0
11
0.011474
21
0.034395
31
0.0
0
LINE
8
0
6
CONTINUOUS
10
0.011474
20
0.034395
30
0.0
11
0.012536
21
0.033781
31
0.0
0
LINE
8
0
6
CONTINUOUS
10
0.011625
20
0.035418
30
0.0
11
0.011474
21
0.034395
31
0.0
0
LINE
8
0
6
CONTINUOUS
10
0.012838
20
0.035828
30
0.0
11
0.011625
21
0.035418
31
0.0
0
LINE
8
0
6
CONTINUOUS
10
0.013901
20
0.035214
30
0.0
11
0.012838
21
0.035828
31
0.0
0
LINE
8
0
6
CONTINUOUS
10
0.013749
20
0.034190
30
0.0
11
0.013901
21
0.035214
31
0.0
0
LINE
8
0
6
CONTINUOUS
10
0.012536
20
0.033781
30
0.0
11
0.013749
21
0.034190
31
0.0
0
LINE
8
0
6
CONTINUOUS
10
0.010830
20
0.040699
30
0.0
11
0.012044
21
0.041108
31
0.0
0
LINE
8
0
6
CONTINUOUS
10
0.012044
20
0.041108
30
0.0
11
0.013106
21
0.040494
31
0.0
0
LINE
8
0
6
CONTINUOUS
10
0.010679
20
0.039675
30
0.0
11
0.010830
21
0.040699
31
0.0
0
LINE
8
0
6
CONTINUOUS
10
0.010674
20
0.040313
30
0.0
11
0.010679
21
0.039675
31
0.0
0
LINE
8
0
6
CONTINUOUS
10
0.010679
20
0.039675
30
0.0
11
0.011741
21
0.039061
31
0.0
0
LINE
8
0
6
CONTINUOUS
10
0.010830
20
0.040699
30
0.0
11
0.010679
21
0.039675
31
0.0
0
LINE
8
0
6
CONTINUOUS
10
0.012044
20
0.041108
30
0.0
11
0.010830
21
0.040699
31
0.0
0
LINE
8
0
6
CONTINUOUS
10
0.013106
20
0.040494
30
0.0
11
0.012044
21
0.041108
31
0.0
0
LINE
8
0
6
CONTINUOUS
10
0.012955
20
0.039471
30
0.0
11
0.013106
21
0.040494
31
0.0
0
LINE
8
0
6
CONTINUOUS
10
0.011741
20
0.039061
30
0.0
11
0.012955
21
0.039471
31
0.0
0
LINE
8
0
6
CONTINUOUS
10
0.010779
20
0.046680
30
0.0
11
0.012193
21
0.047158
31
0.0
0
LINE
8
0
6
CONTINUOUS
10
0.012193
20
0.047158
30
0.0
11
0.013431
21
0.046442
31
0.0
0
LINE
8
0
6
CONTINUOUS
10
0.010602
20
0.045487
30
0.0
11
0.010779
21
0.046680
31
0.0
0
LINE
8
0
6
CONTINUOUS
10
0.010596
20
0.046109
30
0.0
11
0.010602
21
0.045487
31
0.0
0
LINE
8
0
6
CONTINUOUS
10
0.010602
20
0.045487
30
0.0
11
0.011841
21
0.044772
31
0.0
0
LINE
8
0
6
CONTINUOUS
10
0.010779
20
0.046680
30
0.0
11
0.010602
21
0.045487
31
0.0
0
LINE
8
0
6
CONTINUOUS
10
0.012193
20
0.047158
30
0.0
11
0.010779
21
0.046680
31
0.0
0
LINE
8
0
6
CONTINUOUS
10
0.013431
20
0.046442
30
0.0
11
0.012193
21
0.047158
31
0.0
0
LINE
8
0
6
CONTINUOUS
10
0.013255
20
0.045249
30
0.0
11
0.013431
21
0.046442
31
0.0
0
LINE
8
0
6
CONTINUOUS
10
0.011841
20
0.044772
30
0.0
11
0.013255
21
0.045249
31
0.0
0
LINE
8
0
6
CONTINUOUS
10
0.008336
20
0.051649
30
0.0
11
0.009796
21
0.052142
31
0.0
0
LINE
8
0
6
CONTINUOUS
10
0.008154
20
0.050417
30
0.0
11
0.008336
21
0.051649
31
0.0
0
LINE
8
0
6
CONTINUOUS
10
0.008148
20
0.051045
30
0.0
11
0.008154
21
0.050417
31
0.0
0
LINE
8
0
6
CONTINUOUS
10
0.008154
20
0.050417
30
0.0
11
0.009432
21
0.049678
31
0.0
0
LINE
8
0
6
CONTINUOUS
10
0.008336
20
0.051649
30
0.0
11
0.008154
21
0.050417
31
0.0
0
LINE
8
0
6
CONTINUOUS
10
0.009796
20
0.052142
30
0.0
11
0.008336
21
0.051649
31
0.0
0
LINE
8
0
6
CONTINUOUS
10
0.011075
20
0.051403
30
0.0
11
0.009796
21
0.052142
31
0.0
0
LINE
8
0
6
CONTINUOUS
10
0.010893
20
0.050171
30
0.0
11
0.011075
21
0.051403
31
0.0
0
LINE
8
0
6
CONTINUOUS
10
0.009432
20
0.049678
30
0.0
11
0.010893
21
0.050171
31
0.0
0
LINE
8
0
6
CONTINUOUS
10
0.013394
20
0.056860
30
0.0
11
0.014854
21
0.057353
31
0.0
0
LINE
8
0
6
CONTINUOUS
10
0.014854
20
0.057353
30
0.0
11
0.016132
21
0.056614
31
0.0
0
LINE
8
0
6
CONTINUOUS
10
0.013212
20
0.055628
30
0.0
11
0.014490
21
0.054889
31
0.0
0
LINE
8
0
6
CONTINUOUS
10
0.013394
20
0.056860
30
0.0
11
0.013212
21
0.055628
31
0.0
0
LINE
8
0
6
CONTINUOUS
10
0.014854
20
0.057353
30
0.0
11
0.013394
21
0.056860
31
0.0
0
LINE
8
0
6
CONTINUOUS
10
0.016132
20
0.056614
30
0.0
11
0.014854
21
0.057353
31
0.0
0
LINE
8
0
6
CONTINUOUS
10
0.015950
20
0.055382
30
0.0
11
0.016132
21
0.056614
31
0.0
0
LINE
8
0
6
CONTINUOUS
10
0.014490
20
0.054889
30
0.0
11
0.015950
21
0.055382
31
0.0
0
LINE
8
0
6
CONTINUOUS
10
0.016930
20
0.050067
30
0.0
11
0.018168
21
0.049352
31
0.0
0
LINE
8
0
6
CONTINUOUS
10
0.017106
20
0.051261
30
0.0
11
0.016930
21
0.050067
31
0.0
0
LINE
8
0
6
CONTINUOUS
10
0.018521
20
0.051738
30
0.0
11
0.017106
21
0.051261
31
0.0
0
LINE
8
0
6
CONTINUOUS
10
0.019759
20
0.051022
30
0.0
11
0.018521
21
0.051738
31
0.0
0
LINE
8
0
6
CONTINUOUS
10
0.019583
20
0.049829
30
0.0
11
0.019759
21
0.051022
31
0.0
0
LINE
8
0
6
CONTINUOUS
10
0.018168
20
0.049352
30
0.0
11
0.019583
21
0.049829
31
0.0
0
LINE
8
0
6
CONTINUOUS
10
0.021021
20
0.057031
30
0.0
11
0.022436
21
0.057508
31
0.0
0
LINE
8
0
6
CONTINUOUS
10
0.020845
20
0.055837
30
0.0
11
0.021021
21
0.057031
31
0.0
0
LINE
8
0
6
CONTINUOUS
10
0.020839
20
0.056416
30
0.0
11
0.020845
21
0.055837
31
0.0
0
LINE
8
0
6
CONTINUOUS
10
0.020845
20
0.055837
30
0.0
11
0.022083
21
0.055122
31
0.0
0
LINE
8
0
6
CONTINUOUS
10
0.021021
20
0.057031
30
0.0
11
0.020845
21
0.055837
31
0.0
0
LINE
8
0
6
CONTINUOUS
10
0.022436
20
0.057508
30
0.0
11
0.021021
21
0.057031
31
0.0
0
LINE
8
0
6
CONTINUOUS
10
0.023674
20
0.056792
30
0.0
11
0.022436
21
0.057508
31
0.0
0
LINE
8
0
6
CONTINUOUS
10
0.023498
20
0.055599
30
0.0
11
0.023674
21
0.056792
31
0.0
0
LINE
8
0
6
CONTINUOUS
10
0.022083
20
0.055122
30
0.0
11
0.023498
21
0.055599
31
0.0
0
LINE
8
0
6
CONTINUOUS
10
0.017971
20
0.044147
30
0.0
11
0.019185
21
0.044557
31
0.0
0
LINE
8
0
6
CONTINUOUS
10
0.019185
20
0.044557
30
0.0
11
0.020247
21
0.043943
31
0.0
0
LINE
8
0
6
CONTINUOUS
10
0.017820
20
0.043124
30
0.0
11
0.017971
21
0.044147
31
0.0
0
LINE
8
0
6
CONTINUOUS
10
0.017815
20
0.043746
30
0.0
11
0.017820
21
0.043124
31
0.0
0
LINE
8
0
6
CONTINUOUS
10
0.017820
20
0.043124
30
0.0
11
0.018882
21
0.042510
31
0.0
0
LINE
8
0
6
CONTINUOUS
10
0.017971
20
0.044147
30
0.0
11
0.017820
21
0.043124
31
0.0
0
LINE
8
0
6
CONTINUOUS
10
0.019185
20
0.044557
30
0.0
11
0.017971
21
0.044147
31
0.0
0
LINE
8
0
6
CONTINUOUS
10
0.020247
20
0.043943
30
0.0
11
0.019185
21
0.044557
31
0.0
0
LINE
8
0
6
CONTINUOUS
10
0.020096
20
0.042919
30
0.0
11
0.020247
21
0.043943
31
0.0
0
LINE
8
0
6
CONTINUOUS
10
0.018882
20
0.042510
30
0.0
11
0.020096
21
0.042919
31
0.0
0
LINE
8
0
6
CONTINUOUS
10
0.023726
20
0.049026
30
0.0
11
0.024940
21
0.049435
31
0.0
0
LINE
8
0
6
CONTINUOUS
10
0.024940
20
0.049435
30
0.0
11
0.026002
21
0.048821
31
0.0
0
LINE
8
0
6
CONTINUOUS
10
0.023575
20
0.048002
30
0.0
11
0.023726
21
0.049026
31
0.0
0
LINE
8
0
6
CONTINUOUS
10
0.023570
20
0.048607
30
0.0
11
0.023575
21
0.048002
31
0.0
0
LINE
8
0
6
CONTINUOUS
10
0.023575
20
0.048002
30
0.0
11
0.024637
21
0.047388
31
0.0
0
LINE
8
0
6
CONTINUOUS
10
0.023726
20
0.049026
30
0.0
11
0.023575
21
0.048002
31
0.0
0
LINE
8
0
6
CONTINUOUS
10
0.024940
20
0.049435
30
0.0
11
0.023726
21
0.049026
31
0.0
0
LINE
8
0
6
CONTINUOUS
10
0.026002
20
0.048821
30
0.0
11
0.024940
21
0.049435
31
0.0
0
LINE
8
0
6
CONTINUOUS
10
0.025851
20
0.047798
30
0.0
11
0.026002
21
0.048821
31
0.0
0
LINE
8
0
6
CONTINUOUS
10
0.024637
20
0.047388
30
0.0
11
0.025851
21
0.047798
31
0.0
0
LINE
8
0
6
CONTINUOUS
10
0.027691
20
0.055108
30
0.0
11
0.028905
21
0.055518
31
0.0
0
LINE
8
0
6
CONTINUOUS
10
0.028905
20
0.055518
30
0.0
11
0.029967
21
0.054904
31
0.0
0
LINE
8
0
6
CONTINUOUS
10
0.027540
20
0.054085
30
0.0
11
0.027691
21
0.055108
31
0.0
0
LINE
8
0
6
CONTINUOUS
10
0.027535
20
0.054681
30
0.0
11
0.027540
21
0.054085
31
0.0
0
LINE
8
0
6
CONTINUOUS
10
0.027540
20
0.054085
30
0.0
11
0.028602
21
0.053471
31
0.0
0
LINE
8
0
6
CONTINUOUS
10
0.027691
20
0.055108
30
0.0
11
0.027540
21
0.054085
31
0.0
0
LINE
8
0
6
CONTINUOUS
10
0.028905
20
0.055518
30
0.0
11
0.027691
21
0.055108
31
0.0
0
LINE
8
0
6
CONTINUOUS
10
0.029967
20
0.054904
30
0.0
11
0.028905
21
0.055518
31
0.0
0
LINE
8
0
6
CONTINUOUS
10
0.029816
20
0.053880
30
0.0
11
0.029967
21
0.054904
31
0.0
0
LINE
8
0
6
CONTINUOUS
10
0.028602
20
0.053471
30
0.0
11
0.029816
21
0.053880
31
0.0
0
LINE
8
0
6
CONTINUOUS
10
0.036580
20
0.054212
30
0.0
11
0.036650
21
0.053183
31
0.0
0
LINE
8
0
6
CONTINUOUS
10
0.034363
20
0.053089
30
0.0
11
0.035542
21
0.052622
31
0.0
0
LINE
8
0
6
CONTINUOUS
10
0.034293
20
0.054118
30
0.0
11
0.034363
21
0.053089
31
0.0
0
LINE
8
0
6
CONTINUOUS
10
0.035401
20
0.054679
30
0.0
11
0.034293
21
0.054118
31
0.0
0
LINE
8
0
6
CONTINUOUS
10
0.036580
20
0.054212
30
0.0
11
0.035401
21
0.054679
31
0.0
0
LINE
8
0
6
CONTINUOUS
10
0.036650
20
0.053183
30
0.0
11
0.036580
21
0.054212
31
0.0
0
LINE
8
0
6
CONTINUOUS
10
0.035542
20
0.052622
30
0.0
11
0.036650
21
0.053183
31
0.0
0
LINE
8
0
6
CONTINUOUS
10
0.030937
20
0.046931
30
0.0
11
0.032116
21
0.046464
31
0.0
0
LINE
8
0
6
CONTINUOUS
10
0.030867
20
0.047960
30
0.0
11
0.030937
21
0.046931
31
0.0
0
LINE
8
0
6
CONTINUOUS
10
0.031976
20
0.048522
30
0.0
11
0.030867
21
0.047960
31
0.0
0
LINE
8
0
6
CONTINUOUS
10
0.033154
20
0.048055
30
0.0
11
0.031976
21
0.048522
31
0.0
0
LINE
8
0
6
CONTINUOUS
10
0.033225
20
0.047026
30
0.0
11
0.033154
21
0.048055
31
0.0
0
LINE
8
0
6
CONTINUOUS
10
0.032116
20
0.046464
30
0.0
11
0.033225
21
0.047026
31
0.0
0
LINE
8
0
6
CONTINUOUS
10
0.027987
20
0.042627
30
0.0
11
0.028057
21
0.041599
31
0.0
0
LINE
8
0
6
CONTINUOUS
10
0.025770
20
0.041504
30
0.0
11
0.026949
21
0.041037
31
0.0
0
LINE
8
0
6
CONTINUOUS
10
0.025700
20
0.042533
30
0.0
11
0.025770
21
0.041504
31
0.0
0
LINE
8
0
6
CONTINUOUS
10
0.026808
20
0.043095
30
0.0
11
0.025700
21
0.042533
31
0.0
0
LINE
8
0
6
CONTINUOUS
10
0.027987
20
0.042627
30
0.0
11
0.026808
21
0.043095
31
0.0
0
LINE
8
0
6
CONTINUOUS
10
0.028057
20
0.041599
30
0.0
11
0.027987
21
0.042627
31
0.0
0
LINE
8
0
6
CONTINUOUS
10
0.026949
20
0.041037
30
0.0
11
0.028057
21
0.041599
31
0.0
0
LINE
8
0
6
CONTINUOUS
10
0.019304
20
0.037157
30
0.0
11
0.020483
21
0.036690
31
0.0
0
LINE
8
0
6
CONTINUOUS
10
0.019234
20
0.038186
30
0.0
11
0.019304
21
0.037157
31
0.0
0
LINE
8
0
6
CONTINUOUS
10
0.020343
20
0.038747
30
0.0
11
0.019234
21
0.038186
31
0.0
0
LINE
8
0
6
CONTINUOUS
10
0.021522
20
0.038280
30
0.0
11
0.020343
21
0.038747
31
0.0
0
LINE
8
0
6
CONTINUOUS
10
0.021592
20
0.037251
30
0.0
11
0.021522
21
0.038280
31
0.0
0
LINE
8
0
6
CONTINUOUS
10
0.020483
20
0.036690
30
0.0
11
0.021592
21
0.037251
31
0.0
0
LINE
8
0
6
CONTINUOUS
10
0.005782
20
0.073726
30
0.0
11
0.007350
21
0.073511
31
0.0
0
LINE
8
0
6
CONTINUOUS
10
0.007350
20
0.073511
30
0.0
11
0.007894
21
0.072345
31
0.0
0
LINE
8
0
6
CONTINUOUS
10
0.007894
20
0.072345
30
0.0
11
0.007350
21
0.073511
31
0.0
0
LINE
8
0
6
CONTINUOUS
10
0.006871
20
0.071396
30
0.0
11
0.007894
21
0.072345
31
0.0
0
LINE
8
0
6
CONTINUOUS
10
0.005304
20
0.071611
30
0.0
11
0.006871
21
0.071396
31
0.0
0
LINE
8
0
6
CONTINUOUS
10
0.004759
20
0.072776
30
0.0
11
0.005304
21
0.071611
31
0.0
0
LINE
8
0
6
CONTINUOUS
10
0.005782
20
0.073726
30
0.0
11
0.004759
21
0.072776
31
0.0
0
LINE
8
0
6
CONTINUOUS
10
0.007350
20
0.073511
30
0.0
11
0.005782
21
0.073726
31
0.0
0
LINE
8
0
6
CONTINUOUS
10
0.016362
20
0.088665
30
0.0
11
0.017664
21
0.088486
31
0.0
0
LINE
8
0
6
CONTINUOUS
10
0.015512
20
0.087876
30
0.0
11
0.016362
21
0.088665
31
0.0
0
LINE
8
0
6
CONTINUOUS
10
0.015519
20
0.088498
30
0.0
11
0.015512
21
0.087876
31
0.0
0
LINE
8
0
6
CONTINUOUS
10
0.017664
20
0.088486
30
0.0
11
0.018117
21
0.087518
31
0.0
0
LINE
8
0
6
CONTINUOUS
10
0.018117
20
0.087518
30
0.0
11
0.017664
21
0.088486
31
0.0
0
LINE
8
0
6
CONTINUOUS
10
0.017267
20
0.086729
30
0.0
11
0.018117
21
0.087518
31
0.0
0
LINE
8
0
6
CONTINUOUS
10
0.015964
20
0.086908
30
0.0
11
0.017267
21
0.086729
31
0.0
0
LINE
8
0
6
CONTINUOUS
10
0.015512
20
0.087876
30
0.0
11
0.015964
21
0.086908
31
0.0
0
LINE
8
0
6
CONTINUOUS
10
0.016362
20
0.088665
30
0.0
11
0.015512
21
0.087876
31
0.0
0
LINE
8
0
6
CONTINUOUS
10
0.017664
20
0.088486
30
0.0
11
0.016362
21
0.088665
31
0.0
0
LINE
8
0
6
CONTINUOUS
10
0.014408
20
0.082588
30
0.0
11
0.013956
21
0.083556
31
0.0
0
LINE
8
0
6
CONTINUOUS
10
0.013558
20
0.081799
30
0.0
11
0.014408
21
0.082588
31
0.0
0
LINE
8
0
6
CONTINUOUS
10
0.012256
20
0.081978
30
0.0
11
0.013558
21
0.081799
31
0.0
0
LINE
8
0
6
CONTINUOUS
10
0.011803
20
0.082946
30
0.0
11
0.012256
21
0.081978
31
0.0
0
LINE
8
0
6
CONTINUOUS
10
0.012654
20
0.083735
30
0.0
11
0.011803
21
0.082946
31
0.0
0
LINE
8
0
6
CONTINUOUS
10
0.013956
20
0.083556
30
0.0
11
0.012654
21
0.083735
31
0.0
0
LINE
8
0
6
CONTINUOUS
10
0.009849
20
0.077762
30
0.0
11
0.009322
21
0.078891
31
0.0
0
LINE
8
0
6
CONTINUOUS
10
0.008858
20
0.076842
30
0.0
11
0.009849
21
0.077762
31
0.0
0
LINE
8
0
6
CONTINUOUS
10
0.007340
20
0.077051
30
0.0
11
0.008858
21
0.076842
31
0.0
0
LINE
8
0
6
CONTINUOUS
10
0.006813
20
0.078180
30
0.0
11
0.007340
21
0.077051
31
0.0
0
LINE
8
0
6
CONTINUOUS
10
0.007804
20
0.079099
30
0.0
11
0.006813
21
0.078180
31
0.0
0
LINE
8
0
6
CONTINUOUS
10
0.009322
20
0.078891
30
0.0
11
0.007804
21
0.079099
31
0.0
0
LINE
8
0
6
CONTINUOUS
10
0.009387
20
0.090645
30
0.0
11
0.009840
21
0.089676
31
0.0
0
LINE
8
0
6
CONTINUOUS
10
0.009840
20
0.089676
30
0.0
11
0.009387
21
0.090645
31
0.0
0
LINE
8
0
6
CONTINUOUS
10
0.008990
20
0.088887
30
0.0
11
0.009840
21
0.089676
31
0.0
0
LINE
8
0
6
CONTINUOUS
10
0.007687
20
0.089066
30
0.0
11
0.008990
21
0.088887
31
0.0
0
LINE
8
0
6
CONTINUOUS
10
0.007235
20
0.090035
30
0.0
11
0.007687
21
0.089066
31
0.0
0
LINE
8
0
6
CONTINUOUS
10
0.008085
20
0.090824
30
0.0
11
0.007235
21
0.090035
31
0.0
0
LINE
8
0
6
CONTINUOUS
10
0.009387
20
0.090645
30
0.0
11
0.008085
21
0.090824
31
0.0
0
LINE
8
0
6
CONTINUOUS
10
0.004811
20
0.085562
30
0.0
11
0.006113
21
0.085383
31
0.0
0
LINE
8
0
6
CONTINUOUS
10
0.003961
20
0.084773
30
0.0
11
0.004811
21
0.085562
31
0.0
0
LINE
8
0
6
CONTINUOUS
10
0.003968
20
0.085415
30
0.0
11
0.003961
21
0.084773
31
0.0
0
LINE
8
0
6
CONTINUOUS
10
0.006113
20
0.085383
30
0.0
11
0.006565
21
0.084415
31
0.0
0
LINE
8
0
6
CONTINUOUS
10
0.006565
20
0.084415
30
0.0
11
0.006113
21
0.085383
31
0.0
0
LINE
8
0
6
CONTINUOUS
10
0.005715
20
0.083626
30
0.0
11
0.006565
21
0.084415
31
0.0
0
LINE
8
0
6
CONTINUOUS
10
0.004413
20
0.083805
30
0.0
11
0.005715
21
0.083626
31
0.0
0
LINE
8
0
6
CONTINUOUS
10
0.003961
20
0.084773
30
0.0
11
0.004413
21
0.083805
31
0.0
0
LINE
8
0
6
CONTINUOUS
10
0.004811
20
0.085562
30
0.0
11
0.003961
21
0.084773
31
0.0
0
LINE
8
0
6
CONTINUOUS
10
0.006113
20
0.085383
30
0.0
11
0.004811
21
0.085562
31
0.0
0
LINE
8
0
6
CONTINUOUS
10
-0.000472
20
0.080294
30
0.0
11
0.001047
21
0.080085
31
0.0
0
LINE
8
0
6
CONTINUOUS
10
-0.001462
20
0.079374
30
0.0
11
-0.000472
21
0.080294
31
0.0
0
LINE
8
0
6
CONTINUOUS
10
-0.001454
20
0.080033
30
0.0
11
-0.001462
21
0.079374
31
0.0
0
LINE
8
0
6
CONTINUOUS
10
0.001047
20
0.080085
30
0.0
11
0.001574
21
0.078956
31
0.0
0
LINE
8
0
6
CONTINUOUS
10
0.001574
20
0.078956
30
0.0
11
0.001047
21
0.080085
31
0.0
0
LINE
8
0
6
CONTINUOUS
10
0.000583
20
0.078036
30
0.0
11
0.001574
21
0.078956
31
0.0
0
LINE
8
0
6
CONTINUOUS
10
-0.000935
20
0.078245
30
0.0
11
0.000583
21
0.078036
31
0.0
0
LINE
8
0
6
CONTINUOUS
10
-0.001462
20
0.079374
30
0.0
11
-0.000935
21
0.078245
31
0.0
0
LINE
8
0
6
CONTINUOUS
10
-0.000472
20
0.080294
30
0.0
11
-0.001462
21
0.079374
31
0.0
0
LINE
8
0
6
CONTINUOUS
10
0.001047
20
0.080085
30
0.0
11
-0.000472
21
0.080294
31
0.0
0
LINE
8
0
6
CONTINUOUS
10
-0.002500
20
0.074398
30
0.0
11
-0.000933
21
0.074183
31
0.0
0
LINE
8
0
6
CONTINUOUS
10
-0.003523
20
0.073449
30
0.0
11
-0.002500
21
0.074398
31
0.0
0
LINE
8
0
6
CONTINUOUS
10
-0.003514
20
0.074096
30
0.0
11
-0.003523
21
0.073449
31
0.0
0
LINE
8
0
6
CONTINUOUS
10
-0.000933
20
0.074183
30
0.0
11
-0.000388
21
0.073018
31
0.0
0
LINE
8
0
6
CONTINUOUS
10
-0.000388
20
0.073018
30
0.0
11
-0.000933
21
0.074183
31
0.0
0
LINE
8
0
6
CONTINUOUS
10
-0.001411
20
0.072068
30
0.0
11
-0.000388
21
0.073018
31
0.0
0
LINE
8
0
6
CONTINUOUS
10
-0.002979
20
0.072284
30
0.0
11
-0.001411
21
0.072068
31
0.0
0
LINE
8
0
6
CONTINUOUS
10
-0.003523
20
0.073449
30
0.0
11
-0.002979
21
0.072284
31
0.0
0
LINE
8
0
6
CONTINUOUS
10
-0.002500
20
0.074398
30
0.0
11
-0.003523
21
0.073449
31
0.0
0
LINE
8
0
6
CONTINUOUS
10
-0.000933
20
0.074183
30
0.0
11
-0.002500
21
0.074398
31
0.0
0
LINE
8
0
6
CONTINUOUS
10
-0.010313
20
0.072109
30
0.0
11
-0.008745
21
0.071893
31
0.0
0
LINE
8
0
6
CONTINUOUS
10
-0.008745
20
0.071893
30
0.0
11
-0.008201
21
0.070728
31
0.0
0
LINE
8
0
6
CONTINUOUS
10
-0.008201
20
0.070728
30
0.0
11
-0.008745
21
0.071893
31
0.0
0
LINE
8
0
6
CONTINUOUS
10
-0.009224
20
0.069778
30
0.0
11
-0.008201
21
0.070728
31
0.0
0
LINE
8
0
6
CONTINUOUS
10
-0.010791
20
0.069994
30
0.0
11
-0.009224
21
0.069778
31
0.0
0
LINE
8
0
6
CONTINUOUS
10
-0.011336
20
0.071159
30
0.0
11
-0.010791
21
0.069994
31
0.0
0
LINE
8
0
6
CONTINUOUS
10
-0.010313
20
0.072109
30
0.0
11
-0.011336
21
0.071159
31
0.0
0
LINE
8
0
6
CONTINUOUS
10
-0.008745
20
0.071893
30
0.0
11
-0.010313
21
0.072109
31
0.0
0
LINE
8
0
6
CONTINUOUS
10
-0.008757
20
0.079190
30
0.0
11
-0.007239
21
0.078982
31
0.0
0
LINE
8
0
6
CONTINUOUS
10
-0.009748
20
0.078271
30
0.0
11
-0.008757
21
0.079190
31
0.0
0
LINE
8
0
6
CONTINUOUS
10
-0.009739
20
0.078946
30
0.0
11
-0.009748
21
0.078271
31
0.0
0
LINE
8
0
6
CONTINUOUS
10
-0.007239
20
0.078982
30
0.0
11
-0.006711
21
0.077853
31
0.0
0
LINE
8
0
6
CONTINUOUS
10
-0.006711
20
0.077853
30
0.0
11
-0.007239
21
0.078982
31
0.0
0
LINE
8
0
6
CONTINUOUS
10
-0.007702
20
0.076933
30
0.0
11
-0.006711
21
0.077853
31
0.0
0
LINE
8
0
6
CONTINUOUS
10
-0.009220
20
0.077142
30
0.0
11
-0.007702
21
0.076933
31
0.0
0
LINE
8
0
6
CONTINUOUS
10
-0.009748
20
0.078271
30
0.0
11
-0.009220
21
0.077142
31
0.0
0
LINE
8
0
6
CONTINUOUS
10
-0.008757
20
0.079190
30
0.0
11
-0.009748
21
0.078271
31
0.0
0
LINE
8
0
6
CONTINUOUS
10
-0.007239
20
0.078982
30
0.0
11
-0.008757
21
0.079190
31
0.0
0
LINE
8
0
6
CONTINUOUS
10
-0.016101
20
0.075687
30
0.0
11
-0.014583
21
0.075478
31
0.0
0
LINE
8
0
6
CONTINUOUS
10
-0.017092
20
0.074767
30
0.0
11
-0.016101
21
0.075687
31
0.0
0
LINE
8
0
6
CONTINUOUS
10
-0.017083
20
0.075468
30
0.0
11
-0.017092
21
0.074767
31
0.0
0
LINE
8
0
6
CONTINUOUS
10
-0.014056
20
0.074350
30
0.0
11
-0.014583
21
0.075478
31
0.0
0
LINE
8
0
6
CONTINUOUS
10
-0.015046
20
0.073430
30
0.0
11
-0.014056
21
0.074350
31
0.0
0
LINE
8
0
6
CONTINUOUS
10
-0.016565
20
0.073639
30
0.0
11
-0.015046
21
0.073430
31
0.0
0
LINE
8
0
6
CONTINUOUS
10
-0.017092
20
0.074767
30
0.0
11
-0.016565
21
0.073639
31
0.0
0
LINE
8
0
6
CONTINUOUS
10
-0.016101
20
0.075687
30
0.0
11
-0.017092
21
0.074767
31
0.0
0
LINE
8
0
6
CONTINUOUS
10
-0.014583
20
0.075478
30
0.0
11
-0.016101
21
0.075687
31
0.0
0
LINE
8
0
6
CONTINUOUS
10
-0.002821
20
0.085570
30
0.0
11
-0.002369
21
0.084601
31
0.0
0
LINE
8
0
6
CONTINUOUS
10
-0.002369
20
0.084601
30
0.0
11
-0.002821
21
0.085570
31
0.0
0
LINE
8
0
6
CONTINUOUS
10
-0.003219
20
0.083812
30
0.0
11
-0.002369
21
0.084601
31
0.0
0
LINE
8
0
6
CONTINUOUS
10
-0.004521
20
0.083991
30
0.0
11
-0.003219
21
0.083812
31
0.0
0
LINE
8
0
6
CONTINUOUS
10
-0.004974
20
0.084960
30
0.0
11
-0.004521
21
0.083991
31
0.0
0
LINE
8
0
6
CONTINUOUS
10
-0.004123
20
0.085749
30
0.0
11
-0.004974
21
0.084960
31
0.0
0
LINE
8
0
6
CONTINUOUS
10
-0.002821
20
0.085570
30
0.0
11
-0.004123
21
0.085749
31
0.0
0
LINE
8
0
6
CONTINUOUS
10
-0.012468
20
0.084158
30
0.0
11
-0.011165
21
0.083979
31
0.0
0
LINE
8
0
6
CONTINUOUS
10
-0.013318
20
0.083369
30
0.0
11
-0.012468
21
0.084158
31
0.0
0
LINE
8
0
6
CONTINUOUS
10
-0.013310
20
0.084033
30
0.0
11
-0.013318
21
0.083369
31
0.0
0
LINE
8
0
6
CONTINUOUS
10
-0.011165
20
0.083979
30
0.0
11
-0.010713
21
0.083011
31
0.0
0
LINE
8
0
6
CONTINUOUS
10
-0.010713
20
0.083011
30
0.0
11
-0.011165
21
0.083979
31
0.0
0
LINE
8
0
6
CONTINUOUS
10
-0.011563
20
0.082222
30
0.0
11
-0.010713
21
0.083011
31
0.0
0
LINE
8
0
6
CONTINUOUS
10
-0.012866
20
0.082401
30
0.0
11
-0.011563
21
0.082222
31
0.0
0
LINE
8
0
6
CONTINUOUS
10
-0.013318
20
0.083369
30
0.0
11
-0.012866
21
0.082401
31
0.0
0
LINE
8
0
6
CONTINUOUS
10
-0.012468
20
0.084158
30
0.0
11
-0.013318
21
0.083369
31
0.0
0
LINE
8
0
6
CONTINUOUS
10
-0.011165
20
0.083979
30
0.0
11
-0.012468
21
0.084158
31
0.0
0
LINE
8
0
6
CONTINUOUS
10
-0.019727
20
0.080566
30
0.0
11
-0.018425
21
0.080387
31
0.0
0
LINE
8
0
6
CONTINUOUS
10
-0.020577
20
0.079777
30
0.0
11
-0.019727
21
0.080566
31
0.0
0
LINE
8
0
6
CONTINUOUS
10
-0.020569
20
0.080458
30
0.0
11
-0.020577
21
0.079777
31
0.0
0
LINE
8
0
6
CONTINUOUS
10
-0.018425
20
0.080387
30
0.0
11
-0.017972
21
0.079419
31
0.0
0
LINE
8
0
6
CONTINUOUS
10
-0.017972
20
0.079419
30
0.0
11
-0.018425
21
0.080387
31
0.0
0
LINE
8
0
6
CONTINUOUS
10
-0.018822
20
0.078630
30
0.0
11
-0.017972
21
0.079419
31
0.0
0
LINE
8
0
6
CONTINUOUS
10
-0.020125
20
0.078809
30
0.0
11
-0.018822
21
0.078630
31
0.0
0
LINE
8
0
6
CONTINUOUS
10
-0.020577
20
0.079777
30
0.0
11
-0.020125
21
0.078809
31
0.0
0
LINE
8
0
6
CONTINUOUS
10
-0.019727
20
0.080566
30
0.0
11
-0.020577
21
0.079777
31
0.0
0
LINE
8
0
6
CONTINUOUS
10
-0.018425
20
0.080387
30
0.0
11
-0.019727
21
0.080566
31
0.0
0
LINE
8
0
6
CONTINUOUS
10
-0.017251
20
0.088470
30
0.0
11
-0.015929
21
0.088463
31
0.0
0
LINE
8
0
6
CONTINUOUS
10
-0.017920
20
0.087581
30
0.0
11
-0.017251
21
0.088470
31
0.0
0
LINE
8
0
6
CONTINUOUS
10
-0.017913
20
0.088262
30
0.0
11
-0.017920
21
0.087581
31
0.0
0
LINE
8
0
6
CONTINUOUS
10
-0.015929
20
0.088463
30
0.0
11
-0.015276
21
0.087567
31
0.0
0
LINE
8
0
6
CONTINUOUS
10
-0.015276
20
0.087567
30
0.0
11
-0.015929
21
0.088463
31
0.0
0
LINE
8
0
6
CONTINUOUS
10
-0.015945
20
0.086678
30
0.0
11
-0.015276
21
0.087567
31
0.0
0
LINE
8
0
6
CONTINUOUS
10
-0.017267
20
0.086686
30
0.0
11
-0.015945
21
0.086678
31
0.0
0
LINE
8
0
6
CONTINUOUS
10
-0.017920
20
0.087581
30
0.0
11
-0.017267
21
0.086686
31
0.0
0
LINE
8
0
6
CONTINUOUS
10
-0.017251
20
0.088470
30
0.0
11
-0.017920
21
0.087581
31
0.0
0
LINE
8
0
6
CONTINUOUS
10
-0.015929
20
0.088463
30
0.0
11
-0.017251
21
0.088470
31
0.0
0
LINE
8
0
6
CONTINUOUS
10
-0.009095
20
0.090785
30
0.0
11
-0.007773
21
0.090777
31
0.0
0
LINE
8
0
6
CONTINUOUS
10
-0.007773
20
0.090777
30
0.0
11
-0.007120
21
0.089882
31
0.0
0
LINE
8
0
6
CONTINUOUS
10
-0.007120
20
0.089882
30
0.0
11
-0.007773
21
0.090777
31
0.0
0
LINE
8
0
6
CONTINUOUS
10
-0.007789
20
0.088993
30
0.0
11
-0.007120
21
0.089882
31
0.0
0
LINE
8
0
6
CONTINUOUS
10
-0.009111
20
0.089000
30
0.0
11
-0.007789
21
0.088993
31
0.0
0
LINE
8
0
6
CONTINUOUS
10
-0.009764
20
0.089896
30
0.0
11
-0.009111
21
0.089000
31
0.0
0
LINE
8
0
6
CONTINUOUS
10
-0.009095
20
0.090785
30
0.0
11
-0.009764
21
0.089896
31
0.0
0
LINE
8
0
6
CONTINUOUS
10
-0.007773
20
0.090777
30
0.0
11
-0.009095
21
0.090785
31
0.0
0
LINE
8
0
6
CONTINUOUS
10
-0.001288
20
0.090761
30
0.0
11
-0.000619
21
0.091649
31
0.0
0
LINE
8
0
6
CONTINUOUS
10
-0.001281
20
0.091408
30
0.0
11
-0.001288
21
0.090761
31
0.0
0
LINE
8
0
6
CONTINUOUS
10
0.001357
20
0.090746
30
0.0
11
0.000704
21
0.091642
31
0.0
0
LINE
8
0
6
CONTINUOUS
10
0.000688
20
0.089858
30
0.0
11
0.001357
21
0.090746
31
0.0
0
LINE
8
0
6
CONTINUOUS
10
-0.000635
20
0.089865
30
0.0
11
0.000688
21
0.089858
31
0.0
0
LINE
8
0
6
CONTINUOUS
10
-0.001288
20
0.090761
30
0.0
11
-0.000635
21
0.089865
31
0.0
0
LINE
8
0
6
CONTINUOUS
10
-0.000619
20
0.091649
30
0.0
11
-0.001288
21
0.090761
31
0.0
0
LINE
8
0
6
CONTINUOUS
10
0.000704
20
0.091642
30
0.0
11
-0.000619
21
0.091649
31
0.0
0
LINE
8
0
6
CONTINUOUS
10
-0.016189
20
0.065299
30
0.0
11
-0.016171
21
0.066538
31
0.0
0
LINE
8
0
6
CONTINUOUS
10
-0.016191
20
0.065961
30
0.0
11
-0.016189
21
0.065299
31
0.0
0
LINE
8
0
6
CONTINUOUS
10
-0.016171
20
0.066538
30
0.0
11
-0.014784
21
0.067146
31
0.0
0
LINE
8
0
6
CONTINUOUS
10
-0.013415
20
0.066514
30
0.0
11
-0.013417
21
0.067126
31
0.0
0
LINE
8
0
6
CONTINUOUS
10
-0.014784
20
0.067146
30
0.0
11
-0.013415
21
0.066514
31
0.0
0
LINE
8
0
6
CONTINUOUS
10
-0.016171
20
0.066538
30
0.0
11
-0.016189
21
0.065299
31
0.0
0
LINE
8
0
6
CONTINUOUS
10
-0.014784
20
0.067146
30
0.0
11
-0.016171
21
0.066538
31
0.0
0
LINE
8
0
6
CONTINUOUS
10
-0.013415
20
0.066514
30
0.0
11
-0.014784
21
0.067146
31
0.0
0
LINE
8
0
6
CONTINUOUS
10
-0.013432
20
0.065274
30
0.0
11
-0.013415
21
0.066514
31
0.0
0
LINE
8
0
6
CONTINUOUS
10
-0.014820
20
0.064667
30
0.0
11
-0.013432
21
0.065274
31
0.0
0
LINE
8
0
6
CONTINUOUS
10
-0.016189
20
0.065299
30
0.0
11
-0.014820
21
0.064667
31
0.0
0
LINE
8
0
6
CONTINUOUS
10
0.009842
20
-0.114608
30
0.0
11
0.011346
21
-0.087715
31
0.0
0
LINE
8
0
6
CONTINUOUS
10
-0.012065
20
-0.087672
30
0.0
11
-0.010560
21
-0.114596
31
0.0
0
LINE
8
0
6
CONTINUOUS
10
-0.007570
20
-0.116810
30
0.0
11
-0.005467
21
-0.117201
31
0.0
0
LINE
8
0
6
CONTINUOUS
10
0.002252
20
-0.117450
30
0.0
11
0.004708
21
-0.117207
31
0.0
0
LINE
8
0
6
CONTINUOUS
10
0.009463
20
-0.115719
30
0.0
11
0.009816
21
-0.115084
31
0.0
0
LINE
8
0
6
CONTINUOUS
10
0.009816
20
-0.115084
30
0.0
11
0.009842
21
-0.114608
31
0.0
0
LINE
8
0
6
CONTINUOUS
10
-0.009182
20
-0.116300
30
0.0
11
-0.007570
21
-0.116810
31
0.0
0
LINE
8
0
6
CONTINUOUS
10
-0.000383
20
-0.117533
30
0.0
11
0.002252
21
-0.117450
31
0.0
0
LINE
8
0
6
CONTINUOUS
10
0.008441
20
-0.116310
30
0.0
11
0.009463
21
-0.115719
31
0.0
0
LINE
8
0
6
CONTINUOUS
10
-0.010193
20
-0.115708
30
0.0
11
-0.009182
21
-0.116300
31
0.0
0
LINE
8
0
6
CONTINUOUS
10
-0.003015
20
-0.117447
30
0.0
11
-0.000383
21
-0.117533
31
0.0
0
LINE
8
0
6
CONTINUOUS
10
0.006819
20
-0.116818
30
0.0
11
0.008441
21
-0.116310
31
0.0
0
LINE
8
0
6
CONTINUOUS
10
-0.010534
20
-0.115072
30
0.0
11
-0.010193
21
-0.115708
31
0.0
0
LINE
8
0
6
CONTINUOUS
10
-0.010560
20
-0.114596
30
0.0
11
-0.010534
21
-0.115072
31
0.0
0
LINE
8
0
6
CONTINUOUS
10
-0.005467
20
-0.117201
30
0.0
11
-0.003015
21
-0.117447
31
0.0
0
LINE
8
0
6
CONTINUOUS
10
0.004708
20
-0.117207
30
0.0
11
0.006819
21
-0.116818
31
0.0
0
LINE
8
0
6
CONTINUOUS
10
-0.013157
20
0.029236
30
0.0
11
-0.013130
21
0.020833
31
0.0
0
LINE
8
0
6
CONTINUOUS
10
-0.014722
20
0.018086
30
0.0
11
-0.014723
21
0.017713
31
0.0
0
LINE
8
0
6
CONTINUOUS
10
-0.014986
20
-0.085632
30
0.0
11
-0.014987
21
-0.086357
31
0.0
0
LINE
8
0
6
CONTINUOUS
10
-0.014987
20
-0.086357
30
0.0
11
-0.014452
21
-0.087150
31
0.0
0
LINE
8
0
6
CONTINUOUS
10
-0.014452
20
-0.087150
30
0.0
11
-0.011969
21
-0.087693
31
0.0
0
LINE
8
0
6
CONTINUOUS
10
-0.011470
20
-0.087748
30
0.0
11
-0.008284
21
-0.088101
31
0.0
0
LINE
8
0
6
CONTINUOUS
10
-0.004390
20
-0.088365
30
0.0
11
-0.000350
21
-0.088443
31
0.0
0
LINE
8
0
6
CONTINUOUS
10
-0.008284
20
-0.088101
30
0.0
11
-0.004390
21
-0.088365
31
0.0
0
LINE
8
0
6
CONTINUOUS
10
-0.013146
20
0.025976
30
0.0
11
-0.014376
21
0.024414
31
0.0
0
LINE
8
0
6
CONTINUOUS
10
-0.014376
20
0.024414
30
0.0
11
-0.014406
21
0.023976
31
0.0
0
LINE
8
0
6
CONTINUOUS
10
-0.014719
20
0.019260
30
0.0
11
-0.014722
21
0.018086
31
0.0
0
LINE
8
0
6
CONTINUOUS
10
-0.013130
20
0.020833
30
0.0
11
-0.013128
21
0.020415
31
0.0
0
LINE
8
0
6
CONTINUOUS
10
-0.014689
20
0.019716
30
0.0
11
-0.014719
21
0.019260
31
0.0
0
LINE
8
0
6
CONTINUOUS
10
-0.014406
20
0.023976
30
0.0
11
-0.014689
21
0.019716
31
0.0
0
LINE
8
0
6
CONTINUOUS
10
-0.011969
20
-0.087693
30
0.0
11
-0.011470
21
-0.087748
31
0.0
0
LINE
8
0
6
CONTINUOUS
10
-0.014723
20
0.017713
30
0.0
11
-0.014986
21
-0.085632
31
0.0
0
LINE
8
0
6
CONTINUOUS
10
0.012873
20
0.020789
30
0.0
11
0.012938
21
0.029184
31
0.0
0
LINE
8
0
6
CONTINUOUS
10
0.014455
20
0.017663
30
0.0
11
0.014455
21
0.018037
31
0.0
0
LINE
8
0
6
CONTINUOUS
10
0.013744
20
-0.087199
30
0.0
11
0.014275
21
-0.086407
31
0.0
0
LINE
8
0
6
CONTINUOUS
10
0.014275
20
-0.086407
30
0.0
11
0.014276
21
-0.085682
31
0.0
0
LINE
8
0
6
CONTINUOUS
10
0.011264
20
-0.087733
30
0.0
11
0.013744
21
-0.087199
31
0.0
0
LINE
8
0
6
CONTINUOUS
10
0.007581
20
-0.088128
30
0.0
11
0.010765
21
-0.087786
31
0.0
0
LINE
8
0
6
CONTINUOUS
10
-0.000350
20
-0.088443
30
0.0
11
0.003689
21
-0.088379
31
0.0
0
LINE
8
0
6
CONTINUOUS
10
0.003689
20
-0.088379
30
0.0
11
0.007581
21
-0.088128
31
0.0
0
LINE
8
0
6
CONTINUOUS
10
0.014118
20
0.024366
30
0.0
11
0.012913
21
0.025901
31
0.0
0
LINE
8
0
6
CONTINUOUS
10
0.014146
20
0.023927
30
0.0
11
0.014118
21
0.024366
31
0.0
0
LINE
8
0
6
CONTINUOUS
10
0.014455
20
0.018037
30
0.0
11
0.014457
21
0.019210
31
0.0
0
LINE
8
0
6
CONTINUOUS
10
0.012870
20
0.020371
30
0.0
11
0.012873
21
0.020789
31
0.0
0
LINE
8
0
6
CONTINUOUS
10
0.014457
20
0.019210
30
0.0
11
0.014427
21
0.019666
31
0.0
0
LINE
8
0
6
CONTINUOUS
10
0.014427
20
0.019666
30
0.0
11
0.014146
21
0.023927
31
0.0
0
LINE
8
0
6
CONTINUOUS
10
0.010765
20
-0.087786
30
0.0
11
0.011264
21
-0.087733
31
0.0
0
LINE
8
0
6
CONTINUOUS
10
0.014276
20
-0.085682
30
0.0
11
0.014455
21
0.017663
31
0.0
0
LINE
8
0
6
CONTINUOUS
10
-0.027680
20
0.090281
30
0.0
11
-0.019232
21
0.094398
31
0.0
0
LINE
8
0
6
CONTINUOUS
10
-0.019232
20
0.094398
30
0.0
11
-0.009817
21
0.096947
31
0.0
0
LINE
8
0
6
CONTINUOUS
10
-0.009817
20
0.096947
30
0.0
11
0.000089
21
0.097884
31
0.0
0
LINE
8
0
6
CONTINUOUS
10
0.000089
20
0.097884
30
0.0
11
0.009990
21
0.096913
31
0.0
0
LINE
8
0
6
CONTINUOUS
10
0.009990
20
0.096913
30
0.0
11
0.019447
21
0.094493
31
0.0
0
LINE
8
0
6
CONTINUOUS
10
0.034852
20
0.084684
30
0.0
11
0.040136
21
0.078101
31
0.0
0
LINE
8
0
6
CONTINUOUS
10
0.040136
20
0.078101
30
0.0
11
0.043409
21
0.070767
31
0.0
0
LINE
8
0
6
CONTINUOUS
10
0.043409
20
0.070767
30
0.0
11
0.044505
21
0.063049
31
0.0
0
LINE
8
0
6
CONTINUOUS
10
-0.043475
20
0.055503
30
0.0
11
-0.044508
21
0.063201
31
0.0
0
LINE
8
0
6
CONTINUOUS
10
-0.043659
20
0.056161
30
0.0
11
-0.043475
21
0.055503
31
0.0
0
LINE
8
0
6
CONTINUOUS
10
0.049765
20
0.073284
30
0.0
11
0.048540
21
0.081912
31
0.0
0
LINE
8
0
6
CONTINUOUS
10
0.050019
20
0.069012
30
0.0
11
0.049765
21
0.073284
31
0.0
0
LINE
8
0
6
CONTINUOUS
10
-0.048056
20
0.084057
30
0.0
11
-0.048492
21
0.082078
31
0.0
0
LINE
8
0
6
CONTINUOUS
10
-0.046626
20
0.087884
30
0.0
11
-0.047440
21
0.086000
31
0.0
0
LINE
8
0
6
CONTINUOUS
10
-0.043067
20
0.095757
30
0.0
11
-0.046626
21
0.087884
31
0.0
0
LINE
8
0
6
CONTINUOUS
10
0.048540
20
0.081912
30
0.0
11
0.048105
21
0.083893
31
0.0
0
LINE
8
0
6
CONTINUOUS
10
0.046676
20
0.087725
30
0.0
11
0.043158
21
0.095610
31
0.0
0
LINE
8
0
6
CONTINUOUS
10
0.047489
20
0.085839
30
0.0
11
0.046676
21
0.087725
31
0.0
0
LINE
8
0
6
CONTINUOUS
10
-0.049762
20
0.073453
30
0.0
11
-0.050019
21
0.069182
31
0.0
0
LINE
8
0
6
CONTINUOUS
10
-0.048492
20
0.082078
30
0.0
11
-0.049762
21
0.073453
31
0.0
0
LINE
8
0
6
CONTINUOUS
10
-0.047440
20
0.086000
30
0.0
11
-0.048056
21
0.084057
31
0.0
0
LINE
8
0
6
CONTINUOUS
10
0.048105
20
0.083893
30
0.0
11
0.047489
21
0.085839
31
0.0
0
LINE
8
0
6
CONTINUOUS
10
-0.050019
20
0.069182
30
0.0
11
-0.050019
21
0.069029
31
0.0
0
LINE
8
0
6
CONTINUOUS
10
0.050019
20
0.068858
30
0.0
11
0.050019
21
0.069012
31
0.0
0
LINE
8
0
6
CONTINUOUS
10
-0.050019
20
0.068813
30
0.0
11
-0.050019
21
0.068194
31
0.0
0
LINE
8
0
6
CONTINUOUS
10
0.050019
20
0.068023
30
0.0
11
0.050019
21
0.068642
31
0.0
0
LINE
8
0
6
CONTINUOUS
10
-0.044508
20
0.063201
30
0.0
11
-0.043435
21
0.070955
31
0.0
0
LINE
8
0
6
CONTINUOUS
10
0.019556
20
0.031724
30
0.0
11
0.009982
21
0.029132
31
0.0
0
LINE
8
0
6
CONTINUOUS
10
0.009982
20
0.029132
30
0.0
11
-0.000094
21
0.028265
31
0.0
0
LINE
8
0
6
CONTINUOUS
10
-0.000094
20
0.028265
30
0.0
11
-0.010164
21
0.029166
31
0.0
0
LINE
8
0
6
CONTINUOUS
10
-0.040826
20
0.048298
30
0.0
11
-0.044154
21
0.055758
31
0.0
0
LINE
8
0
6
CONTINUOUS
10
0.028150
20
0.035910
30
0.0
11
0.019556
21
0.031724
31
0.0
0
LINE
8
0
6
CONTINUOUS
10
-0.030288
20
0.035933
30
0.0
11
-0.021113
21
0.031420
31
0.0
0
LINE
8
0
6
CONTINUOUS
10
0.010685
20
0.028574
30
0.0
11
0.020934
21
0.031349
31
0.0
0
LINE
8
0
6
CONTINUOUS
10
0.044601
20
0.049995
30
0.0
11
0.048287
21
0.058148
31
0.0
0
LINE
8
0
6
CONTINUOUS
10
-0.037945
20
0.041923
30
0.0
11
-0.030288
21
0.035933
31
0.0
0
LINE
8
0
6
CONTINUOUS
10
0.038678
20
0.042686
30
0.0
11
0.044601
21
0.049995
31
0.0
0
LINE
8
0
6
CONTINUOUS
10
0.037820
20
0.041794
30
0.0
11
0.038678
21
0.042686
31
0.0
0
LINE
8
0
6
CONTINUOUS
10
0.002447
20
0.027866
30
0.0
11
0.010685
21
0.028574
31
0.0
0
LINE
8
0
6
CONTINUOUS
10
-0.044689
20
0.050148
30
0.0
11
-0.038805
21
0.042818
31
0.0
0
LINE
8
0
6
CONTINUOUS
10
-0.038805
20
0.042818
30
0.0
11
-0.037945
21
0.041923
31
0.0
0
LINE
8
0
6
CONTINUOUS
10
-0.010879
20
0.028611
30
0.0
11
-0.002645
21
0.027874
31
0.0
0
LINE
8
0
6
CONTINUOUS
10
0.030132
20
0.035830
30
0.0
11
0.037820
21
0.041794
31
0.0
0
LINE
8
0
6
CONTINUOUS
10
-0.048333
20
0.058313
30
0.0
11
-0.044689
21
0.050148
31
0.0
0
LINE
8
0
6
CONTINUOUS
10
-0.021113
20
0.031420
30
0.0
11
-0.010879
21
0.028611
31
0.0
0
LINE
8
0
6
CONTINUOUS
10
0.048287
20
0.058148
30
0.0
11
0.048742
21
0.059355
31
0.0
0
LINE
8
0
6
CONTINUOUS
10
0.048742
20
0.059355
30
0.0
11
0.050019
21
0.068023
31
0.0
0
LINE
8
0
6
CONTINUOUS
10
0.020934
20
0.031349
30
0.0
11
0.030132
21
0.035830
31
0.0
0
LINE
8
0
6
CONTINUOUS
10
0.039170
20
0.093034
30
0.0
11
0.031266
21
0.099218
31
0.0
0
LINE
8
0
6
CONTINUOUS
10
-0.039043
20
0.093168
30
0.0
11
-0.045021
21
0.085790
31
0.0
0
LINE
8
0
6
CONTINUOUS
10
0.000102
20
0.107772
30
0.0
11
-0.011031
21
0.106814
31
0.0
0
LINE
8
0
6
CONTINUOUS
10
-0.011031
20
0.106814
30
0.0
11
-0.021611
21
0.103950
31
0.0
0
LINE
8
0
6
CONTINUOUS
10
0.031266
20
0.099218
30
0.0
11
0.021794
21
0.103876
31
0.0
0
LINE
8
0
6
CONTINUOUS
10
0.050019
20
0.068721
30
0.0
11
0.048788
21
0.077394
31
0.0
0
LINE
8
0
6
CONTINUOUS
10
0.050019
20
0.068642
30
0.0
11
0.050019
21
0.068721
31
0.0
0
LINE
8
0
6
CONTINUOUS
10
-0.045021
20
0.085790
30
0.0
11
-0.048742
21
0.077560
31
0.0
0
LINE
8
0
6
CONTINUOUS
10
-0.048742
20
0.077560
30
0.0
11
-0.050019
21
0.068891
31
0.0
0
LINE
8
0
6
CONTINUOUS
10
-0.050019
20
0.068891
30
0.0
11
-0.050019
21
0.068813
31
0.0
0
LINE
8
0
6
CONTINUOUS
10
-0.021611
20
0.103950
30
0.0
11
-0.031107
21
0.099324
31
0.0
0
LINE
8
0
6
CONTINUOUS
10
0.021794
20
0.103876
30
0.0
11
0.011229
21
0.106776
31
0.0
0
LINE
8
0
6
CONTINUOUS
10
0.048788
20
0.077394
30
0.0
11
0.045110
21
0.085636
31
0.0
0
LINE
8
0
6
CONTINUOUS
10
-0.031107
20
0.099324
30
0.0
11
-0.039043
21
0.093168
31
0.0
0
LINE
8
0
6
CONTINUOUS
10
0.011229
20
0.106776
30
0.0
11
0.000102
21
0.107772
31
0.0
0
LINE
8
0
6
CONTINUOUS
10
0.045110
20
0.085636
30
0.0
11
0.039170
21
0.093034
31
0.0
0
LINE
8
0
6
CONTINUOUS
10
0.050009
20
0.068791
30
0.0
11
0.050019
21
0.068858
31
0.0
0
LINE
8
0
6
CONTINUOUS
10
-0.050019
20
0.069029
30
0.0
11
-0.050009
21
0.068959
31
0.0
0
LINE
8
0
6
CONTINUOUS
10
-0.036591
20
0.103844
30
0.0
11
-0.036969
21
0.103448
31
0.0
0
LINE
8
0
6
CONTINUOUS
10
-0.029152
20
0.109614
30
0.0
11
-0.036591
21
0.103844
31
0.0
0
LINE
8
0
6
CONTINUOUS
10
-0.020252
20
0.113950
30
0.0
11
-0.029152
21
0.109614
31
0.0
0
LINE
8
0
6
CONTINUOUS
10
-0.010335
20
0.116635
30
0.0
11
-0.020252
21
0.113950
31
0.0
0
LINE
8
0
6
CONTINUOUS
10
0.000099
20
0.117533
30
0.0
11
-0.010335
21
0.116635
31
0.0
0
LINE
8
0
6
CONTINUOUS
10
0.010529
20
0.116599
30
0.0
11
0.000099
21
0.117533
31
0.0
0
LINE
8
0
6
CONTINUOUS
10
0.020431
20
0.113881
30
0.0
11
0.010529
21
0.116599
31
0.0
0
LINE
8
0
6
CONTINUOUS
10
0.029309
20
0.109515
30
0.0
11
0.020431
21
0.113881
31
0.0
0
LINE
8
0
6
CONTINUOUS
10
0.036717
20
0.103719
30
0.0
11
0.029309
21
0.109515
31
0.0
0
LINE
8
0
6
CONTINUOUS
10
0.037096
20
0.103322
30
0.0
11
0.036717
21
0.103719
31
0.0
0
LINE
8
0
6
CONTINUOUS
10
-0.042630
20
0.096461
30
0.0
11
-0.043067
21
0.095757
31
0.0
0
LINE
8
0
6
CONTINUOUS
10
-0.036969
20
0.103448
30
0.0
11
-0.042630
21
0.096461
31
0.0
0
LINE
8
0
6
CONTINUOUS
10
0.042721
20
0.096315
30
0.0
11
0.037096
21
0.103322
31
0.0
0
LINE
8
0
6
CONTINUOUS
10
0.043158
20
0.095610
30
0.0
11
0.042721
21
0.096315
31
0.0
0
LINE
8
0
6
CONTINUOUS
10
-0.035335
20
0.085577
30
0.0
11
-0.040746
21
0.078900
31
0.0
0
LINE
8
0
6
CONTINUOUS
10
0.010161
20
0.097893
30
0.0
11
0.000090
21
0.098794
31
0.0
0
LINE
8
0
6
CONTINUOUS
10
0.019722
20
0.095268
30
0.0
11
0.010161
21
0.097893
31
0.0
0
LINE
8
0
6
CONTINUOUS
10
0.028294
20
0.091052
30
0.0
11
0.019722
21
0.095268
31
0.0
0
LINE
8
0
6
CONTINUOUS
10
0.035447
20
0.085456
30
0.0
11
0.028294
21
0.091052
31
0.0
0
LINE
8
0
6
CONTINUOUS
10
0.040823
20
0.078761
30
0.0
11
0.035447
21
0.085456
31
0.0
0
LINE
8
0
6
CONTINUOUS
10
0.035332
20
0.041482
30
0.0
11
0.040743
21
0.048159
31
0.0
0
LINE
8
0
6
CONTINUOUS
10
-0.028297
20
0.036007
30
0.0
11
-0.019725
21
0.031791
31
0.0
0
LINE
8
0
6
CONTINUOUS
10
-0.035450
20
0.041603
30
0.0
11
-0.028297
21
0.036007
31
0.0
0
LINE
8
0
6
CONTINUOUS
10
0.043495
20
0.055383
30
0.0
11
0.043615
21
0.056012
31
0.0
0
LINE
8
0
6
CONTINUOUS
10
0.044505
20
0.063049
30
0.0
11
0.043495
21
0.055383
31
0.0
0
LINE
8
0
6
CONTINUOUS
10
-0.040120
20
0.078287
30
0.0
11
-0.034793
21
0.084861
31
0.0
0
LINE
8
0
6
CONTINUOUS
10
-0.034793
20
0.084861
30
0.0
11
-0.027680
21
0.090281
31
0.0
0
LINE
8
0
6
CONTINUOUS
10
0.019447
20
0.094493
30
0.0
11
0.027818
21
0.090186
31
0.0
0
LINE
8
0
6
CONTINUOUS
10
0.027818
20
0.090186
30
0.0
11
0.034852
21
0.084684
31
0.0
0
LINE
8
0
6
CONTINUOUS
10
-0.019725
20
0.031791
30
0.0
11
-0.028297
21
0.036007
31
0.0
0
LINE
8
0
6
CONTINUOUS
10
-0.035335
20
0.085577
30
0.0
11
-0.028153
21
0.091149
31
0.0
0
LINE
8
0
6
CONTINUOUS
10
0.044110
20
0.055607
30
0.0
11
0.040743
21
0.048159
31
0.0
0
LINE
8
0
6
CONTINUOUS
10
0.035447
20
0.085456
30
0.0
11
0.040823
21
0.078761
31
0.0
0
LINE
8
0
6
CONTINUOUS
10
0.000090
20
0.098794
30
0.0
11
0.010161
21
0.097893
31
0.0
0
LINE
8
0
6
CONTINUOUS
10
-0.028297
20
0.036007
30
0.0
11
-0.035450
21
0.041603
31
0.0
0
LINE
8
0
6
CONTINUOUS
10
0.040743
20
0.048159
30
0.0
11
0.035332
21
0.041482
31
0.0
0
LINE
8
0
6
CONTINUOUS
10
0.010161
20
0.097893
30
0.0
11
0.019722
21
0.095268
31
0.0
0
LINE
8
0
6
CONTINUOUS
10
-0.028153
20
0.091149
30
0.0
11
-0.019559
21
0.095335
31
0.0
0
LINE
8
0
6
CONTINUOUS
10
-0.045269
20
0.063607
30
0.0
11
-0.044113
21
0.071452
31
0.0
0
LINE
8
0
6
CONTINUOUS
10
0.040823
20
0.078761
30
0.0
11
0.044151
21
0.071301
31
0.0
0
LINE
8
0
6
CONTINUOUS
10
-0.035450
20
0.041603
30
0.0
11
-0.040826
21
0.048298
31
0.0
0
LINE
8
0
6
CONTINUOUS
10
0.035332
20
0.041482
30
0.0
11
0.028150
21
0.035910
31
0.0
0
LINE
8
0
6
CONTINUOUS
10
0.044151
20
0.071301
30
0.0
11
0.045265
21
0.063452
31
0.0
0
LINE
8
0
6
CONTINUOUS
10
0.019722
20
0.095268
30
0.0
11
0.028294
21
0.091052
31
0.0
0
LINE
8
0
6
CONTINUOUS
10
-0.019559
20
0.095335
30
0.0
11
-0.009985
21
0.097927
31
0.0
0
LINE
8
0
6
CONTINUOUS
10
-0.044113
20
0.071452
30
0.0
11
-0.040746
21
0.078900
31
0.0
0
LINE
8
0
6
CONTINUOUS
10
-0.010164
20
0.029166
30
0.0
11
-0.019725
21
0.031791
31
0.0
0
LINE
8
0
6
CONTINUOUS
10
0.045265
20
0.063452
30
0.0
11
0.044110
21
0.055607
31
0.0
0
LINE
8
0
6
CONTINUOUS
10
0.028294
20
0.091052
30
0.0
11
0.035447
21
0.085456
31
0.0
0
LINE
8
0
6
CONTINUOUS
10
-0.009985
20
0.097927
30
0.0
11
0.000090
21
0.098794
31
0.0
0
LINE
8
0
6
CONTINUOUS
10
-0.040746
20
0.078900
30
0.0
11
-0.035335
21
0.085577
31
0.0
0
LINE
8
0
6
CONTINUOUS
10
-0.040746
20
0.078900
30
0.0
11
-0.044113
21
0.071452
31
0.0
0
LINE
8
0
6
CONTINUOUS
10
-0.028153
20
0.091149
30
0.0
11
-0.035335
21
0.085577
31
0.0
0
LINE
8
0
6
CONTINUOUS
10
-0.019559
20
0.095335
30
0.0
11
-0.028153
21
0.091149
31
0.0
0
LINE
8
0
6
CONTINUOUS
10
-0.009985
20
0.097927
30
0.0
11
-0.019559
21
0.095335
31
0.0
0
LINE
8
0
6
CONTINUOUS
10
0.000090
20
0.098794
30
0.0
11
-0.009985
21
0.097927
31
0.0
0
LINE
8
0
6
CONTINUOUS
10
0.044151
20
0.071301
30
0.0
11
0.040823
21
0.078761
31
0.0
0
LINE
8
0
6
CONTINUOUS
10
0.045265
20
0.063452
30
0.0
11
0.044151
21
0.071301
31
0.0
0
LINE
8
0
6
CONTINUOUS
10
0.044110
20
0.055607
30
0.0
11
0.045265
21
0.063452
31
0.0
0
LINE
8
0
6
CONTINUOUS
10
0.040743
20
0.048159
30
0.0
11
0.044110
21
0.055607
31
0.0
0
LINE
8
0
6
CONTINUOUS
10
0.028150
20
0.035910
30
0.0
11
0.035332
21
0.041482
31
0.0
0
LINE
8
0
6
CONTINUOUS
10
0.019556
20
0.031724
30
0.0
11
0.028150
21
0.035910
31
0.0
0
LINE
8
0
6
CONTINUOUS
10
0.009982
20
0.029132
30
0.0
11
0.019556
21
0.031724
31
0.0
0
LINE
8
0
6
CONTINUOUS
10
-0.000094
20
0.028265
30
0.0
11
0.009982
21
0.029132
31
0.0
0
LINE
8
0
6
CONTINUOUS
10
-0.010164
20
0.029166
30
0.0
11
-0.000094
21
0.028265
31
0.0
0
LINE
8
0
6
CONTINUOUS
10
-0.019725
20
0.031791
30
0.0
11
-0.010164
21
0.029166
31
0.0
0
LINE
8
0
6
CONTINUOUS
10
-0.040826
20
0.048298
30
0.0
11
-0.035450
21
0.041603
31
0.0
0
LINE
8
0
6
CONTINUOUS
10
-0.044154
20
0.055758
30
0.0
11
-0.040826
21
0.048298
31
0.0
0
LINE
8
0
6
CONTINUOUS
10
-0.045269
20
0.063607
30
0.0
11
-0.044154
21
0.055758
31
0.0
0
LINE
8
0
6
CONTINUOUS
10
-0.044154
20
0.055758
30
0.0
11
-0.045269
21
0.063607
31
0.0
0
LINE
8
0
6
CONTINUOUS
10
-0.044113
20
0.071452
30
0.0
11
-0.045269
21
0.063607
31
0.0
0
LINE
8
0
6
CONTINUOUS
10
-0.048788
20
0.059521
30
0.0
11
-0.048333
21
0.058313
31
0.0
0
LINE
8
0
6
CONTINUOUS
10
-0.050019
20
0.068194
30
0.0
11
-0.048788
21
0.059521
31
0.0
0
LINE
8
0
6
CONTINUOUS
10
-0.043435
20
0.070955
30
0.0
11
-0.040120
21
0.078287
31
0.0
0
LINE
8
0
6
CONTINUOUS
10
0.002423
20
0.016568
30
0.0
11
0.002425
21
0.017493
31
0.0
0
LINE
8
0
6
CONTINUOUS
10
0.002185
20
0.015017
30
0.0
11
0.002423
21
0.016568
31
0.0
0
LINE
8
0
6
CONTINUOUS
10
0.002439
20
0.022690
30
0.0
11
0.002441
21
0.023522
31
0.0
0
LINE
8
0
6
CONTINUOUS
10
0.002425
20
0.017493
30
0.0
11
0.002439
21
0.022690
31
0.0
0
LINE
8
0
6
CONTINUOUS
10
-0.002645
20
0.027874
30
0.0
11
-0.002649
21
0.025891
31
0.0
0
LINE
8
0
6
CONTINUOUS
10
-0.002660
20
0.016577
30
0.0
11
-0.002425
21
0.015025
31
0.0
0
LINE
8
0
6
CONTINUOUS
10
-0.002658
20
0.018428
30
0.0
11
-0.002659
21
0.016696
31
0.0
0
LINE
8
0
6
CONTINUOUS
10
-0.002654
20
0.022245
30
0.0
11
-0.002658
21
0.018428
31
0.0
0
LINE
8
0
6
CONTINUOUS
10
-0.002649
20
0.025891
30
0.0
11
-0.002654
21
0.022245
31
0.0
0
LINE
8
0
6
CONTINUOUS
10
0.001006
20
0.014411
30
0.0
11
0.002185
21
0.015017
31
0.0
0
LINE
8
0
6
CONTINUOUS
10
-0.000121
20
0.014199
30
0.0
11
0.001006
21
0.014411
31
0.0
0
LINE
8
0
6
CONTINUOUS
10
-0.001368
20
0.014415
30
0.0
11
-0.000121
21
0.014199
31
0.0
0
LINE
8
0
6
CONTINUOUS
10
-0.002425
20
0.015025
30
0.0
11
-0.001368
21
0.014415
31
0.0
0
LINE
8
0
6
CONTINUOUS
10
0.002441
20
0.023522
30
0.0
11
0.002441
21
0.023679
31
0.0
0
LINE
8
0
6
CONTINUOUS
10
0.002444
20
0.025960
30
0.0
11
0.002446
21
0.027146
31
0.0
0
LINE
8
0
6
CONTINUOUS
10
0.002446
20
0.027146
30
0.0
11
0.002448
21
0.028267
31
0.0
0
LINE
8
0
6
CONTINUOUS
10
0.002448
20
0.028267
30
0.0
11
0.002448
21
0.028484
31
0.0
0
LINE
8
0
6
CONTINUOUS
10
0.002441
20
0.023679
30
0.0
11
0.002444
21
0.025960
31
0.0
0
LINE
8
0
6
CONTINUOUS
10
-0.040120
20
0.078287
30
0.0
11
-0.043435
21
0.070955
31
0.0
0
LINE
8
0
6
CONTINUOUS
10
-0.019232
20
0.094398
30
0.0
11
-0.027680
21
0.090281
31
0.0
0
LINE
8
0
6
CONTINUOUS
10
-0.009817
20
0.096947
30
0.0
11
-0.019232
21
0.094398
31
0.0
0
LINE
8
0
6
CONTINUOUS
10
0.000089
20
0.097884
30
0.0
11
-0.009817
21
0.096947
31
0.0
0
LINE
8
0
6
CONTINUOUS
10
0.009991
20
0.096913
30
0.0
11
0.000089
21
0.097884
31
0.0
0
LINE
8
0
6
CONTINUOUS
10
0.019447
20
0.094493
30
0.0
11
0.009991
21
0.096913
31
0.0
0
LINE
8
0
6
CONTINUOUS
10
0.040137
20
0.078101
30
0.0
11
0.034852
21
0.084684
31
0.0
0
LINE
8
0
6
CONTINUOUS
10
0.043409
20
0.070767
30
0.0
11
0.040137
21
0.078101
31
0.0
0
LINE
8
0
6
CONTINUOUS
10
0.044505
20
0.063049
30
0.0
11
0.043409
21
0.070767
31
0.0
0
LINE
8
0
6
CONTINUOUS
10
0.027719
20
0.035968
30
0.0
11
0.034839
21
0.041454
31
0.0
0
LINE
8
0
6
CONTINUOUS
10
0.019260
20
0.031844
30
0.0
11
0.027719
21
0.035968
31
0.0
0
LINE
8
0
6
CONTINUOUS
10
0.009842
20
0.029275
30
0.0
11
0.019260
21
0.031844
31
0.0
0
LINE
8
0
6
CONTINUOUS
10
-0.000092
20
0.028436
30
0.0
11
0.009842
21
0.029275
31
0.0
0
LINE
8
0
6
CONTINUOUS
10
-0.010002
20
0.029322
30
0.0
11
-0.000092
21
0.028436
31
0.0
0
LINE
8
0
6
CONTINUOUS
10
-0.019419
20
0.031904
30
0.0
11
-0.010002
21
0.029322
31
0.0
0
LINE
8
0
6
CONTINUOUS
10
0.034852
20
0.084684
30
0.0
11
0.027818
21
0.090186
31
0.0
0
LINE
8
0
6
CONTINUOUS
10
-0.043435
20
0.070955
30
0.0
11
-0.044508
21
0.063201
31
0.0
0
LINE
8
0
6
CONTINUOUS
10
-0.034793
20
0.084861
30
0.0
11
-0.040120
21
0.078287
31
0.0
0
LINE
8
0
6
CONTINUOUS
10
-0.027680
20
0.090281
30
0.0
11
-0.034793
21
0.084861
31
0.0
0
LINE
8
0
6
CONTINUOUS
10
0.043495
20
0.055383
30
0.0
11
0.044505
21
0.063049
31
0.0
0
LINE
8
0
6
CONTINUOUS
10
0.040175
20
0.048038
30
0.0
11
0.043495
21
0.055383
31
0.0
0
LINE
8
0
6
CONTINUOUS
10
0.034839
20
0.041454
30
0.0
11
0.040175
21
0.048038
31
0.0
0
LINE
8
0
6
CONTINUOUS
10
-0.027859
20
0.036056
30
0.0
11
-0.019419
21
0.031904
31
0.0
0
LINE
8
0
6
CONTINUOUS
10
-0.034956
20
0.041573
30
0.0
11
-0.027859
21
0.036056
31
0.0
0
LINE
8
0
6
CONTINUOUS
10
-0.040197
20
0.048159
30
0.0
11
-0.034956
21
0.041573
31
0.0
0
LINE
8
0
6
CONTINUOUS
10
-0.043475
20
0.055503
30
0.0
11
-0.040197
21
0.048159
31
0.0
0
LINE
8
0
6
CONTINUOUS
10
-0.044508
20
0.063201
30
0.0
11
-0.043475
21
0.055503
31
0.0
0
LINE
8
0
6
CONTINUOUS
10
0.027818
20
0.090186
30
0.0
11
0.019447
21
0.094493
31
0.0
0
LINE
8
0
6
CONTINUOUS
10
-0.016191
20
0.065961
30
0.0
11
-0.016174
21
0.067226
31
0.0
0
LINE
8
0
6
CONTINUOUS
10
-0.009048
20
0.072589
30
0.0
11
-0.008736
21
0.072542
31
0.0
0
LINE
8
0
6
CONTINUOUS
10
0.019238
20
0.070480
30
0.0
11
0.020575
21
0.071153
31
0.0
0
LINE
8
0
6
CONTINUOUS
10
0.005351
20
0.073968
30
0.0
11
0.005792
21
0.074408
31
0.0
0
LINE
8
0
6
CONTINUOUS
10
-0.020739
20
0.071386
30
0.0
11
-0.019413
21
0.070699
31
0.0
0
LINE
8
0
6
CONTINUOUS
10
-0.022986
20
0.064975
30
0.0
11
-0.021660
21
0.064294
31
0.0
0
LINE
8
0
6
CONTINUOUS
10
-0.024330
20
0.064447
30
0.0
11
-0.022986
21
0.064975
31
0.0
0
LINE
8
0
6
CONTINUOUS
10
-0.032174
20
0.049096
30
0.0
11
-0.032018
21
0.049149
31
0.0
0
LINE
8
0
6
CONTINUOUS
10
-0.026790
20
0.050445
30
0.0
11
-0.025718
21
0.050996
31
0.0
0
LINE
8
0
6
CONTINUOUS
10
-0.025718
20
0.050996
30
0.0
11
-0.024512
21
0.050545
31
0.0
0
LINE
8
0
6
CONTINUOUS
10
-0.027272
20
0.043636
30
0.0
11
-0.026945
21
0.043748
31
0.0
0
LINE
8
0
6
CONTINUOUS
10
-0.021283
20
0.045338
30
0.0
11
-0.020211
21
0.045889
31
0.0
0
LINE
8
0
6
CONTINUOUS
10
-0.011790
20
0.040625
30
0.0
11
-0.011924
21
0.041604
31
0.0
0
LINE
8
0
6
CONTINUOUS
10
-0.006128
20
0.039431
30
0.0
11
-0.005055
21
0.039999
31
0.0
0
LINE
8
0
6
CONTINUOUS
10
-0.003715
20
0.038617
30
0.0
11
-0.003849
21
0.039592
31
0.0
0
LINE
8
0
6
CONTINUOUS
10
-0.004609
20
0.034715
30
0.0
11
-0.003403
21
0.034308
31
0.0
0
LINE
8
0
6
CONTINUOUS
10
0.025696
20
0.043106
30
0.0
11
0.026804
21
0.043678
31
0.0
0
LINE
8
0
6
CONTINUOUS
10
0.030863
20
0.048536
30
0.0
11
0.031971
21
0.049119
31
0.0
0
LINE
8
0
6
CONTINUOUS
10
-0.024799
20
0.076329
30
0.0
11
-0.023661
21
0.075752
31
0.0
0
LINE
8
0
6
CONTINUOUS
10
-0.033084
20
0.074578
30
0.0
11
-0.032708
21
0.074312
31
0.0
0
LINE
8
0
6
CONTINUOUS
10
-0.028595
20
0.070380
30
0.0
11
-0.027457
21
0.069804
31
0.0
0
LINE
8
0
6
CONTINUOUS
10
-0.029986
20
0.063803
30
0.0
11
-0.028848
21
0.063231
31
0.0
0
LINE
8
0
6
CONTINUOUS
10
0.013388
20
0.057462
30
0.0
11
0.014848
21
0.057979
31
0.0
0
LINE
8
0
6
CONTINUOUS
10
-0.005454
20
0.054929
30
0.0
11
-0.004801
21
0.056027
31
0.0
0
LINE
8
0
6
CONTINUOUS
10
-0.009720
20
0.060846
30
0.0
11
-0.008136
21
0.060938
31
0.0
0
LINE
8
0
6
CONTINUOUS
10
0.005651
20
0.066209
30
0.0
11
0.006843
21
0.067064
31
0.0
0
LINE
8
0
6
CONTINUOUS
10
-0.021660
20
0.039129
30
0.0
11
-0.021091
21
0.039320
31
0.0
0
LINE
8
0
6
CONTINUOUS
10
-0.021747
20
0.038159
30
0.0
11
-0.021660
21
0.039129
31
0.0
0
LINE
8
0
6
CONTINUOUS
10
-0.028131
20
0.043353
30
0.0
11
-0.027272
21
0.043636
31
0.0
0
LINE
8
0
6
CONTINUOUS
10
-0.033205
20
0.048760
30
0.0
11
-0.032174
21
0.049096
31
0.0
0
LINE
8
0
6
CONTINUOUS
10
-0.019834
20
0.051655
30
0.0
11
-0.018584
21
0.052282
31
0.0
0
LINE
8
0
6
CONTINUOUS
10
-0.000094
20
0.028248
30
0.0
11
0.000263
21
0.028271
31
0.0
0
LINE
8
0
6
CONTINUOUS
10
0.022580
20
0.084865
30
0.0
11
0.023602
21
0.085584
31
0.0
0
LINE
8
0
6
CONTINUOUS
10
-0.036888
20
0.061950
30
0.0
11
-0.036494
21
0.061749
31
0.0
0
LINE
8
0
6
CONTINUOUS
10
-0.038041
20
0.061509
30
0.0
11
-0.036888
21
0.061950
31
0.0
0
LINE
8
0
6
CONTINUOUS
10
-0.036645
20
0.054907
30
0.0
11
-0.035459
21
0.055293
31
0.0
0
LINE
8
0
6
CONTINUOUS
10
-0.035459
20
0.055293
30
0.0
11
-0.035262
21
0.055183
31
0.0
0
LINE
8
0
6
CONTINUOUS
10
-0.033292
20
0.047771
30
0.0
11
-0.033205
21
0.048760
31
0.0
0
LINE
8
0
6
CONTINUOUS
10
-0.028218
20
0.042376
30
0.0
11
-0.028131
21
0.043353
31
0.0
0
LINE
8
0
6
CONTINUOUS
10
0.035397
20
0.055288
30
0.0
11
0.036575
21
0.054886
31
0.0
0
LINE
8
0
6
CONTINUOUS
10
-0.024924
20
0.084340
30
0.0
11
-0.024689
21
0.085398
31
0.0
0
LINE
8
0
6
CONTINUOUS
10
-0.030858
20
0.079507
30
0.0
11
-0.030635
21
0.080503
31
0.0
0
LINE
8
0
6
CONTINUOUS
10
-0.036250
20
0.068570
30
0.0
11
-0.036112
21
0.068471
31
0.0
0
LINE
8
0
6
CONTINUOUS
10
-0.037730
20
0.067276
30
0.0
11
-0.037495
21
0.068282
31
0.0
0
LINE
8
0
6
CONTINUOUS
10
-0.003269
20
0.033356
30
0.0
11
-0.003393
21
0.034238
31
0.0
0
LINE
8
0
6
CONTINUOUS
10
-0.005681
20
0.034155
30
0.0
11
-0.005205
21
0.034400
31
0.0
0
LINE
8
0
6
CONTINUOUS
10
0.027174
20
0.043547
30
0.0
11
0.027982
21
0.043277
31
0.0
0
LINE
8
0
6
CONTINUOUS
10
0.008499
20
0.091470
30
0.0
11
0.009396
21
0.091355
31
0.0
0
LINE
8
0
6
CONTINUOUS
10
-0.009757
20
0.090561
30
0.0
11
-0.009087
21
0.091499
31
0.0
0
LINE
8
0
6
CONTINUOUS
10
-0.023577
20
0.085679
30
0.0
11
-0.023444
21
0.085718
31
0.0
0
LINE
8
0
6
CONTINUOUS
10
-0.033718
20
0.075034
30
0.0
11
-0.033084
21
0.074578
31
0.0
0
LINE
8
0
6
CONTINUOUS
10
-0.034963
20
0.074737
30
0.0
11
-0.033718
21
0.075034
31
0.0
0
LINE
8
0
6
CONTINUOUS
10
-0.016787
20
0.060965
30
0.0
11
-0.016130
21
0.061320
31
0.0
0
LINE
8
0
6
CONTINUOUS
10
-0.014229
20
0.054668
30
0.0
11
-0.013017
21
0.055318
31
0.0
0
LINE
8
0
6
CONTINUOUS
10
-0.004827
20
0.049601
30
0.0
11
-0.004988
21
0.050805
31
0.0
0
LINE
8
0
6
CONTINUOUS
10
-0.014307
20
0.054628
30
0.0
11
-0.014229
21
0.054668
31
0.0
0
LINE
8
0
6
CONTINUOUS
10
-0.013418
20
0.047223
30
0.0
11
-0.012168
21
0.047856
31
0.0
0
LINE
8
0
6
CONTINUOUS
10
-0.002705
20
0.043838
30
0.0
11
-0.002862
21
0.044959
31
0.0
0
ENDSEC
0
EOF
