999
unknown String-ID: 20550
0
SECTION
2
HEADER
9
$ACADVER
1
AC1009
9
$DWGCODEPAGE
3
unknown String-ID: 20561
0
ENDSEC
0
SECTION
2
TABLES
0
TABLE
2
LAYER
70
1
0
LAYER
2
0
70
0
62
7
6
CONTINUOUS
0
ENDTAB
0
ENDSEC
0
SECTION
2
ENTITIES
0
LINE
8
0
6
CONTINUOUS
10
-0.075049
20
0.224214
30
0.0
11
-0.074406
21
0.229098
31
0.0
0
LINE
8
0
6
CONTINUOUS
10
-0.074406
20
0.219329
30
0.0
11
-0.075049
21
0.224214
31
0.0
0
LINE
8
0
6
CONTINUOUS
10
-0.074862
20
0.224206
30
0.0
11
-0.074406
21
0.219329
31
0.0
0
LINE
8
0
6
CONTINUOUS
10
-0.074406
20
0.219329
30
0.0
11
-0.072521
21
0.214778
31
0.0
0
LINE
8
0
6
CONTINUOUS
10
-0.072521
20
0.214778
30
0.0
11
-0.069521
21
0.210869
31
0.0
0
LINE
8
0
6
CONTINUOUS
10
-0.069521
20
0.210869
30
0.0
11
-0.065612
21
0.207870
31
0.0
0
LINE
8
0
6
CONTINUOUS
10
-0.065612
20
0.207870
30
0.0
11
-0.061061
21
0.205985
31
0.0
0
LINE
8
0
6
CONTINUOUS
10
-0.061061
20
0.205985
30
0.0
11
-0.056176
21
0.205341
31
0.0
0
LINE
8
0
6
CONTINUOUS
10
-0.056176
20
0.205341
30
0.0
11
-0.051291
21
0.205985
31
0.0
0
LINE
8
0
6
CONTINUOUS
10
-0.051291
20
0.205985
30
0.0
11
-0.046739
21
0.207870
31
0.0
0
LINE
8
0
6
CONTINUOUS
10
-0.046739
20
0.207870
30
0.0
11
-0.042830
21
0.210869
31
0.0
0
LINE
8
0
6
CONTINUOUS
10
-0.042830
20
0.210869
30
0.0
11
-0.039831
21
0.214778
31
0.0
0
LINE
8
0
6
CONTINUOUS
10
-0.039831
20
0.214778
30
0.0
11
-0.037946
21
0.219329
31
0.0
0
LINE
8
0
6
CONTINUOUS
10
-0.037946
20
0.219329
30
0.0
11
-0.037303
21
0.224214
31
0.0
0
LINE
8
0
6
CONTINUOUS
10
-0.037303
20
0.224214
30
0.0
11
-0.037946
21
0.229098
31
0.0
0
LINE
8
0
6
CONTINUOUS
10
-0.037946
20
0.229098
30
0.0
11
-0.039831
21
0.233650
31
0.0
0
LINE
8
0
6
CONTINUOUS
10
-0.039831
20
0.233650
30
0.0
11
-0.042830
21
0.237559
31
0.0
0
LINE
8
0
6
CONTINUOUS
10
-0.042830
20
0.237559
30
0.0
11
-0.046739
21
0.240558
31
0.0
0
LINE
8
0
6
CONTINUOUS
10
-0.046739
20
0.240558
30
0.0
11
-0.051291
21
0.242443
31
0.0
0
LINE
8
0
6
CONTINUOUS
10
-0.051291
20
0.242443
30
0.0
11
-0.056176
21
0.243086
31
0.0
0
LINE
8
0
6
CONTINUOUS
10
-0.056176
20
0.243086
30
0.0
11
-0.061061
21
0.242443
31
0.0
0
LINE
8
0
6
CONTINUOUS
10
-0.061061
20
0.242443
30
0.0
11
-0.065612
21
0.240558
31
0.0
0
LINE
8
0
6
CONTINUOUS
10
-0.065612
20
0.240558
30
0.0
11
-0.069521
21
0.237559
31
0.0
0
LINE
8
0
6
CONTINUOUS
10
-0.069521
20
0.237559
30
0.0
11
-0.072521
21
0.233650
31
0.0
0
LINE
8
0
6
CONTINUOUS
10
-0.072521
20
0.233650
30
0.0
11
-0.074406
21
0.229098
31
0.0
0
LINE
8
0
6
CONTINUOUS
10
-0.044027
20
0.248168
30
0.0
11
-0.044189
21
0.247401
31
0.0
0
LINE
8
0
6
CONTINUOUS
10
-0.044069
20
0.248951
30
0.0
11
-0.044027
21
0.248168
31
0.0
0
LINE
8
0
6
CONTINUOUS
10
-0.044312
20
0.249697
30
0.0
11
-0.044069
21
0.248951
31
0.0
0
LINE
8
0
6
CONTINUOUS
10
-0.044739
20
0.250354
30
0.0
11
-0.044312
21
0.249697
31
0.0
0
LINE
8
0
6
CONTINUOUS
10
-0.045322
20
0.250878
30
0.0
11
-0.044739
21
0.250354
31
0.0
0
LINE
8
0
6
CONTINUOUS
10
-0.046021
20
0.251233
30
0.0
11
-0.045342
21
0.250888
31
0.0
0
LINE
8
0
6
CONTINUOUS
10
-0.046788
20
0.251395
30
0.0
11
-0.046021
21
0.251233
31
0.0
0
LINE
8
0
6
CONTINUOUS
10
-0.044211
20
0.247401
30
0.0
11
-0.044051
21
0.248167
31
0.0
0
LINE
8
0
6
CONTINUOUS
10
-0.044051
20
0.248167
30
0.0
11
-0.044094
21
0.248948
31
0.0
0
LINE
8
0
6
CONTINUOUS
10
-0.044094
20
0.248948
30
0.0
11
-0.044339
21
0.249693
31
0.0
0
LINE
8
0
6
CONTINUOUS
10
-0.044339
20
0.249693
30
0.0
11
-0.044767
21
0.250349
31
0.0
0
LINE
8
0
6
CONTINUOUS
10
-0.044767
20
0.250349
30
0.0
11
-0.045342
21
0.250863
31
0.0
0
LINE
8
0
6
CONTINUOUS
10
-0.045351
20
0.250872
30
0.0
11
-0.046051
21
0.251226
31
0.0
0
LINE
8
0
6
CONTINUOUS
10
-0.046051
20
0.251226
30
0.0
11
-0.046818
21
0.251388
31
0.0
0
LINE
8
0
6
CONTINUOUS
10
-0.046818
20
0.251388
30
0.0
11
-0.047601
21
0.251345
31
0.0
0
LINE
8
0
6
CONTINUOUS
10
-0.047601
20
0.251345
30
0.0
11
-0.048345
21
0.251103
31
0.0
0
LINE
8
0
6
CONTINUOUS
10
-0.048345
20
0.251103
30
0.0
11
-0.049002
21
0.250675
31
0.0
0
LINE
8
0
6
CONTINUOUS
10
-0.049002
20
0.250675
30
0.0
11
-0.049524
21
0.250093
31
0.0
0
LINE
8
0
6
CONTINUOUS
10
-0.049524
20
0.250093
30
0.0
11
-0.049878
21
0.249395
31
0.0
0
LINE
8
0
6
CONTINUOUS
10
-0.046632
20
0.240476
30
0.0
11
-0.044189
21
0.247401
31
0.0
0
LINE
8
0
6
CONTINUOUS
10
-0.047574
20
0.251353
30
0.0
11
-0.046791
21
0.251395
31
0.0
0
LINE
8
0
6
CONTINUOUS
10
-0.046642
20
0.240483
30
0.0
11
-0.044211
21
0.247401
31
0.0
0
LINE
8
0
6
CONTINUOUS
10
-0.037647
20
0.228175
30
0.0
11
-0.038196
21
0.230201
31
0.0
0
LINE
8
0
6
CONTINUOUS
10
-0.038475
20
0.231048
30
0.0
11
-0.038452
21
0.231006
31
0.0
0
LINE
8
0
6
CONTINUOUS
10
-0.037647
20
0.228175
30
0.0
11
-0.038475
21
0.231048
31
0.0
0
LINE
8
0
6
CONTINUOUS
10
-0.038775
20
0.231714
30
0.0
11
-0.038475
21
0.231048
31
0.0
0
LINE
8
0
6
CONTINUOUS
10
-0.074705
20
0.220253
30
0.0
11
-0.073885
21
0.217405
31
0.0
0
LINE
8
0
6
CONTINUOUS
10
-0.073885
20
0.217405
30
0.0
11
-0.073844
21
0.217273
31
0.0
0
LINE
8
0
6
CONTINUOUS
10
-0.074705
20
0.220253
30
0.0
11
-0.073781
21
0.217168
31
0.0
0
LINE
8
0
6
CONTINUOUS
10
-0.073576
20
0.216714
30
0.0
11
-0.073781
21
0.217168
31
0.0
0
LINE
8
0
6
CONTINUOUS
10
-0.073696
20
0.217006
30
0.0
11
-0.073844
21
0.217273
31
0.0
0
LINE
8
0
6
CONTINUOUS
10
-0.037230
20
0.224484
30
0.0
11
-0.037647
21
0.228175
31
0.0
0
LINE
8
0
6
CONTINUOUS
10
-0.038261
20
0.230102
30
0.0
11
-0.038775
21
0.231714
31
0.0
0
LINE
8
0
6
CONTINUOUS
10
-0.066926
20
0.239816
30
0.0
11
-0.069763
21
0.237419
31
0.0
0
LINE
8
0
6
CONTINUOUS
10
-0.040273
20
0.213913
30
0.0
11
-0.038569
21
0.217214
31
0.0
0
LINE
8
0
6
CONTINUOUS
10
-0.037541
20
0.220783
30
0.0
11
-0.037230
21
0.224484
31
0.0
0
LINE
8
0
6
CONTINUOUS
10
-0.059607
20
0.205580
30
0.0
11
-0.055906
21
0.205269
31
0.0
0
LINE
8
0
6
CONTINUOUS
10
-0.042970
20
0.237801
30
0.0
11
-0.045874
21
0.240116
31
0.0
0
LINE
8
0
6
CONTINUOUS
10
-0.056446
20
0.243159
30
0.0
11
-0.060137
21
0.242742
31
0.0
0
LINE
8
0
6
CONTINUOUS
10
-0.052215
20
0.205685
30
0.0
11
-0.048676
21
0.206814
31
0.0
0
LINE
8
0
6
CONTINUOUS
10
-0.073783
20
0.231214
30
0.0
11
-0.074810
21
0.227645
31
0.0
0
LINE
8
0
6
CONTINUOUS
10
-0.069763
20
0.237419
30
0.0
11
-0.072079
21
0.234514
31
0.0
0
LINE
8
0
6
CONTINUOUS
10
-0.038775
20
0.231714
30
0.0
11
-0.040573
21
0.234964
31
0.0
0
LINE
8
0
6
CONTINUOUS
10
-0.063177
20
0.206607
30
0.0
11
-0.059607
21
0.205580
31
0.0
0
LINE
8
0
6
CONTINUOUS
10
-0.038569
20
0.217214
30
0.0
11
-0.037541
21
0.220783
31
0.0
0
LINE
8
0
6
CONTINUOUS
10
-0.066477
20
0.208311
30
0.0
11
-0.063177
21
0.206607
31
0.0
0
LINE
8
0
6
CONTINUOUS
10
-0.042588
20
0.211009
30
0.0
11
-0.040273
21
0.213913
31
0.0
0
LINE
8
0
6
CONTINUOUS
10
-0.063675
20
0.241613
30
0.0
11
-0.066926
21
0.239816
31
0.0
0
LINE
8
0
6
CONTINUOUS
10
-0.069382
20
0.210626
30
0.0
11
-0.066477
21
0.208311
31
0.0
0
LINE
8
0
6
CONTINUOUS
10
-0.075122
20
0.223943
30
0.0
11
-0.074705
21
0.220253
31
0.0
0
LINE
8
0
6
CONTINUOUS
10
-0.071779
20
0.213464
30
0.0
11
-0.069382
21
0.210626
31
0.0
0
LINE
8
0
6
CONTINUOUS
10
-0.072079
20
0.234514
30
0.0
11
-0.073783
21
0.231214
31
0.0
0
LINE
8
0
6
CONTINUOUS
10
-0.045874
20
0.240116
30
0.0
11
-0.046623
21
0.240503
31
0.0
0
LINE
8
0
6
CONTINUOUS
10
-0.074705
20
0.220253
30
0.0
11
-0.073576
21
0.216714
31
0.0
0
LINE
8
0
6
CONTINUOUS
10
-0.074810
20
0.227645
30
0.0
11
-0.075122
21
0.223943
31
0.0
0
LINE
8
0
6
CONTINUOUS
10
-0.052744
20
0.242848
30
0.0
11
-0.056446
21
0.243159
31
0.0
0
LINE
8
0
6
CONTINUOUS
10
-0.040573
20
0.234964
30
0.0
11
-0.042970
21
0.237801
31
0.0
0
LINE
8
0
6
CONTINUOUS
10
-0.060137
20
0.242742
30
0.0
11
-0.063675
21
0.241613
31
0.0
0
LINE
8
0
6
CONTINUOUS
10
-0.055906
20
0.205269
30
0.0
11
-0.052215
21
0.205685
31
0.0
0
LINE
8
0
6
CONTINUOUS
10
-0.073576
20
0.216714
30
0.0
11
-0.071779
21
0.213464
31
0.0
0
LINE
8
0
6
CONTINUOUS
10
-0.045426
20
0.208612
30
0.0
11
-0.042588
21
0.211009
31
0.0
0
LINE
8
0
6
CONTINUOUS
10
-0.048676
20
0.206814
30
0.0
11
-0.045426
21
0.208612
31
0.0
0
LINE
8
0
6
CONTINUOUS
10
-0.052217
20
0.242696
30
0.0
11
-0.052744
21
0.242848
31
0.0
0
LINE
8
0
6
CONTINUOUS
10
-0.045742
20
-0.427500
30
0.0
11
-0.045342
21
-0.427500
31
0.0
0
LINE
8
0
6
CONTINUOUS
10
-0.056342
20
-0.479500
30
0.0
11
-0.117868
21
-0.479500
31
0.0
0
LINE
8
0
6
CONTINUOUS
10
-0.053542
20
-0.479500
30
0.0
11
-0.056342
21
-0.479500
31
0.0
0
LINE
8
0
6
CONTINUOUS
10
-0.050842
20
-0.479500
30
0.0
11
-0.053542
21
-0.479500
31
0.0
0
LINE
8
0
6
CONTINUOUS
10
-0.048542
20
-0.479500
30
0.0
11
-0.050842
21
-0.479500
31
0.0
0
LINE
8
0
6
CONTINUOUS
10
-0.046842
20
-0.479500
30
0.0
11
-0.048542
21
-0.479500
31
0.0
0
LINE
8
0
6
CONTINUOUS
10
-0.045742
20
-0.479500
30
0.0
11
-0.046842
21
-0.479500
31
0.0
0
LINE
8
0
6
CONTINUOUS
10
-0.045342
20
-0.479500
30
0.0
11
-0.045742
21
-0.479500
31
0.0
0
LINE
8
0
6
CONTINUOUS
10
-0.045742
20
-0.427500
30
0.0
11
-0.046842
21
-0.427500
31
0.0
0
LINE
8
0
6
CONTINUOUS
10
-0.046842
20
-0.427500
30
0.0
11
-0.048542
21
-0.427500
31
0.0
0
LINE
8
0
6
CONTINUOUS
10
-0.050842
20
-0.427500
30
0.0
11
-0.053542
21
-0.427500
31
0.0
0
LINE
8
0
6
CONTINUOUS
10
-0.045342
20
-0.478946
30
0.0
11
-0.045342
21
-0.479500
31
0.0
0
LINE
8
0
6
CONTINUOUS
10
-0.053542
20
-0.427500
30
0.0
11
-0.056342
21
-0.427500
31
0.0
0
LINE
8
0
6
CONTINUOUS
10
-0.048542
20
-0.427500
30
0.0
11
-0.050842
21
-0.427500
31
0.0
0
LINE
8
0
6
CONTINUOUS
10
-0.045342
20
0.478792
30
0.0
11
-0.045342
21
0.479500
31
0.0
0
LINE
8
0
6
CONTINUOUS
10
-0.056342
20
0.479500
30
0.0
11
-0.053542
21
0.479500
31
0.0
0
LINE
8
0
6
CONTINUOUS
10
-0.053542
20
0.479500
30
0.0
11
-0.050842
21
0.479500
31
0.0
0
LINE
8
0
6
CONTINUOUS
10
-0.050842
20
0.479500
30
0.0
11
-0.048542
21
0.479500
31
0.0
0
LINE
8
0
6
CONTINUOUS
10
-0.048542
20
0.479500
30
0.0
11
-0.046842
21
0.479500
31
0.0
0
LINE
8
0
6
CONTINUOUS
10
-0.046842
20
0.479500
30
0.0
11
-0.045742
21
0.479500
31
0.0
0
LINE
8
0
6
CONTINUOUS
10
-0.045742
20
0.479500
30
0.0
11
-0.045342
21
0.479500
31
0.0
0
LINE
8
0
6
CONTINUOUS
10
-0.045342
20
-0.427000
30
0.0
11
-0.045842
21
-0.427500
31
0.0
0
LINE
8
0
6
CONTINUOUS
10
-0.045342
20
0.427000
30
0.0
11
-0.045342
21
0.426687
31
0.0
0
LINE
8
0
6
CONTINUOUS
10
-0.045842
20
0.427500
30
0.0
11
-0.045342
21
0.427000
31
0.0
0
LINE
8
0
6
CONTINUOUS
10
-0.067343
20
0.427000
30
0.0
11
-0.066843
21
0.427500
31
0.0
0
LINE
8
0
6
CONTINUOUS
10
-0.067343
20
-0.427000
30
0.0
11
-0.066843
21
-0.427500
31
0.0
0
LINE
8
0
6
CONTINUOUS
10
-0.067343
20
0.427000
30
0.0
11
-0.067343
21
0.426687
31
0.0
0
LINE
8
0
6
CONTINUOUS
10
-0.056342
20
0.427500
30
0.0
11
-0.053542
21
0.427500
31
0.0
0
LINE
8
0
6
CONTINUOUS
10
-0.053542
20
0.427500
30
0.0
11
-0.050842
21
0.427500
31
0.0
0
LINE
8
0
6
CONTINUOUS
10
-0.050842
20
0.427500
30
0.0
11
-0.048542
21
0.427500
31
0.0
0
LINE
8
0
6
CONTINUOUS
10
-0.048542
20
0.427500
30
0.0
11
-0.046842
21
0.427500
31
0.0
0
LINE
8
0
6
CONTINUOUS
10
-0.046842
20
0.427500
30
0.0
11
-0.045742
21
0.427500
31
0.0
0
LINE
8
0
6
CONTINUOUS
10
-0.045342
20
0.427500
30
0.0
11
-0.045342
21
0.428208
31
0.0
0
LINE
8
0
6
CONTINUOUS
10
-0.045742
20
0.427500
30
0.0
11
-0.045342
21
0.427500
31
0.0
0
LINE
8
0
6
CONTINUOUS
10
-0.045342
20
0.428208
30
0.0
11
-0.045342
21
0.478792
31
0.0
0
LINE
8
0
6
CONTINUOUS
10
-0.118368
20
0.479500
30
0.0
11
-0.118368
21
0.478792
31
0.0
0
LINE
8
0
6
CONTINUOUS
10
-0.056342
20
0.427500
30
0.0
11
-0.117868
21
0.427500
31
0.0
0
LINE
8
0
6
CONTINUOUS
10
-0.118368
20
0.428208
30
0.0
11
-0.118368
21
0.427500
31
0.0
0
LINE
8
0
6
CONTINUOUS
10
-0.118368
20
0.478792
30
0.0
11
-0.118368
21
0.428208
31
0.0
0
LINE
8
0
6
CONTINUOUS
10
-0.045342
20
0.426687
30
0.0
11
-0.045342
21
0.426145
31
0.0
0
LINE
8
0
6
CONTINUOUS
10
-0.067343
20
0.426687
30
0.0
11
-0.067343
21
0.426145
31
0.0
0
LINE
8
0
6
CONTINUOUS
10
-0.045342
20
-0.427500
30
0.0
11
-0.045342
21
-0.428054
31
0.0
0
LINE
8
0
6
CONTINUOUS
10
-0.045342
20
-0.428054
30
0.0
11
-0.045342
21
-0.478946
31
0.0
0
LINE
8
0
6
CONTINUOUS
10
-0.118368
20
-0.427500
30
0.0
11
-0.118368
21
-0.428054
31
0.0
0
LINE
8
0
6
CONTINUOUS
10
-0.118368
20
-0.428054
30
0.0
11
-0.118368
21
-0.478946
31
0.0
0
LINE
8
0
6
CONTINUOUS
10
-0.118368
20
-0.479500
30
0.0
11
-0.117868
21
-0.479500
31
0.0
0
LINE
8
0
6
CONTINUOUS
10
-0.118368
20
-0.478946
30
0.0
11
-0.118368
21
-0.479500
31
0.0
0
LINE
8
0
6
CONTINUOUS
10
-0.117868
20
-0.427500
30
0.0
11
-0.056342
21
-0.427500
31
0.0
0
LINE
8
0
6
CONTINUOUS
10
-0.118368
20
-0.427500
30
0.0
11
-0.117868
21
-0.427500
31
0.0
0
LINE
8
0
6
CONTINUOUS
10
-0.045342
20
-0.427000
30
0.0
11
-0.045342
21
-0.426786
31
0.0
0
LINE
8
0
6
CONTINUOUS
10
-0.067343
20
-0.427000
30
0.0
11
-0.067343
21
-0.426786
31
0.0
0
LINE
8
0
6
CONTINUOUS
10
-0.045342
20
0.426145
30
0.0
11
-0.045342
21
0.250888
31
0.0
0
LINE
8
0
6
CONTINUOUS
10
-0.045342
20
0.244134
30
0.0
11
-0.045342
21
0.239692
31
0.0
0
LINE
8
0
6
CONTINUOUS
10
-0.045342
20
0.208683
30
0.0
11
-0.045342
21
-0.426206
31
0.0
0
LINE
8
0
6
CONTINUOUS
10
-0.067343
20
0.426145
30
0.0
11
-0.067343
21
0.239464
31
0.0
0
LINE
8
0
6
CONTINUOUS
10
-0.067343
20
0.209001
30
0.0
11
-0.067343
21
-0.426206
31
0.0
0
LINE
8
0
6
CONTINUOUS
10
-0.045342
20
-0.426206
30
0.0
11
-0.045342
21
-0.426786
31
0.0
0
LINE
8
0
6
CONTINUOUS
10
-0.067343
20
-0.426206
30
0.0
11
-0.067343
21
-0.426786
31
0.0
0
LINE
8
0
6
CONTINUOUS
10
-0.117868
20
0.427500
30
0.0
11
-0.118368
21
0.427500
31
0.0
0
LINE
8
0
6
CONTINUOUS
10
-0.117868
20
0.479500
30
0.0
11
-0.056342
21
0.479500
31
0.0
0
LINE
8
0
6
CONTINUOUS
10
-0.118368
20
0.479500
30
0.0
11
-0.117868
21
0.479500
31
0.0
0
LINE
8
0
6
CONTINUOUS
10
-0.071358
20
0.212966
30
0.0
11
-0.074350
21
0.207415
31
0.0
0
LINE
8
0
6
CONTINUOUS
10
-0.068532
20
0.182081
30
0.0
11
-0.067343
21
0.184627
31
0.0
0
LINE
8
0
6
CONTINUOUS
10
-0.074350
20
0.207415
30
0.0
11
-0.083253
21
0.188350
31
0.0
0
LINE
8
0
6
CONTINUOUS
10
-0.075011
20
0.165299
30
0.0
11
-0.068532
21
0.182081
31
0.0
0
LINE
8
0
6
CONTINUOUS
10
-0.083253
20
0.188350
30
0.0
11
-0.090148
21
0.170482
31
0.0
0
LINE
8
0
6
CONTINUOUS
10
-0.079771
20
0.149438
30
0.0
11
-0.075011
21
0.165299
31
0.0
0
LINE
8
0
6
CONTINUOUS
10
-0.090148
20
0.170482
30
0.0
11
-0.095266
21
0.153424
31
0.0
0
LINE
8
0
6
CONTINUOUS
10
-0.083088
20
0.134028
30
0.0
11
-0.079771
21
0.149438
31
0.0
0
LINE
8
0
6
CONTINUOUS
10
-0.095266
20
0.153424
30
0.0
11
-0.098844
21
0.136810
31
0.0
0
LINE
8
0
6
CONTINUOUS
10
-0.085223
20
0.118589
30
0.0
11
-0.083088
21
0.134028
31
0.0
0
LINE
8
0
6
CONTINUOUS
10
-0.098844
20
0.136810
30
0.0
11
-0.101133
21
0.120287
31
0.0
0
LINE
8
0
6
CONTINUOUS
10
-0.086420
20
0.102652
30
0.0
11
-0.085223
21
0.118589
31
0.0
0
LINE
8
0
6
CONTINUOUS
10
-0.101133
20
0.120287
30
0.0
11
-0.102398
21
0.103488
31
0.0
0
LINE
8
0
6
CONTINUOUS
10
-0.086917
20
0.085771
30
0.0
11
-0.086420
21
0.102652
31
0.0
0
LINE
8
0
6
CONTINUOUS
10
-0.102398
20
0.103488
30
0.0
11
-0.102915
21
0.086024
31
0.0
0
LINE
8
0
6
CONTINUOUS
10
-0.086954
20
0.067530
30
0.0
11
-0.086917
21
0.085771
31
0.0
0
LINE
8
0
6
CONTINUOUS
10
-0.102915
20
0.086024
30
0.0
11
-0.102954
21
0.067477
31
0.0
0
LINE
8
0
6
CONTINUOUS
10
-0.086779
20
0.047558
30
0.0
11
-0.086954
21
0.067530
31
0.0
0
LINE
8
0
6
CONTINUOUS
10
-0.102954
20
0.067477
30
0.0
11
-0.102778
21
0.047384
31
0.0
0
LINE
8
0
6
CONTINUOUS
10
-0.086174
20
0.000857
30
0.0
11
-0.086779
21
0.047558
31
0.0
0
LINE
8
0
6
CONTINUOUS
10
-0.102778
20
0.047384
30
0.0
11
-0.102173
21
0.000614
31
0.0
0
LINE
8
0
6
CONTINUOUS
10
-0.085193
20
-0.055465
30
0.0
11
-0.086174
21
0.000857
31
0.0
0
LINE
8
0
6
CONTINUOUS
10
-0.102173
20
0.000614
30
0.0
11
-0.101190
21
-0.055764
31
0.0
0
LINE
8
0
6
CONTINUOUS
10
-0.083938
20
-0.118305
30
0.0
11
-0.085193
21
-0.055465
31
0.0
0
LINE
8
0
6
CONTINUOUS
10
-0.101190
20
-0.055764
30
0.0
11
-0.099934
21
-0.118637
31
0.0
0
LINE
8
0
6
CONTINUOUS
10
-0.082513
20
-0.184549
30
0.0
11
-0.083938
21
-0.118305
31
0.0
0
LINE
8
0
6
CONTINUOUS
10
-0.099934
20
-0.118637
30
0.0
11
-0.098509
21
-0.184900
31
0.0
0
LINE
8
0
6
CONTINUOUS
10
-0.081023
20
-0.251086
30
0.0
11
-0.082513
21
-0.184549
31
0.0
0
LINE
8
0
6
CONTINUOUS
10
-0.098509
20
-0.184900
30
0.0
11
-0.097019
21
-0.251448
31
0.0
0
LINE
8
0
6
CONTINUOUS
10
-0.079571
20
-0.314807
30
0.0
11
-0.081023
21
-0.251086
31
0.0
0
LINE
8
0
6
CONTINUOUS
10
-0.097019
20
-0.251448
30
0.0
11
-0.095567
21
-0.315171
31
0.0
0
LINE
8
0
6
CONTINUOUS
10
-0.078261
20
-0.372604
30
0.0
11
-0.079571
21
-0.314807
31
0.0
0
LINE
8
0
6
CONTINUOUS
10
-0.095567
20
-0.315171
30
0.0
11
-0.094257
21
-0.372960
31
0.0
0
LINE
8
0
6
CONTINUOUS
10
-0.077196
20
-0.421372
30
0.0
11
-0.078261
21
-0.372604
31
0.0
0
LINE
8
0
6
CONTINUOUS
10
-0.094257
20
-0.372960
30
0.0
11
-0.093193
21
-0.421703
31
0.0
0
LINE
8
0
6
CONTINUOUS
10
-0.077077
20
-0.427500
30
0.0
11
-0.077196
21
-0.421372
31
0.0
0
LINE
8
0
6
CONTINUOUS
10
-0.093193
20
-0.421703
30
0.0
11
-0.093080
21
-0.427500
31
0.0
0
LINE
8
0
6
CONTINUOUS
10
-0.076367
20
-0.411211
30
0.0
11
-0.077110
21
-0.411211
31
0.0
0
LINE
8
0
6
CONTINUOUS
10
-0.077110
20
-0.411211
30
0.0
11
-0.077189
21
-0.411211
31
0.0
0
LINE
8
0
6
CONTINUOUS
10
-0.077189
20
-0.411211
30
0.0
11
-0.077418
21
-0.411211
31
0.0
0
LINE
8
0
6
CONTINUOUS
10
-0.076367
20
-0.427500
30
0.0
11
-0.076367
21
-0.419977
31
0.0
0
LINE
8
0
6
CONTINUOUS
10
-0.076803
20
-0.411211
30
0.0
11
-0.077418
21
-0.411211
31
0.0
0
LINE
8
0
6
CONTINUOUS
10
-0.076367
20
-0.411211
30
0.0
11
-0.076410
21
-0.411211
31
0.0
0
LINE
8
0
6
CONTINUOUS
10
-0.076410
20
-0.411211
30
0.0
11
-0.076803
21
-0.411211
31
0.0
0
LINE
8
0
6
CONTINUOUS
10
-0.076367
20
-0.411214
30
0.0
11
-0.077040
21
-0.411214
31
0.0
0
LINE
8
0
6
CONTINUOUS
10
-0.076367
20
-0.417580
30
0.0
11
-0.076367
21
-0.411214
31
0.0
0
LINE
8
0
6
CONTINUOUS
10
-0.077040
20
-0.411214
30
0.0
11
-0.077112
21
-0.411214
31
0.0
0
LINE
8
0
6
CONTINUOUS
10
-0.076367
20
-0.419977
30
0.0
11
-0.076367
21
-0.417580
31
0.0
0
LINE
8
0
6
CONTINUOUS
10
-0.077112
20
-0.411214
30
0.0
11
-0.077418
21
-0.411214
31
0.0
0
LINE
8
0
6
CONTINUOUS
10
-0.030936
20
-0.443331
30
0.0
11
-0.030936
21
-0.440535
31
0.0
0
LINE
8
0
6
CONTINUOUS
10
-0.029649
20
-0.443331
30
0.0
11
-0.031597
21
-0.443331
31
0.0
0
LINE
8
0
6
CONTINUOUS
10
-0.035157
20
-0.443331
30
0.0
11
-0.039714
21
-0.443331
31
0.0
0
LINE
8
0
6
CONTINUOUS
10
-0.029649
20
-0.443331
30
0.0
11
-0.029649
21
-0.444711
31
0.0
0
LINE
8
0
6
CONTINUOUS
10
-0.044478
20
-0.443331
30
0.0
11
-0.045342
21
-0.443331
31
0.0
0
LINE
8
0
6
CONTINUOUS
10
-0.031597
20
-0.443331
30
0.0
11
-0.035157
21
-0.443331
31
0.0
0
LINE
8
0
6
CONTINUOUS
10
-0.039714
20
-0.443331
30
0.0
11
-0.044478
21
-0.443331
31
0.0
0
LINE
8
0
6
CONTINUOUS
10
-0.045342
20
-0.465979
30
0.0
11
-0.044105
21
-0.465979
31
0.0
0
LINE
8
0
6
CONTINUOUS
10
-0.044105
20
-0.465979
30
0.0
11
-0.039840
21
-0.465979
31
0.0
0
LINE
8
0
6
CONTINUOUS
10
-0.039840
20
-0.465979
30
0.0
11
-0.035761
21
-0.465979
31
0.0
0
LINE
8
0
6
CONTINUOUS
10
-0.035761
20
-0.465979
30
0.0
11
-0.032575
21
-0.465979
31
0.0
0
LINE
8
0
6
CONTINUOUS
10
-0.032575
20
-0.465979
30
0.0
11
-0.030830
21
-0.465979
31
0.0
0
LINE
8
0
6
CONTINUOUS
10
-0.030789
20
-0.465236
30
0.0
11
-0.030830
21
-0.465979
31
0.0
0
LINE
8
0
6
CONTINUOUS
10
-0.029649
20
-0.444711
30
0.0
11
-0.030789
21
-0.465236
31
0.0
0
LINE
8
0
6
CONTINUOUS
10
-0.096387
20
-0.392363
30
0.0
11
-0.097029
21
-0.392363
31
0.0
0
LINE
8
0
6
CONTINUOUS
10
-0.118368
20
-0.419859
30
0.0
11
-0.118368
21
-0.426553
31
0.0
0
LINE
8
0
6
CONTINUOUS
10
-0.118368
20
-0.413513
30
0.0
11
-0.118368
21
-0.419859
31
0.0
0
LINE
8
0
6
CONTINUOUS
10
-0.118368
20
-0.407631
30
0.0
11
-0.118368
21
-0.413513
31
0.0
0
LINE
8
0
6
CONTINUOUS
10
-0.118368
20
-0.402387
30
0.0
11
-0.118368
21
-0.407631
31
0.0
0
LINE
8
0
6
CONTINUOUS
10
-0.118368
20
-0.398171
30
0.0
11
-0.118368
21
-0.402387
31
0.0
0
LINE
8
0
6
CONTINUOUS
10
-0.118368
20
-0.395000
30
0.0
11
-0.118368
21
-0.398171
31
0.0
0
LINE
8
0
6
CONTINUOUS
10
-0.118368
20
-0.392979
30
0.0
11
-0.118368
21
-0.395000
31
0.0
0
LINE
8
0
6
CONTINUOUS
10
-0.118368
20
-0.392363
30
0.0
11
-0.118368
21
-0.392979
31
0.0
0
LINE
8
0
6
CONTINUOUS
10
-0.095211
20
-0.392990
30
0.0
11
-0.096387
21
-0.392363
31
0.0
0
LINE
8
0
6
CONTINUOUS
10
-0.073868
20
-0.426522
30
0.0
11
-0.073868
21
-0.421518
31
0.0
0
LINE
8
0
6
CONTINUOUS
10
-0.073868
20
-0.413445
30
0.0
11
-0.076367
21
-0.413363
31
0.0
0
LINE
8
0
6
CONTINUOUS
10
-0.093387
20
-0.412806
30
0.0
11
-0.093705
21
-0.412796
31
0.0
0
LINE
8
0
6
CONTINUOUS
10
-0.073868
20
-0.427500
30
0.0
11
-0.073868
21
-0.426522
31
0.0
0
LINE
8
0
6
CONTINUOUS
10
-0.095090
20
-0.394575
30
0.0
11
-0.095211
21
-0.392990
31
0.0
0
LINE
8
0
6
CONTINUOUS
10
-0.026770
20
-0.410695
30
0.0
11
-0.023773
21
-0.414730
31
0.0
0
LINE
8
0
6
CONTINUOUS
10
-0.067343
20
-0.410490
30
0.0
11
-0.073323
21
-0.410558
31
0.0
0
LINE
8
0
6
CONTINUOUS
10
-0.044589
20
-0.441444
30
0.0
11
-0.045342
21
-0.441112
31
0.0
0
LINE
8
0
6
CONTINUOUS
10
-0.073323
20
-0.410558
30
0.0
11
-0.073860
21
-0.410563
31
0.0
0
LINE
8
0
6
CONTINUOUS
10
-0.039617
20
-0.403614
30
0.0
11
-0.034639
21
-0.404317
31
0.0
0
LINE
8
0
6
CONTINUOUS
10
-0.044533
20
-0.441234
30
0.0
11
-0.045342
21
-0.440883
31
0.0
0
LINE
8
0
6
CONTINUOUS
10
-0.039684
20
-0.441955
30
0.0
11
-0.044533
21
-0.441234
31
0.0
0
LINE
8
0
6
CONTINUOUS
10
-0.034766
20
-0.441366
30
0.0
11
-0.039684
21
-0.441955
31
0.0
0
LINE
8
0
6
CONTINUOUS
10
-0.030159
20
-0.439508
30
0.0
11
-0.030936
21
-0.439821
31
0.0
0
LINE
8
0
6
CONTINUOUS
10
-0.023115
20
-0.432579
30
0.0
11
-0.026183
21
-0.436514
31
0.0
0
LINE
8
0
6
CONTINUOUS
10
-0.020577
20
-0.423058
30
0.0
11
-0.021209
21
-0.428021
31
0.0
0
LINE
8
0
6
CONTINUOUS
10
-0.021255
20
-0.418113
30
0.0
11
-0.020577
21
-0.423058
31
0.0
0
LINE
8
0
6
CONTINUOUS
10
-0.022783
20
-0.414371
30
0.0
11
-0.021255
21
-0.418113
31
0.0
0
LINE
8
0
6
CONTINUOUS
10
-0.026204
20
-0.409628
30
0.0
11
-0.026098
21
-0.409762
31
0.0
0
LINE
8
0
6
CONTINUOUS
10
-0.034787
20
-0.404868
30
0.0
11
-0.030192
21
-0.406679
31
0.0
0
LINE
8
0
6
CONTINUOUS
10
-0.039668
20
-0.404266
30
0.0
11
-0.034787
21
-0.404868
31
0.0
0
LINE
8
0
6
CONTINUOUS
10
-0.044515
20
-0.404965
30
0.0
11
-0.039668
21
-0.404266
31
0.0
0
LINE
8
0
6
CONTINUOUS
10
-0.045342
20
-0.405324
30
0.0
11
-0.044515
21
-0.404965
31
0.0
0
LINE
8
0
6
CONTINUOUS
10
-0.118368
20
-0.419859
30
0.0
11
-0.118368
21
-0.426553
31
0.0
0
LINE
8
0
6
CONTINUOUS
10
-0.118368
20
-0.413513
30
0.0
11
-0.118368
21
-0.419859
31
0.0
0
LINE
8
0
6
CONTINUOUS
10
-0.118368
20
-0.407631
30
0.0
11
-0.118368
21
-0.413513
31
0.0
0
LINE
8
0
6
CONTINUOUS
10
-0.118368
20
-0.402387
30
0.0
11
-0.118368
21
-0.407631
31
0.0
0
LINE
8
0
6
CONTINUOUS
10
-0.118368
20
-0.398171
30
0.0
11
-0.118368
21
-0.402387
31
0.0
0
LINE
8
0
6
CONTINUOUS
10
-0.118368
20
-0.395000
30
0.0
11
-0.118368
21
-0.398171
31
0.0
0
LINE
8
0
6
CONTINUOUS
10
-0.118368
20
-0.392363
30
0.0
11
-0.118368
21
-0.392979
31
0.0
0
LINE
8
0
6
CONTINUOUS
10
-0.097029
20
-0.392363
30
0.0
11
-0.118368
21
-0.392363
31
0.0
0
LINE
8
0
6
CONTINUOUS
10
-0.118368
20
-0.392979
30
0.0
11
-0.118368
21
-0.395000
31
0.0
0
LINE
8
0
6
CONTINUOUS
10
-0.093705
20
-0.412796
30
0.0
11
-0.095090
21
-0.394575
31
0.0
0
LINE
8
0
6
CONTINUOUS
10
-0.073858
20
-0.422444
30
0.0
11
-0.073858
21
-0.418640
31
0.0
0
LINE
8
0
6
CONTINUOUS
10
-0.073859
20
-0.415324
30
0.0
11
-0.073858
21
-0.412779
31
0.0
0
LINE
8
0
6
CONTINUOUS
10
-0.014453
20
-0.407989
30
0.0
11
-0.015344
21
-0.409106
31
0.0
0
LINE
8
0
6
CONTINUOUS
10
-0.014237
20
-0.406576
30
0.0
11
-0.014453
21
-0.407989
31
0.0
0
LINE
8
0
6
CONTINUOUS
10
-0.014755
20
-0.405245
30
0.0
11
-0.014237
21
-0.406576
31
0.0
0
LINE
8
0
6
CONTINUOUS
10
-0.017394
20
-0.403976
30
0.0
11
-0.015985
21
-0.404191
31
0.0
0
LINE
8
0
6
CONTINUOUS
10
-0.018722
20
-0.404497
30
0.0
11
-0.017394
21
-0.403976
31
0.0
0
LINE
8
0
6
CONTINUOUS
10
-0.015344
20
-0.409106
30
0.0
11
-0.022769
21
-0.414406
31
0.0
0
LINE
8
0
6
CONTINUOUS
10
-0.026098
20
-0.409762
30
0.0
11
-0.018722
21
-0.404497
31
0.0
0
LINE
8
0
6
CONTINUOUS
10
-0.015985
20
-0.404191
30
0.0
11
-0.014755
21
-0.405245
31
0.0
0
LINE
8
0
6
CONTINUOUS
10
-0.015670
20
-0.409299
30
0.0
11
-0.014781
21
-0.408184
31
0.0
0
LINE
8
0
6
CONTINUOUS
10
-0.023601
20
-0.414961
30
0.0
11
-0.015670
21
-0.409299
31
0.0
0
LINE
8
0
6
CONTINUOUS
10
-0.023773
20
-0.414730
30
0.0
11
-0.023601
21
-0.414961
31
0.0
0
LINE
8
0
6
CONTINUOUS
10
-0.026942
20
-0.410464
30
0.0
11
-0.026770
21
-0.410695
31
0.0
0
LINE
8
0
6
CONTINUOUS
10
-0.097029
20
-0.392363
30
0.0
11
-0.096387
21
-0.392363
31
0.0
0
LINE
8
0
6
CONTINUOUS
10
-0.029813
20
-0.440104
30
0.0
11
-0.030936
21
-0.440535
31
0.0
0
LINE
8
0
6
CONTINUOUS
10
-0.025708
20
-0.436941
30
0.0
11
-0.029813
21
-0.440104
31
0.0
0
LINE
8
0
6
CONTINUOUS
10
-0.022609
20
-0.432935
30
0.0
11
-0.025708
21
-0.436941
31
0.0
0
LINE
8
0
6
CONTINUOUS
10
-0.020578
20
-0.428132
30
0.0
11
-0.022609
21
-0.432935
31
0.0
0
LINE
8
0
6
CONTINUOUS
10
-0.019876
20
-0.423021
30
0.0
11
-0.020578
21
-0.428132
31
0.0
0
LINE
8
0
6
CONTINUOUS
10
-0.020627
20
-0.417965
30
0.0
11
-0.019876
21
-0.423021
31
0.0
0
LINE
8
0
6
CONTINUOUS
10
-0.022294
20
-0.414022
30
0.0
11
-0.020627
21
-0.417965
31
0.0
0
LINE
8
0
6
CONTINUOUS
10
-0.025807
20
-0.409213
30
0.0
11
-0.025634
21
-0.409431
31
0.0
0
LINE
8
0
6
CONTINUOUS
10
-0.029942
20
-0.406061
30
0.0
11
-0.025807
21
-0.409213
31
0.0
0
LINE
8
0
6
CONTINUOUS
10
-0.034639
20
-0.404317
30
0.0
11
-0.029942
21
-0.406061
31
0.0
0
LINE
8
0
6
CONTINUOUS
10
-0.044658
20
-0.404435
30
0.0
11
-0.039617
21
-0.403614
31
0.0
0
LINE
8
0
6
CONTINUOUS
10
-0.045342
20
-0.404725
30
0.0
11
-0.044658
21
-0.404435
31
0.0
0
LINE
8
0
6
CONTINUOUS
10
-0.118368
20
-0.392363
30
0.0
11
-0.097029
21
-0.392363
31
0.0
0
LINE
8
0
6
CONTINUOUS
10
-0.076367
20
-0.411211
30
0.0
11
-0.076803
21
-0.411211
31
0.0
0
LINE
8
0
6
CONTINUOUS
10
-0.076803
20
-0.411211
30
0.0
11
-0.077418
21
-0.411211
31
0.0
0
LINE
8
0
6
CONTINUOUS
10
-0.077418
20
-0.411211
30
0.0
11
-0.077189
21
-0.411211
31
0.0
0
LINE
8
0
6
CONTINUOUS
10
-0.077189
20
-0.411211
30
0.0
11
-0.077110
21
-0.411211
31
0.0
0
LINE
8
0
6
CONTINUOUS
10
-0.076367
20
-0.411211
30
0.0
11
-0.077110
21
-0.411211
31
0.0
0
LINE
8
0
6
CONTINUOUS
10
0.063561
20
0.360131
30
0.0
11
0.064149
21
0.360545
31
0.0
0
LINE
8
0
6
CONTINUOUS
10
0.062992
20
0.360938
30
0.0
11
0.063561
21
0.360131
31
0.0
0
LINE
8
0
6
CONTINUOUS
10
0.065949
20
0.368639
30
0.0
11
0.067069
21
0.369428
31
0.0
0
LINE
8
0
6
CONTINUOUS
10
0.065314
20
0.369540
30
0.0
11
0.065949
21
0.368639
31
0.0
0
LINE
8
0
6
CONTINUOUS
10
0.067069
20
0.369428
30
0.0
11
0.068779
21
0.370632
31
0.0
0
LINE
8
0
6
CONTINUOUS
10
0.091205
20
0.386126
30
0.0
11
0.090385
21
0.387291
31
0.0
0
LINE
8
0
6
CONTINUOUS
10
0.090422
20
0.385575
30
0.0
11
0.091205
21
0.386126
31
0.0
0
LINE
8
0
6
CONTINUOUS
10
0.088688
20
0.384354
30
0.0
11
0.090422
21
0.385575
31
0.0
0
LINE
8
0
6
CONTINUOUS
10
0.087737
20
0.383684
30
0.0
11
0.088688
21
0.384354
31
0.0
0
LINE
8
0
6
CONTINUOUS
10
0.087360
20
0.384219
30
0.0
11
0.087737
21
0.383684
31
0.0
0
LINE
8
0
6
CONTINUOUS
10
0.100513
20
0.392200
30
0.0
11
0.100952
21
0.392509
31
0.0
0
LINE
8
0
6
CONTINUOUS
10
0.098839
20
0.391021
30
0.0
11
0.100513
21
0.392200
31
0.0
0
LINE
8
0
6
CONTINUOUS
10
0.097603
20
0.390150
30
0.0
11
0.098839
21
0.391021
31
0.0
0
LINE
8
0
6
CONTINUOUS
10
0.097080
20
0.390893
30
0.0
11
0.097603
21
0.390150
31
0.0
0
LINE
8
0
6
CONTINUOUS
10
0.112610
20
0.400853
30
0.0
11
0.114268
21
0.402020
31
0.0
0
LINE
8
0
6
CONTINUOUS
10
0.108051
20
0.397527
30
0.0
11
0.108126
21
0.397580
31
0.0
0
LINE
8
0
6
CONTINUOUS
10
0.112692
20
0.400694
30
0.0
11
0.112277
21
0.401285
31
0.0
0
LINE
8
0
6
CONTINUOUS
10
0.111356
20
0.399753
30
0.0
11
0.112692
21
0.400694
31
0.0
0
LINE
8
0
6
CONTINUOUS
10
0.109727
20
0.398606
30
0.0
11
0.111356
21
0.399753
31
0.0
0
LINE
8
0
6
CONTINUOUS
10
0.109435
20
0.398400
30
0.0
11
0.109727
21
0.398606
31
0.0
0
LINE
8
0
6
CONTINUOUS
10
0.109333
20
0.398546
30
0.0
11
0.109435
21
0.398400
31
0.0
0
LINE
8
0
6
CONTINUOUS
10
0.079171
20
0.377904
30
0.0
11
0.080291
21
0.378693
31
0.0
0
LINE
8
0
6
CONTINUOUS
10
0.077461
20
0.376700
30
0.0
11
0.079171
21
0.377904
31
0.0
0
LINE
8
0
6
CONTINUOUS
10
0.076873
20
0.376286
30
0.0
11
0.077461
21
0.376700
31
0.0
0
LINE
8
0
6
CONTINUOUS
10
0.076454
20
0.376880
30
0.0
11
0.076873
21
0.376286
31
0.0
0
LINE
8
0
6
CONTINUOUS
10
0.081198
20
0.372018
30
0.0
11
0.080914
21
0.372421
31
0.0
0
LINE
8
0
6
CONTINUOUS
10
0.080415
20
0.371466
30
0.0
11
0.081198
21
0.372018
31
0.0
0
LINE
8
0
6
CONTINUOUS
10
0.078681
20
0.370245
30
0.0
11
0.080415
21
0.371466
31
0.0
0
LINE
8
0
6
CONTINUOUS
10
0.077730
20
0.369575
30
0.0
11
0.078681
21
0.370245
31
0.0
0
LINE
8
0
6
CONTINUOUS
10
0.077140
20
0.370413
30
0.0
11
0.077730
21
0.369575
31
0.0
0
LINE
8
0
6
CONTINUOUS
10
0.083575
20
0.374306
30
0.0
11
0.083126
21
0.374944
31
0.0
0
LINE
8
0
6
CONTINUOUS
10
0.082792
20
0.373755
30
0.0
11
0.083575
21
0.374306
31
0.0
0
LINE
8
0
6
CONTINUOUS
10
0.081058
20
0.372534
30
0.0
11
0.082792
21
0.373755
31
0.0
0
LINE
8
0
6
CONTINUOUS
10
0.085702
20
0.376949
30
0.0
11
0.085078
21
0.377836
31
0.0
0
LINE
8
0
6
CONTINUOUS
10
0.084919
20
0.376397
30
0.0
11
0.085702
21
0.376949
31
0.0
0
LINE
8
0
6
CONTINUOUS
10
0.083186
20
0.375176
30
0.0
11
0.084919
21
0.376397
31
0.0
0
LINE
8
0
6
CONTINUOUS
10
0.082234
20
0.374506
30
0.0
11
0.083186
21
0.375176
31
0.0
0
LINE
8
0
6
CONTINUOUS
10
0.081709
20
0.375252
30
0.0
11
0.082234
21
0.374506
31
0.0
0
LINE
8
0
6
CONTINUOUS
10
0.087676
20
0.379810
30
0.0
11
0.087367
21
0.380249
31
0.0
0
LINE
8
0
6
CONTINUOUS
10
0.086893
20
0.379259
30
0.0
11
0.087676
21
0.379810
31
0.0
0
LINE
8
0
6
CONTINUOUS
10
0.085159
20
0.378038
30
0.0
11
0.086893
21
0.379259
31
0.0
0
LINE
8
0
6
CONTINUOUS
10
0.084208
20
0.377368
30
0.0
11
0.085159
21
0.378038
31
0.0
0
LINE
8
0
6
CONTINUOUS
10
0.089601
20
0.382739
30
0.0
11
0.088635
21
0.384112
31
0.0
0
LINE
8
0
6
CONTINUOUS
10
0.088819
20
0.382188
30
0.0
11
0.089601
21
0.382739
31
0.0
0
LINE
8
0
6
CONTINUOUS
10
0.087085
20
0.380967
30
0.0
11
0.088819
21
0.382188
31
0.0
0
LINE
8
0
6
CONTINUOUS
10
0.086134
20
0.380297
30
0.0
11
0.087085
21
0.380967
31
0.0
0
LINE
8
0
6
CONTINUOUS
10
0.085463
20
0.381250
30
0.0
11
0.086134
21
0.380297
31
0.0
0
LINE
8
0
6
CONTINUOUS
10
0.088735
20
0.377308
30
0.0
11
0.088373
21
0.377822
31
0.0
0
LINE
8
0
6
CONTINUOUS
10
0.088296
20
0.376999
30
0.0
11
0.088735
21
0.377308
31
0.0
0
LINE
8
0
6
CONTINUOUS
10
0.086622
20
0.375820
30
0.0
11
0.088296
21
0.376999
31
0.0
0
LINE
8
0
6
CONTINUOUS
10
0.085386
20
0.374949
30
0.0
11
0.086622
21
0.375820
31
0.0
0
LINE
8
0
6
CONTINUOUS
10
0.084943
20
0.375578
30
0.0
11
0.085386
21
0.374949
31
0.0
0
LINE
8
0
6
CONTINUOUS
10
0.088088
20
0.377622
30
0.0
11
0.089324
21
0.378492
31
0.0
0
LINE
8
0
6
CONTINUOUS
10
0.087661
20
0.378228
30
0.0
11
0.088088
21
0.377622
31
0.0
0
LINE
8
0
6
CONTINUOUS
10
0.093977
20
0.382884
30
0.0
11
0.093435
21
0.383653
31
0.0
0
LINE
8
0
6
CONTINUOUS
10
0.093538
20
0.382575
30
0.0
11
0.093977
21
0.382884
31
0.0
0
LINE
8
0
6
CONTINUOUS
10
0.091864
20
0.381396
30
0.0
11
0.093538
21
0.382575
31
0.0
0
LINE
8
0
6
CONTINUOUS
10
0.090628
20
0.380525
30
0.0
11
0.091864
21
0.381396
31
0.0
0
LINE
8
0
6
CONTINUOUS
10
0.090128
20
0.381235
30
0.0
11
0.090628
21
0.380525
31
0.0
0
LINE
8
0
6
CONTINUOUS
10
0.096500
20
0.385811
30
0.0
11
0.096013
21
0.386502
31
0.0
0
LINE
8
0
6
CONTINUOUS
10
0.096061
20
0.385502
30
0.0
11
0.096500
21
0.385811
31
0.0
0
LINE
8
0
6
CONTINUOUS
10
0.094387
20
0.384323
30
0.0
11
0.096061
21
0.385502
31
0.0
0
LINE
8
0
6
CONTINUOUS
10
0.093151
20
0.383452
30
0.0
11
0.094387
21
0.384323
31
0.0
0
LINE
8
0
6
CONTINUOUS
10
0.092603
20
0.384231
30
0.0
11
0.093151
21
0.383452
31
0.0
0
LINE
8
0
6
CONTINUOUS
10
0.098660
20
0.389254
30
0.0
11
0.097888
21
0.390351
31
0.0
0
LINE
8
0
6
CONTINUOUS
10
0.098221
20
0.388945
30
0.0
11
0.098660
21
0.389254
31
0.0
0
LINE
8
0
6
CONTINUOUS
10
0.096546
20
0.387766
30
0.0
11
0.098221
21
0.388945
31
0.0
0
LINE
8
0
6
CONTINUOUS
10
0.095311
20
0.386895
30
0.0
11
0.096546
21
0.387766
31
0.0
0
LINE
8
0
6
CONTINUOUS
10
0.094771
20
0.387662
30
0.0
11
0.095311
21
0.386895
31
0.0
0
LINE
8
0
6
CONTINUOUS
10
0.093315
20
0.381252
30
0.0
11
0.094855
21
0.382337
31
0.0
0
LINE
8
0
6
CONTINUOUS
10
0.091850
20
0.380221
30
0.0
11
0.093315
21
0.381252
31
0.0
0
LINE
8
0
6
CONTINUOUS
10
0.091414
20
0.380840
30
0.0
11
0.091850
21
0.380221
31
0.0
0
LINE
8
0
6
CONTINUOUS
10
0.095420
20
0.383633
30
0.0
11
0.096885
21
0.384665
31
0.0
0
LINE
8
0
6
CONTINUOUS
10
0.094991
20
0.384242
30
0.0
11
0.095420
21
0.383633
31
0.0
0
LINE
8
0
6
CONTINUOUS
10
0.101891
20
0.389469
30
0.0
11
0.101292
21
0.390320
31
0.0
0
LINE
8
0
6
CONTINUOUS
10
0.101816
20
0.389416
30
0.0
11
0.101891
21
0.389469
31
0.0
0
LINE
8
0
6
CONTINUOUS
10
0.100276
20
0.388332
30
0.0
11
0.101816
21
0.389416
31
0.0
0
LINE
8
0
6
CONTINUOUS
10
0.098811
20
0.387300
30
0.0
11
0.100276
21
0.388332
31
0.0
0
LINE
8
0
6
CONTINUOUS
10
0.098430
20
0.387841
30
0.0
11
0.098811
21
0.387300
31
0.0
0
LINE
8
0
6
CONTINUOUS
10
0.104914
20
0.393500
30
0.0
11
0.104989
21
0.393553
31
0.0
0
LINE
8
0
6
CONTINUOUS
10
0.103374
20
0.392415
30
0.0
11
0.104914
21
0.393500
31
0.0
0
LINE
8
0
6
CONTINUOUS
10
0.101909
20
0.391384
30
0.0
11
0.103374
21
0.392415
31
0.0
0
LINE
8
0
6
CONTINUOUS
10
0.101502
20
0.391961
30
0.0
11
0.101909
21
0.391384
31
0.0
0
LINE
8
0
6
CONTINUOUS
10
0.105040
20
0.391912
30
0.0
11
0.104380
21
0.392850
31
0.0
0
LINE
8
0
6
CONTINUOUS
10
0.103704
20
0.390971
30
0.0
11
0.105040
21
0.391912
31
0.0
0
LINE
8
0
6
CONTINUOUS
10
0.102075
20
0.389824
30
0.0
11
0.103704
21
0.390971
31
0.0
0
LINE
8
0
6
CONTINUOUS
10
0.101783
20
0.389618
30
0.0
11
0.102075
21
0.389824
31
0.0
0
LINE
8
0
6
CONTINUOUS
10
0.073374
20
0.366956
30
0.0
11
0.072847
21
0.367705
31
0.0
0
LINE
8
0
6
CONTINUOUS
10
0.072253
20
0.366167
30
0.0
11
0.073374
21
0.366956
31
0.0
0
LINE
8
0
6
CONTINUOUS
10
0.070544
20
0.364963
30
0.0
11
0.072253
21
0.366167
31
0.0
0
LINE
8
0
6
CONTINUOUS
10
0.069956
20
0.364548
30
0.0
11
0.070544
21
0.364963
31
0.0
0
LINE
8
0
6
CONTINUOUS
10
0.069239
20
0.365566
30
0.0
11
0.069956
21
0.364548
31
0.0
0
LINE
8
0
6
CONTINUOUS
10
0.075351
20
0.369539
30
0.0
11
0.074697
21
0.370467
31
0.0
0
LINE
8
0
6
CONTINUOUS
10
0.074230
20
0.368750
30
0.0
11
0.075351
21
0.369539
31
0.0
0
LINE
8
0
6
CONTINUOUS
10
0.072521
20
0.367546
30
0.0
11
0.074230
21
0.368750
31
0.0
0
LINE
8
0
6
CONTINUOUS
10
0.071932
20
0.367131
30
0.0
11
0.072521
21
0.367546
31
0.0
0
LINE
8
0
6
CONTINUOUS
10
0.071258
20
0.368089
30
0.0
11
0.071932
21
0.367131
31
0.0
0
LINE
8
0
6
CONTINUOUS
10
0.077235
20
0.372254
30
0.0
11
0.076923
21
0.372696
31
0.0
0
LINE
8
0
6
CONTINUOUS
10
0.076114
20
0.371465
30
0.0
11
0.077235
21
0.372254
31
0.0
0
LINE
8
0
6
CONTINUOUS
10
0.074405
20
0.370261
30
0.0
11
0.076114
21
0.371465
31
0.0
0
LINE
8
0
6
CONTINUOUS
10
0.073816
20
0.369846
30
0.0
11
0.074405
21
0.370261
31
0.0
0
LINE
8
0
6
CONTINUOUS
10
0.079020
20
0.375109
30
0.0
11
0.077855
21
0.376763
31
0.0
0
LINE
8
0
6
CONTINUOUS
10
0.077899
20
0.374319
30
0.0
11
0.079020
21
0.375109
31
0.0
0
LINE
8
0
6
CONTINUOUS
10
0.076190
20
0.373116
30
0.0
11
0.077899
21
0.374319
31
0.0
0
LINE
8
0
6
CONTINUOUS
10
0.075601
20
0.372701
30
0.0
11
0.076190
21
0.373116
31
0.0
0
LINE
8
0
6
CONTINUOUS
10
0.074923
20
0.373664
30
0.0
11
0.075601
21
0.372701
31
0.0
0
LINE
8
0
6
CONTINUOUS
10
0.044161
20
0.351839
30
0.0
11
0.045282
21
0.352628
31
0.0
0
LINE
8
0
6
CONTINUOUS
10
0.042452
20
0.350635
30
0.0
11
0.044161
21
0.351839
31
0.0
0
LINE
8
0
6
CONTINUOUS
10
0.041863
20
0.350221
30
0.0
11
0.042452
21
0.350635
31
0.0
0
LINE
8
0
6
CONTINUOUS
10
0.041246
20
0.351097
30
0.0
11
0.041863
21
0.350221
31
0.0
0
LINE
8
0
6
CONTINUOUS
10
0.052669
20
0.355693
30
0.0
11
0.052329
21
0.356176
31
0.0
0
LINE
8
0
6
CONTINUOUS
10
0.051548
20
0.354904
30
0.0
11
0.052669
21
0.355693
31
0.0
0
LINE
8
0
6
CONTINUOUS
10
0.049839
20
0.353700
30
0.0
11
0.051548
21
0.354904
31
0.0
0
LINE
8
0
6
CONTINUOUS
10
0.049250
20
0.353286
30
0.0
11
0.049839
21
0.353700
31
0.0
0
LINE
8
0
6
CONTINUOUS
10
0.048355
20
0.354557
30
0.0
11
0.049250
21
0.353286
31
0.0
0
LINE
8
0
6
CONTINUOUS
10
0.059659
20
0.359321
30
0.0
11
0.059244
21
0.359911
31
0.0
0
LINE
8
0
6
CONTINUOUS
10
0.058539
20
0.358532
30
0.0
11
0.059659
21
0.359321
31
0.0
0
LINE
8
0
6
CONTINUOUS
10
0.056829
20
0.357329
30
0.0
11
0.058539
21
0.358532
31
0.0
0
LINE
8
0
6
CONTINUOUS
10
0.066553
20
0.363088
30
0.0
11
0.065791
21
0.364169
31
0.0
0
LINE
8
0
6
CONTINUOUS
10
0.065432
20
0.362298
30
0.0
11
0.066553
21
0.363088
31
0.0
0
LINE
8
0
6
CONTINUOUS
10
0.063723
20
0.361095
30
0.0
11
0.065432
21
0.362298
31
0.0
0
LINE
8
0
6
CONTINUOUS
10
0.063134
20
0.360680
30
0.0
11
0.063723
21
0.361095
31
0.0
0
LINE
8
0
6
CONTINUOUS
10
0.062327
20
0.361826
30
0.0
11
0.063134
21
0.360680
31
0.0
0
LINE
8
0
6
CONTINUOUS
10
0.065898
20
0.365963
30
0.0
11
0.067607
21
0.367167
31
0.0
0
LINE
8
0
6
CONTINUOUS
10
0.068195
20
0.367581
30
0.0
11
0.067551
21
0.368496
31
0.0
0
LINE
8
0
6
CONTINUOUS
10
0.067607
20
0.367167
30
0.0
11
0.068195
21
0.367581
31
0.0
0
LINE
8
0
6
CONTINUOUS
10
0.063466
20
0.362640
30
0.0
11
0.064586
21
0.363429
31
0.0
0
LINE
8
0
6
CONTINUOUS
10
0.064586
20
0.363429
30
0.0
11
0.066296
21
0.364633
31
0.0
0
LINE
8
0
6
CONTINUOUS
10
0.066296
20
0.364633
30
0.0
11
0.066884
21
0.365047
31
0.0
0
LINE
8
0
6
CONTINUOUS
10
0.056748
20
0.359418
30
0.0
11
0.058457
21
0.360622
31
0.0
0
LINE
8
0
6
CONTINUOUS
10
0.059045
20
0.361036
30
0.0
11
0.058464
21
0.361862
31
0.0
0
LINE
8
0
6
CONTINUOUS
10
0.058457
20
0.360622
30
0.0
11
0.059045
21
0.361036
31
0.0
0
LINE
8
0
6
CONTINUOUS
10
0.048127
20
0.355113
30
0.0
11
0.049248
21
0.355903
31
0.0
0
LINE
8
0
6
CONTINUOUS
10
0.047293
20
0.356298
30
0.0
11
0.048127
21
0.355113
31
0.0
0
LINE
8
0
6
CONTINUOUS
10
0.049248
20
0.355903
30
0.0
11
0.050957
21
0.357106
31
0.0
0
LINE
8
0
6
CONTINUOUS
10
0.051545
20
0.357521
30
0.0
11
0.051115
21
0.358132
31
0.0
0
LINE
8
0
6
CONTINUOUS
10
0.050957
20
0.357106
30
0.0
11
0.051545
21
0.357521
31
0.0
0
LINE
8
0
6
CONTINUOUS
10
0.056005
20
0.361511
30
0.0
11
0.057126
21
0.362300
31
0.0
0
LINE
8
0
6
CONTINUOUS
10
0.055400
20
0.362370
30
0.0
11
0.056005
21
0.361511
31
0.0
0
LINE
8
0
6
CONTINUOUS
10
0.057126
20
0.362300
30
0.0
11
0.058835
21
0.363504
31
0.0
0
LINE
8
0
6
CONTINUOUS
10
0.059424
20
0.363918
30
0.0
11
0.059139
21
0.364322
31
0.0
0
LINE
8
0
6
CONTINUOUS
10
0.058835
20
0.363504
30
0.0
11
0.059424
21
0.363918
31
0.0
0
LINE
8
0
6
CONTINUOUS
10
0.073034
20
0.366015
30
0.0
11
0.072739
21
0.366433
31
0.0
0
LINE
8
0
6
CONTINUOUS
10
0.071913
20
0.365225
30
0.0
11
0.073034
21
0.366015
31
0.0
0
LINE
8
0
6
CONTINUOUS
10
0.070204
20
0.364022
30
0.0
11
0.071913
21
0.365225
31
0.0
0
LINE
8
0
6
CONTINUOUS
10
0.048526
20
0.352521
30
0.0
11
0.048267
21
0.352888
31
0.0
0
LINE
8
0
6
CONTINUOUS
10
0.047405
20
0.351732
30
0.0
11
0.048526
21
0.352521
31
0.0
0
LINE
8
0
6
CONTINUOUS
10
0.045696
20
0.350528
30
0.0
11
0.047405
21
0.351732
31
0.0
0
LINE
8
0
6
CONTINUOUS
10
0.045107
20
0.350113
30
0.0
11
0.045696
21
0.350528
31
0.0
0
LINE
8
0
6
CONTINUOUS
10
0.044378
20
0.351149
30
0.0
11
0.045107
21
0.350113
31
0.0
0
LINE
8
0
6
CONTINUOUS
10
0.054853
20
0.355610
30
0.0
11
0.054328
21
0.356356
31
0.0
0
LINE
8
0
6
CONTINUOUS
10
0.053732
20
0.354820
30
0.0
11
0.054853
21
0.355610
31
0.0
0
LINE
8
0
6
CONTINUOUS
10
0.052023
20
0.353617
30
0.0
11
0.053732
21
0.354820
31
0.0
0
LINE
8
0
6
CONTINUOUS
10
0.051435
20
0.353202
30
0.0
11
0.052023
21
0.353617
31
0.0
0
LINE
8
0
6
CONTINUOUS
10
0.050590
20
0.354402
30
0.0
11
0.051435
21
0.353202
31
0.0
0
LINE
8
0
6
CONTINUOUS
10
0.060937
20
0.359044
30
0.0
11
0.060577
21
0.359555
31
0.0
0
LINE
8
0
6
CONTINUOUS
10
0.059816
20
0.358255
30
0.0
11
0.060937
21
0.359044
31
0.0
0
LINE
8
0
6
CONTINUOUS
10
0.058107
20
0.357051
30
0.0
11
0.059816
21
0.358255
31
0.0
0
LINE
8
0
6
CONTINUOUS
10
0.057519
20
0.356637
30
0.0
11
0.058107
21
0.357051
31
0.0
0
LINE
8
0
6
CONTINUOUS
10
0.056739
20
0.357744
30
0.0
11
0.057519
21
0.356637
31
0.0
0
LINE
8
0
6
CONTINUOUS
10
0.066979
20
0.362538
30
0.0
11
0.066492
21
0.363230
31
0.0
0
LINE
8
0
6
CONTINUOUS
10
0.065859
20
0.361749
30
0.0
11
0.066979
21
0.362538
31
0.0
0
LINE
8
0
6
CONTINUOUS
10
0.064149
20
0.360545
30
0.0
11
0.065859
21
0.361749
31
0.0
0
LINE
8
0
6
CONTINUOUS
10
0.066404
20
0.362105
30
0.0
11
0.066993
21
0.362519
31
0.0
0
LINE
8
0
6
CONTINUOUS
10
0.064695
20
0.360901
30
0.0
11
0.066404
21
0.362105
31
0.0
0
LINE
8
0
6
CONTINUOUS
10
0.060354
20
0.358621
30
0.0
11
0.060943
21
0.359036
31
0.0
0
LINE
8
0
6
CONTINUOUS
10
0.058645
20
0.357418
30
0.0
11
0.060354
21
0.358621
31
0.0
0
LINE
8
0
6
CONTINUOUS
10
0.048017
20
0.351992
30
0.0
11
0.048606
21
0.352407
31
0.0
0
LINE
8
0
6
CONTINUOUS
10
0.045187
20
0.349999
30
0.0
11
0.046308
21
0.350789
31
0.0
0
LINE
8
0
6
CONTINUOUS
10
0.046308
20
0.350789
30
0.0
11
0.048017
21
0.351992
31
0.0
0
LINE
8
0
6
CONTINUOUS
10
0.072458
20
0.365582
30
0.0
11
0.073046
21
0.365997
31
0.0
0
LINE
8
0
6
CONTINUOUS
10
0.069628
20
0.363589
30
0.0
11
0.070749
21
0.364378
31
0.0
0
LINE
8
0
6
CONTINUOUS
10
0.072821
20
0.366491
30
0.0
11
0.073410
21
0.366905
31
0.0
0
LINE
8
0
6
CONTINUOUS
10
0.072739
20
0.366433
30
0.0
11
0.072821
21
0.366491
31
0.0
0
LINE
8
0
6
CONTINUOUS
10
0.100449
20
0.388406
30
0.0
11
0.101914
21
0.389437
31
0.0
0
LINE
8
0
6
CONTINUOUS
10
0.098909
20
0.387321
30
0.0
11
0.100449
21
0.388406
31
0.0
0
LINE
8
0
6
CONTINUOUS
10
0.097049
20
0.384751
30
0.0
11
0.098514
21
0.385783
31
0.0
0
LINE
8
0
6
CONTINUOUS
10
0.095434
20
0.383614
30
0.0
11
0.095509
21
0.383667
31
0.0
0
LINE
8
0
6
CONTINUOUS
10
0.095509
20
0.383667
30
0.0
11
0.097049
21
0.384751
31
0.0
0
LINE
8
0
6
CONTINUOUS
10
0.091925
20
0.380273
30
0.0
11
0.093465
21
0.381358
31
0.0
0
LINE
8
0
6
CONTINUOUS
10
0.090223
20
0.379080
30
0.0
11
0.091458
21
0.379950
31
0.0
0
LINE
8
0
6
CONTINUOUS
10
0.088548
20
0.377901
30
0.0
11
0.090223
21
0.379080
31
0.0
0
LINE
8
0
6
CONTINUOUS
10
0.087512
20
0.376420
30
0.0
11
0.088747
21
0.377290
31
0.0
0
LINE
8
0
6
CONTINUOUS
10
0.085398
20
0.374932
30
0.0
11
0.085837
21
0.375241
31
0.0
0
LINE
8
0
6
CONTINUOUS
10
0.085837
20
0.375241
30
0.0
11
0.087512
21
0.376420
31
0.0
0
LINE
8
0
6
CONTINUOUS
10
0.083614
20
0.374251
30
0.0
11
0.083580
21
0.374299
31
0.0
0
LINE
8
0
6
CONTINUOUS
10
0.082663
20
0.373581
30
0.0
11
0.083614
21
0.374251
31
0.0
0
LINE
8
0
6
CONTINUOUS
10
0.080929
20
0.372360
30
0.0
11
0.082663
21
0.373581
31
0.0
0
LINE
8
0
6
CONTINUOUS
10
0.080268
20
0.371317
30
0.0
11
0.081219
21
0.371987
31
0.0
0
LINE
8
0
6
CONTINUOUS
10
0.078534
20
0.370096
30
0.0
11
0.080268
21
0.371317
31
0.0
0
LINE
8
0
6
CONTINUOUS
10
0.112716
20
0.400661
30
0.0
11
0.112692
21
0.400694
31
0.0
0
LINE
8
0
6
CONTINUOUS
10
0.112424
20
0.400455
30
0.0
11
0.112716
21
0.400661
31
0.0
0
LINE
8
0
6
CONTINUOUS
10
0.110795
20
0.399308
30
0.0
11
0.112424
21
0.400455
31
0.0
0
LINE
8
0
6
CONTINUOUS
10
0.063574
20
0.360112
30
0.0
11
0.064695
21
0.360901
31
0.0
0
LINE
8
0
6
CONTINUOUS
10
0.069367
20
0.371046
30
0.0
11
0.068929
21
0.371668
31
0.0
0
LINE
8
0
6
CONTINUOUS
10
0.068779
20
0.370632
30
0.0
11
0.069367
21
0.371046
31
0.0
0
LINE
8
0
6
CONTINUOUS
10
0.114647
20
0.402287
30
0.0
11
0.113933
21
0.403301
31
0.0
0
LINE
8
0
6
CONTINUOUS
10
0.114268
20
0.402020
30
0.0
11
0.114647
21
0.402287
31
0.0
0
LINE
8
0
6
CONTINUOUS
10
0.106511
20
0.396443
30
0.0
11
0.108020
21
0.397505
31
0.0
0
LINE
8
0
6
CONTINUOUS
10
0.105046
20
0.395411
30
0.0
11
0.106511
21
0.396443
31
0.0
0
LINE
8
0
6
CONTINUOUS
10
0.104720
20
0.395873
30
0.0
11
0.105046
21
0.395411
31
0.0
0
LINE
8
0
6
CONTINUOUS
10
0.080107
20
0.371864
30
0.0
11
0.081058
21
0.372534
31
0.0
0
LINE
8
0
6
CONTINUOUS
10
0.079435
20
0.372819
30
0.0
11
0.080107
21
0.371864
31
0.0
0
LINE
8
0
6
CONTINUOUS
10
0.091437
20
0.379980
30
0.0
11
0.091053
21
0.380527
31
0.0
0
LINE
8
0
6
CONTINUOUS
10
0.090999
20
0.379671
30
0.0
11
0.091437
21
0.379980
31
0.0
0
LINE
8
0
6
CONTINUOUS
10
0.089324
20
0.378492
30
0.0
11
0.090999
21
0.379671
31
0.0
0
LINE
8
0
6
CONTINUOUS
10
0.098501
20
0.385802
30
0.0
11
0.098050
21
0.386443
31
0.0
0
LINE
8
0
6
CONTINUOUS
10
0.098426
20
0.385749
30
0.0
11
0.098501
21
0.385802
31
0.0
0
LINE
8
0
6
CONTINUOUS
10
0.096885
20
0.384665
30
0.0
11
0.098426
21
0.385749
31
0.0
0
LINE
8
0
6
CONTINUOUS
10
0.108945
20
0.396191
30
0.0
11
0.108415
21
0.396944
31
0.0
0
LINE
8
0
6
CONTINUOUS
10
0.107608
20
0.395250
30
0.0
11
0.108945
21
0.396191
31
0.0
0
LINE
8
0
6
CONTINUOUS
10
0.105980
20
0.394103
30
0.0
11
0.107608
21
0.395250
31
0.0
0
LINE
8
0
6
CONTINUOUS
10
0.105688
20
0.393898
30
0.0
11
0.105980
21
0.394103
31
0.0
0
LINE
8
0
6
CONTINUOUS
10
0.105422
20
0.394275
30
0.0
11
0.105688
21
0.393898
31
0.0
0
LINE
8
0
6
CONTINUOUS
10
0.056241
20
0.356914
30
0.0
11
0.056829
21
0.357329
31
0.0
0
LINE
8
0
6
CONTINUOUS
10
0.064777
20
0.365174
30
0.0
11
0.065898
21
0.365963
31
0.0
0
LINE
8
0
6
CONTINUOUS
10
0.063934
20
0.366371
30
0.0
11
0.064777
21
0.365174
31
0.0
0
LINE
8
0
6
CONTINUOUS
10
0.055627
20
0.358629
30
0.0
11
0.056748
21
0.359418
31
0.0
0
LINE
8
0
6
CONTINUOUS
10
0.054687
20
0.359963
30
0.0
11
0.055627
21
0.358629
31
0.0
0
LINE
8
0
6
CONTINUOUS
10
0.069615
20
0.363607
30
0.0
11
0.070204
21
0.364022
31
0.0
0
LINE
8
0
6
CONTINUOUS
10
0.068895
20
0.364630
30
0.0
11
0.069615
21
0.363607
31
0.0
0
LINE
8
0
6
CONTINUOUS
10
0.070749
20
0.364378
30
0.0
11
0.072458
21
0.365582
31
0.0
0
LINE
8
0
6
CONTINUOUS
10
0.108666
20
0.395967
30
0.0
11
0.108958
21
0.396172
31
0.0
0
LINE
8
0
6
CONTINUOUS
10
0.107038
20
0.394820
30
0.0
11
0.108666
21
0.395967
31
0.0
0
LINE
8
0
6
CONTINUOUS
10
0.105701
20
0.393879
30
0.0
11
0.107038
21
0.394820
31
0.0
0
LINE
8
0
6
CONTINUOUS
10
0.094931
20
0.382390
30
0.0
11
0.094286
21
0.383305
31
0.0
0
LINE
8
0
6
CONTINUOUS
10
0.093465
20
0.381358
30
0.0
11
0.094931
21
0.382390
31
0.0
0
LINE
8
0
6
CONTINUOUS
10
0.077751
20
0.369545
30
0.0
11
0.078534
21
0.370096
31
0.0
0
LINE
8
0
6
CONTINUOUS
10
0.105431
20
0.393313
30
0.0
11
0.105555
21
0.394087
31
0.0
0
LINE
8
0
6
CONTINUOUS
10
0.105178
20
0.393131
30
0.0
11
0.105431
21
0.393313
31
0.0
0
LINE
8
0
6
CONTINUOUS
10
0.104441
20
0.392598
30
0.0
11
0.105178
21
0.393131
31
0.0
0
LINE
8
0
6
CONTINUOUS
10
0.103254
20
0.391739
30
0.0
11
0.104441
21
0.392598
31
0.0
0
LINE
8
0
6
CONTINUOUS
10
0.101648
20
0.390578
30
0.0
11
0.103254
21
0.391739
31
0.0
0
LINE
8
0
6
CONTINUOUS
10
0.099658
20
0.389138
30
0.0
11
0.101648
21
0.390578
31
0.0
0
LINE
8
0
6
CONTINUOUS
10
0.099714
20
0.390445
30
0.0
11
0.098460
21
0.389538
31
0.0
0
LINE
8
0
6
CONTINUOUS
10
0.097316
20
0.387445
30
0.0
11
0.099658
21
0.389138
31
0.0
0
LINE
8
0
6
CONTINUOUS
10
0.095141
20
0.387137
30
0.0
11
0.094563
21
0.386719
31
0.0
0
LINE
8
0
6
CONTINUOUS
10
0.094656
20
0.385521
30
0.0
11
0.097316
21
0.387445
31
0.0
0
LINE
8
0
6
CONTINUOUS
10
0.094563
20
0.386719
30
0.0
11
0.091528
21
0.384525
31
0.0
0
LINE
8
0
6
CONTINUOUS
10
0.091709
20
0.383390
30
0.0
11
0.094656
21
0.385521
31
0.0
0
LINE
8
0
6
CONTINUOUS
10
0.091528
20
0.384525
30
0.0
11
0.089419
21
0.382999
31
0.0
0
LINE
8
0
6
CONTINUOUS
10
0.088511
20
0.381077
30
0.0
11
0.091709
21
0.383390
31
0.0
0
LINE
8
0
6
CONTINUOUS
10
0.085982
20
0.380513
30
0.0
11
0.084712
21
0.379595
31
0.0
0
LINE
8
0
6
CONTINUOUS
10
0.085093
20
0.378605
30
0.0
11
0.088511
21
0.381077
31
0.0
0
LINE
8
0
6
CONTINUOUS
10
0.084712
20
0.379595
30
0.0
11
0.080998
21
0.376910
31
0.0
0
LINE
8
0
6
CONTINUOUS
10
0.081488
20
0.375998
30
0.0
11
0.085093
21
0.378605
31
0.0
0
LINE
8
0
6
CONTINUOUS
10
0.080998
20
0.376910
30
0.0
11
0.078848
21
0.375354
31
0.0
0
LINE
8
0
6
CONTINUOUS
10
0.077730
20
0.373280
30
0.0
11
0.081488
21
0.375998
31
0.0
0
LINE
8
0
6
CONTINUOUS
10
0.075459
20
0.372903
30
0.0
11
0.073260
21
0.371313
31
0.0
0
LINE
8
0
6
CONTINUOUS
10
0.073972
20
0.370562
30
0.0
11
0.077730
21
0.373280
31
0.0
0
LINE
8
0
6
CONTINUOUS
10
0.073260
20
0.371313
30
0.0
11
0.069547
21
0.368627
31
0.0
0
LINE
8
0
6
CONTINUOUS
10
0.070368
20
0.367956
30
0.0
11
0.073972
21
0.370562
31
0.0
0
LINE
8
0
6
CONTINUOUS
10
0.069547
20
0.368627
30
0.0
11
0.068163
21
0.367627
31
0.0
0
LINE
8
0
6
CONTINUOUS
10
0.066950
20
0.365484
30
0.0
11
0.070368
21
0.367956
31
0.0
0
LINE
8
0
6
CONTINUOUS
10
0.064775
20
0.365177
30
0.0
11
0.062730
21
0.363698
31
0.0
0
LINE
8
0
6
CONTINUOUS
10
0.063751
20
0.363170
30
0.0
11
0.066950
21
0.365484
31
0.0
0
LINE
8
0
6
CONTINUOUS
10
0.062730
20
0.363698
30
0.0
11
0.059696
21
0.361503
31
0.0
0
LINE
8
0
6
CONTINUOUS
10
0.060805
20
0.361040
30
0.0
11
0.063751
21
0.363170
31
0.0
0
LINE
8
0
6
CONTINUOUS
10
0.059696
20
0.361503
30
0.0
11
0.059047
21
0.361034
31
0.0
0
LINE
8
0
6
CONTINUOUS
10
0.058654
20
0.360750
30
0.0
11
0.056956
21
0.359522
31
0.0
0
LINE
8
0
6
CONTINUOUS
10
0.058144
20
0.359116
30
0.0
11
0.060805
21
0.361040
31
0.0
0
LINE
8
0
6
CONTINUOUS
10
0.056956
20
0.359522
30
0.0
11
0.054544
21
0.357777
31
0.0
0
LINE
8
0
6
CONTINUOUS
10
0.055802
20
0.357422
30
0.0
11
0.058144
21
0.359116
31
0.0
0
LINE
8
0
6
CONTINUOUS
10
0.054544
20
0.357777
30
0.0
11
0.052494
21
0.356295
31
0.0
0
LINE
8
0
6
CONTINUOUS
10
0.053812
20
0.355983
30
0.0
11
0.055802
21
0.357422
31
0.0
0
LINE
8
0
6
CONTINUOUS
10
0.052494
20
0.356295
30
0.0
11
0.052329
21
0.356176
31
0.0
0
LINE
8
0
6
CONTINUOUS
10
0.052207
20
0.354821
30
0.0
11
0.053812
21
0.355983
31
0.0
0
LINE
8
0
6
CONTINUOUS
10
0.051019
20
0.353963
30
0.0
11
0.052207
21
0.354821
31
0.0
0
LINE
8
0
6
CONTINUOUS
10
0.050282
20
0.353430
30
0.0
11
0.051019
21
0.353963
31
0.0
0
LINE
8
0
6
CONTINUOUS
10
0.049190
20
0.353382
30
0.0
11
0.050029
21
0.353247
31
0.0
0
LINE
8
0
6
CONTINUOUS
10
0.050029
20
0.353247
30
0.0
11
0.050282
21
0.353430
31
0.0
0
LINE
8
0
6
CONTINUOUS
10
0.095248
20
0.383481
30
0.0
11
0.095401
21
0.383588
31
0.0
0
LINE
8
0
6
CONTINUOUS
10
0.094805
20
0.383169
30
0.0
11
0.095248
21
0.383481
31
0.0
0
LINE
8
0
6
CONTINUOUS
10
0.094993
20
0.384052
30
0.0
11
0.094253
21
0.383532
31
0.0
0
LINE
8
0
6
CONTINUOUS
10
0.094090
20
0.382665
30
0.0
11
0.094805
21
0.383169
31
0.0
0
LINE
8
0
6
CONTINUOUS
10
0.093123
20
0.381985
30
0.0
11
0.094090
21
0.382665
31
0.0
0
LINE
8
0
6
CONTINUOUS
10
0.091925
20
0.381141
30
0.0
11
0.093123
21
0.381985
31
0.0
0
LINE
8
0
6
CONTINUOUS
10
0.090515
20
0.380148
30
0.0
11
0.091925
21
0.381141
31
0.0
0
LINE
8
0
6
CONTINUOUS
10
0.090415
20
0.380828
30
0.0
11
0.088903
21
0.379764
31
0.0
0
LINE
8
0
6
CONTINUOUS
10
0.088913
20
0.379020
30
0.0
11
0.090515
21
0.380148
31
0.0
0
LINE
8
0
6
CONTINUOUS
10
0.088903
20
0.379764
30
0.0
11
0.087070
21
0.378473
31
0.0
0
LINE
8
0
6
CONTINUOUS
10
0.087140
20
0.377771
30
0.0
11
0.088913
21
0.379020
31
0.0
0
LINE
8
0
6
CONTINUOUS
10
0.087070
20
0.378473
30
0.0
11
0.085438
21
0.377324
31
0.0
0
LINE
8
0
6
CONTINUOUS
10
0.085214
20
0.376415
30
0.0
11
0.087140
21
0.377771
31
0.0
0
LINE
8
0
6
CONTINUOUS
10
0.083157
20
0.374966
30
0.0
11
0.085214
21
0.376415
31
0.0
0
LINE
8
0
6
CONTINUOUS
10
0.081970
20
0.374882
30
0.0
11
0.080708
21
0.373993
31
0.0
0
LINE
8
0
6
CONTINUOUS
10
0.080987
20
0.373438
30
0.0
11
0.083126
21
0.374944
31
0.0
0
LINE
8
0
6
CONTINUOUS
10
0.080708
20
0.373993
30
0.0
11
0.078371
21
0.372346
31
0.0
0
LINE
8
0
6
CONTINUOUS
10
0.078724
20
0.371844
30
0.0
11
0.080987
21
0.373438
31
0.0
0
LINE
8
0
6
CONTINUOUS
10
0.078371
20
0.372346
30
0.0
11
0.076033
21
0.370700
31
0.0
0
LINE
8
0
6
CONTINUOUS
10
0.076462
20
0.370251
30
0.0
11
0.078724
21
0.371844
31
0.0
0
LINE
8
0
6
CONTINUOUS
10
0.076033
20
0.370700
30
0.0
11
0.075030
21
0.369994
31
0.0
0
LINE
8
0
6
CONTINUOUS
10
0.074292
20
0.368723
30
0.0
11
0.076462
21
0.370251
31
0.0
0
LINE
8
0
6
CONTINUOUS
10
0.072234
20
0.367274
30
0.0
11
0.074292
21
0.368723
31
0.0
0
LINE
8
0
6
CONTINUOUS
10
0.071612
20
0.367587
30
0.0
11
0.069671
21
0.366220
31
0.0
0
LINE
8
0
6
CONTINUOUS
10
0.070309
20
0.365918
30
0.0
11
0.072234
21
0.367274
31
0.0
0
LINE
8
0
6
CONTINUOUS
10
0.069671
20
0.366220
30
0.0
11
0.067838
21
0.364929
31
0.0
0
LINE
8
0
6
CONTINUOUS
10
0.068535
20
0.364669
30
0.0
11
0.070309
21
0.365918
31
0.0
0
LINE
8
0
6
CONTINUOUS
10
0.067838
20
0.364929
30
0.0
11
0.066183
21
0.363763
31
0.0
0
LINE
8
0
6
CONTINUOUS
10
0.066933
20
0.363541
30
0.0
11
0.068535
21
0.364669
31
0.0
0
LINE
8
0
6
CONTINUOUS
10
0.066183
20
0.363763
30
0.0
11
0.066138
21
0.363732
31
0.0
0
LINE
8
0
6
CONTINUOUS
10
0.066466
20
0.363211
30
0.0
11
0.066933
21
0.363541
31
0.0
0
LINE
8
0
6
CONTINUOUS
10
0.062644
20
0.360520
30
0.0
11
0.063359
21
0.361023
31
0.0
0
LINE
8
0
6
CONTINUOUS
10
0.062200
20
0.360207
30
0.0
11
0.062644
21
0.360520
31
0.0
0
LINE
8
0
6
CONTINUOUS
10
0.061552
20
0.360158
30
0.0
11
0.062048
21
0.360100
31
0.0
0
LINE
8
0
6
CONTINUOUS
10
0.062048
20
0.360100
30
0.0
11
0.062200
21
0.360207
31
0.0
0
LINE
8
0
6
CONTINUOUS
10
0.067069
20
0.369428
30
0.0
11
0.065949
21
0.368639
31
0.0
0
LINE
8
0
6
CONTINUOUS
10
0.068779
20
0.370632
30
0.0
11
0.067069
21
0.369428
31
0.0
0
LINE
8
0
6
CONTINUOUS
10
0.069367
20
0.371046
30
0.0
11
0.068779
21
0.370632
31
0.0
0
LINE
8
0
6
CONTINUOUS
10
0.109727
20
0.398606
30
0.0
11
0.109435
21
0.398400
31
0.0
0
LINE
8
0
6
CONTINUOUS
10
0.111356
20
0.399753
30
0.0
11
0.109727
21
0.398606
31
0.0
0
LINE
8
0
6
CONTINUOUS
10
0.112692
20
0.400694
30
0.0
11
0.111356
21
0.399753
31
0.0
0
LINE
8
0
6
CONTINUOUS
10
0.088819
20
0.382188
30
0.0
11
0.087085
21
0.380967
31
0.0
0
LINE
8
0
6
CONTINUOUS
10
0.089601
20
0.382739
30
0.0
11
0.088819
21
0.382188
31
0.0
0
LINE
8
0
6
CONTINUOUS
10
0.087085
20
0.380967
30
0.0
11
0.086134
21
0.380297
31
0.0
0
LINE
8
0
6
CONTINUOUS
10
0.094931
20
0.382390
30
0.0
11
0.093465
21
0.381358
31
0.0
0
LINE
8
0
6
CONTINUOUS
10
0.093465
20
0.381358
30
0.0
11
0.091925
21
0.380273
31
0.0
0
LINE
8
0
6
CONTINUOUS
10
0.048606
20
0.352407
30
0.0
11
0.048017
21
0.351992
31
0.0
0
LINE
8
0
6
CONTINUOUS
10
0.046308
20
0.350789
30
0.0
11
0.045187
21
0.349999
31
0.0
0
LINE
8
0
6
CONTINUOUS
10
0.048017
20
0.351992
30
0.0
11
0.046308
21
0.350789
31
0.0
0
LINE
8
0
6
CONTINUOUS
10
0.077235
20
0.372254
30
0.0
11
0.076114
21
0.371465
31
0.0
0
LINE
8
0
6
CONTINUOUS
10
0.074405
20
0.370261
30
0.0
11
0.073816
21
0.369846
31
0.0
0
LINE
8
0
6
CONTINUOUS
10
0.076114
20
0.371465
30
0.0
11
0.074405
21
0.370261
31
0.0
0
LINE
8
0
6
CONTINUOUS
10
0.098514
20
0.385783
30
0.0
11
0.097049
21
0.384751
31
0.0
0
LINE
8
0
6
CONTINUOUS
10
0.095509
20
0.383667
30
0.0
11
0.095434
21
0.383614
31
0.0
0
LINE
8
0
6
CONTINUOUS
10
0.097049
20
0.384751
30
0.0
11
0.095509
21
0.383667
31
0.0
0
LINE
8
0
6
CONTINUOUS
10
0.073410
20
0.366905
30
0.0
11
0.072821
21
0.366491
31
0.0
0
LINE
8
0
6
CONTINUOUS
10
0.072821
20
0.366491
30
0.0
11
0.072739
21
0.366433
31
0.0
0
LINE
8
0
6
CONTINUOUS
10
0.098426
20
0.385749
30
0.0
11
0.096885
21
0.384665
31
0.0
0
LINE
8
0
6
CONTINUOUS
10
0.098501
20
0.385802
30
0.0
11
0.098426
21
0.385749
31
0.0
0
LINE
8
0
6
CONTINUOUS
10
0.096885
20
0.384665
30
0.0
11
0.095420
21
0.383633
31
0.0
0
LINE
8
0
6
CONTINUOUS
10
0.102075
20
0.389824
30
0.0
11
0.101783
21
0.389618
31
0.0
0
LINE
8
0
6
CONTINUOUS
10
0.103704
20
0.390971
30
0.0
11
0.102075
21
0.389824
31
0.0
0
LINE
8
0
6
CONTINUOUS
10
0.105040
20
0.391912
30
0.0
11
0.103704
21
0.390971
31
0.0
0
LINE
8
0
6
CONTINUOUS
10
0.083575
20
0.374306
30
0.0
11
0.082792
21
0.373755
31
0.0
0
LINE
8
0
6
CONTINUOUS
10
0.081058
20
0.372534
30
0.0
11
0.080107
21
0.371864
31
0.0
0
LINE
8
0
6
CONTINUOUS
10
0.082792
20
0.373755
30
0.0
11
0.081058
21
0.372534
31
0.0
0
LINE
8
0
6
CONTINUOUS
10
0.101891
20
0.389469
30
0.0
11
0.101816
21
0.389416
31
0.0
0
LINE
8
0
6
CONTINUOUS
10
0.100276
20
0.388332
30
0.0
11
0.098811
21
0.387300
31
0.0
0
LINE
8
0
6
CONTINUOUS
10
0.101816
20
0.389416
30
0.0
11
0.100276
21
0.388332
31
0.0
0
LINE
8
0
6
CONTINUOUS
10
0.078534
20
0.370096
30
0.0
11
0.077751
21
0.369545
31
0.0
0
LINE
8
0
6
CONTINUOUS
10
0.080268
20
0.371317
30
0.0
11
0.078534
21
0.370096
31
0.0
0
LINE
8
0
6
CONTINUOUS
10
0.081219
20
0.371987
30
0.0
11
0.080268
21
0.371317
31
0.0
0
LINE
8
0
6
CONTINUOUS
10
0.049248
20
0.355903
30
0.0
11
0.048127
21
0.355113
31
0.0
0
LINE
8
0
6
CONTINUOUS
10
0.050957
20
0.357106
30
0.0
11
0.049248
21
0.355903
31
0.0
0
LINE
8
0
6
CONTINUOUS
10
0.051545
20
0.357521
30
0.0
11
0.050957
21
0.357106
31
0.0
0
LINE
8
0
6
CONTINUOUS
10
0.048526
20
0.352521
30
0.0
11
0.047405
21
0.351732
31
0.0
0
LINE
8
0
6
CONTINUOUS
10
0.045696
20
0.350528
30
0.0
11
0.045107
21
0.350113
31
0.0
0
LINE
8
0
6
CONTINUOUS
10
0.047405
20
0.351732
30
0.0
11
0.045696
21
0.350528
31
0.0
0
LINE
8
0
6
CONTINUOUS
10
0.090422
20
0.385575
30
0.0
11
0.088688
21
0.384354
31
0.0
0
LINE
8
0
6
CONTINUOUS
10
0.091205
20
0.386126
30
0.0
11
0.090422
21
0.385575
31
0.0
0
LINE
8
0
6
CONTINUOUS
10
0.088688
20
0.384354
30
0.0
11
0.087737
21
0.383684
31
0.0
0
LINE
8
0
6
CONTINUOUS
10
0.094387
20
0.384323
30
0.0
11
0.093151
21
0.383452
31
0.0
0
LINE
8
0
6
CONTINUOUS
10
0.096061
20
0.385502
30
0.0
11
0.094387
21
0.384323
31
0.0
0
LINE
8
0
6
CONTINUOUS
10
0.096500
20
0.385811
30
0.0
11
0.096061
21
0.385502
31
0.0
0
LINE
8
0
6
CONTINUOUS
10
0.075351
20
0.369539
30
0.0
11
0.074230
21
0.368750
31
0.0
0
LINE
8
0
6
CONTINUOUS
10
0.072521
20
0.367546
30
0.0
11
0.071932
21
0.367131
31
0.0
0
LINE
8
0
6
CONTINUOUS
10
0.074230
20
0.368750
30
0.0
11
0.072521
21
0.367546
31
0.0
0
LINE
8
0
6
CONTINUOUS
10
0.089324
20
0.378492
30
0.0
11
0.088088
21
0.377622
31
0.0
0
LINE
8
0
6
CONTINUOUS
10
0.090999
20
0.379671
30
0.0
11
0.089324
21
0.378492
31
0.0
0
LINE
8
0
6
CONTINUOUS
10
0.091437
20
0.379980
30
0.0
11
0.090999
21
0.379671
31
0.0
0
LINE
8
0
6
CONTINUOUS
10
0.064695
20
0.360901
30
0.0
11
0.063574
21
0.360112
31
0.0
0
LINE
8
0
6
CONTINUOUS
10
0.066404
20
0.362105
30
0.0
11
0.064695
21
0.360901
31
0.0
0
LINE
8
0
6
CONTINUOUS
10
0.066993
20
0.362519
30
0.0
11
0.066404
21
0.362105
31
0.0
0
LINE
8
0
6
CONTINUOUS
10
0.060943
20
0.359036
30
0.0
11
0.060354
21
0.358621
31
0.0
0
LINE
8
0
6
CONTINUOUS
10
0.060354
20
0.358621
30
0.0
11
0.058645
21
0.357418
31
0.0
0
LINE
8
0
6
CONTINUOUS
10
0.052023
20
0.353617
30
0.0
11
0.051435
21
0.353202
31
0.0
0
LINE
8
0
6
CONTINUOUS
10
0.053732
20
0.354820
30
0.0
11
0.052023
21
0.353617
31
0.0
0
LINE
8
0
6
CONTINUOUS
10
0.054853
20
0.355610
30
0.0
11
0.053732
21
0.354820
31
0.0
0
LINE
8
0
6
CONTINUOUS
10
0.082663
20
0.373581
30
0.0
11
0.080947
21
0.372373
31
0.0
0
LINE
8
0
6
CONTINUOUS
10
0.083614
20
0.374251
30
0.0
11
0.082663
21
0.373581
31
0.0
0
LINE
8
0
6
CONTINUOUS
10
0.066296
20
0.364633
30
0.0
11
0.064586
21
0.363429
31
0.0
0
LINE
8
0
6
CONTINUOUS
10
0.066884
20
0.365047
30
0.0
11
0.066296
21
0.364633
31
0.0
0
LINE
8
0
6
CONTINUOUS
10
0.064586
20
0.363429
30
0.0
11
0.063466
21
0.362640
31
0.0
0
LINE
8
0
6
CONTINUOUS
10
0.108126
20
0.397580
30
0.0
11
0.108051
21
0.397527
31
0.0
0
LINE
8
0
6
CONTINUOUS
10
0.106511
20
0.396443
30
0.0
11
0.105046
21
0.395411
31
0.0
0
LINE
8
0
6
CONTINUOUS
10
0.108051
20
0.397527
30
0.0
11
0.106511
21
0.396443
31
0.0
0
LINE
8
0
6
CONTINUOUS
10
0.064149
20
0.360545
30
0.0
11
0.063561
21
0.360131
31
0.0
0
LINE
8
0
6
CONTINUOUS
10
0.065859
20
0.361749
30
0.0
11
0.064149
21
0.360545
31
0.0
0
LINE
8
0
6
CONTINUOUS
10
0.066979
20
0.362538
30
0.0
11
0.065859
21
0.361749
31
0.0
0
LINE
8
0
6
CONTINUOUS
10
0.073046
20
0.365997
30
0.0
11
0.072458
21
0.365582
31
0.0
0
LINE
8
0
6
CONTINUOUS
10
0.070749
20
0.364378
30
0.0
11
0.069628
21
0.363589
31
0.0
0
LINE
8
0
6
CONTINUOUS
10
0.072458
20
0.365582
30
0.0
11
0.070749
21
0.364378
31
0.0
0
LINE
8
0
6
CONTINUOUS
10
0.077461
20
0.376700
30
0.0
11
0.076873
21
0.376286
31
0.0
0
LINE
8
0
6
CONTINUOUS
10
0.079171
20
0.377904
30
0.0
11
0.077461
21
0.376700
31
0.0
0
LINE
8
0
6
CONTINUOUS
10
0.080291
20
0.378693
30
0.0
11
0.079171
21
0.377904
31
0.0
0
LINE
8
0
6
CONTINUOUS
10
0.118368
20
0.408749
30
0.0
11
0.117888
21
0.409917
31
0.0
0
LINE
8
0
6
CONTINUOUS
10
0.021014
20
0.365050
30
0.0
11
0.018583
21
0.362166
31
0.0
0
LINE
8
0
6
CONTINUOUS
10
0.103435
20
0.419519
30
0.0
11
0.099211
21
0.416590
31
0.0
0
LINE
8
0
6
CONTINUOUS
10
0.108752
20
0.423119
30
0.0
11
0.108203
21
0.422924
31
0.0
0
LINE
8
0
6
CONTINUOUS
10
0.099211
20
0.416590
30
0.0
11
0.093950
21
0.412883
31
0.0
0
LINE
8
0
6
CONTINUOUS
10
-0.031983
20
0.239532
30
0.0
11
-0.023743
21
0.253020
31
0.0
0
LINE
8
0
6
CONTINUOUS
10
-0.044224
20
0.265038
30
0.0
11
-0.045342
21
0.263241
31
0.0
0
LINE
8
0
6
CONTINUOUS
10
-0.025609
20
0.294536
30
0.0
11
-0.044224
21
0.265038
31
0.0
0
LINE
8
0
6
CONTINUOUS
10
-0.005425
20
0.282674
30
0.0
11
0.009259
21
0.305369
31
0.0
0
LINE
8
0
6
CONTINUOUS
10
0.009259
20
0.305369
30
0.0
11
0.019180
21
0.322754
31
0.0
0
LINE
8
0
6
CONTINUOUS
10
-0.011341
20
0.317198
30
0.0
11
-0.025609
21
0.294536
31
0.0
0
LINE
8
0
6
CONTINUOUS
10
0.000434
20
0.335848
30
0.0
11
-0.011341
21
0.317198
31
0.0
0
LINE
8
0
6
CONTINUOUS
10
0.006669
20
0.345525
30
0.0
11
0.000434
21
0.335848
31
0.0
0
LINE
8
0
6
CONTINUOUS
10
0.011118
20
0.352158
30
0.0
11
0.006669
21
0.345525
31
0.0
0
LINE
8
0
6
CONTINUOUS
10
0.013762
20
0.355910
30
0.0
11
0.011118
21
0.352158
31
0.0
0
LINE
8
0
6
CONTINUOUS
10
0.018583
20
0.362166
30
0.0
11
0.016320
21
0.359277
31
0.0
0
LINE
8
0
6
CONTINUOUS
10
0.110355
20
0.422653
30
0.0
11
0.108752
21
0.423119
31
0.0
0
LINE
8
0
6
CONTINUOUS
10
0.110789
20
0.421940
30
0.0
11
0.110355
21
0.422653
31
0.0
0
LINE
8
0
6
CONTINUOUS
10
0.117803
20
0.410069
30
0.0
11
0.115518
21
0.414173
31
0.0
0
LINE
8
0
6
CONTINUOUS
10
0.016320
20
0.359277
30
0.0
11
0.013762
21
0.355910
31
0.0
0
LINE
8
0
6
CONTINUOUS
10
-0.023743
20
0.253020
30
0.0
11
-0.005425
21
0.282674
31
0.0
0
LINE
8
0
6
CONTINUOUS
10
0.024000
20
0.368402
30
0.0
11
0.021014
21
0.365050
31
0.0
0
LINE
8
0
6
CONTINUOUS
10
0.027116
20
0.371776
30
0.0
11
0.024000
21
0.368402
31
0.0
0
LINE
8
0
6
CONTINUOUS
10
0.037340
20
0.381307
30
0.0
11
0.034764
21
0.379022
31
0.0
0
LINE
8
0
6
CONTINUOUS
10
0.032188
20
0.376737
30
0.0
11
0.029652
21
0.374256
31
0.0
0
LINE
8
0
6
CONTINUOUS
10
0.052008
20
0.392756
30
0.0
11
0.037340
21
0.381307
31
0.0
0
LINE
8
0
6
CONTINUOUS
10
0.068587
20
0.403787
30
0.0
11
0.060297
21
0.398272
31
0.0
0
LINE
8
0
6
CONTINUOUS
10
0.086415
20
0.413587
30
0.0
11
0.077501
21
0.408687
31
0.0
0
LINE
8
0
6
CONTINUOUS
10
0.100021
20
0.419768
30
0.0
11
0.093218
21
0.416677
31
0.0
0
LINE
8
0
6
CONTINUOUS
10
0.046233
20
0.358161
30
0.0
11
0.050010
21
0.360757
31
0.0
0
LINE
8
0
6
CONTINUOUS
10
0.108203
20
0.422924
30
0.0
11
0.100021
21
0.419768
31
0.0
0
LINE
8
0
6
CONTINUOUS
10
0.041422
20
0.354478
30
0.0
11
0.043443
21
0.356058
31
0.0
0
LINE
8
0
6
CONTINUOUS
10
0.115209
20
0.406321
30
0.0
11
0.117293
21
0.407750
31
0.0
0
LINE
8
0
6
CONTINUOUS
10
0.037664
20
0.351292
30
0.0
11
0.041422
21
0.354478
31
0.0
0
LINE
8
0
6
CONTINUOUS
10
0.054851
20
0.364079
30
0.0
11
0.062106
21
0.369223
31
0.0
0
LINE
8
0
6
CONTINUOUS
10
0.115518
20
0.414173
30
0.0
11
0.110789
21
0.421940
31
0.0
0
LINE
8
0
6
CONTINUOUS
10
0.117888
20
0.409917
30
0.0
11
0.117803
21
0.410069
31
0.0
0
LINE
8
0
6
CONTINUOUS
10
-0.032490
20
0.239297
30
0.0
11
-0.032056
21
0.239409
31
0.0
0
LINE
8
0
6
CONTINUOUS
10
-0.044594
20
0.246316
30
0.0
11
-0.042918
21
0.245344
31
0.0
0
LINE
8
0
6
CONTINUOUS
10
-0.032056
20
0.239409
30
0.0
11
-0.031983
21
0.239532
31
0.0
0
LINE
8
0
6
CONTINUOUS
10
0.020393
20
0.326101
30
0.0
11
0.020673
21
0.328222
31
0.0
0
LINE
8
0
6
CONTINUOUS
10
0.020467
20
0.325120
30
0.0
11
0.020393
21
0.326101
31
0.0
0
LINE
8
0
6
CONTINUOUS
10
0.020446
20
0.324839
30
0.0
11
0.020467
21
0.325120
31
0.0
0
LINE
8
0
6
CONTINUOUS
10
0.019180
20
0.322754
30
0.0
11
0.020446
21
0.324839
31
0.0
0
LINE
8
0
6
CONTINUOUS
10
0.020673
20
0.328222
30
0.0
11
0.025445
21
0.336479
31
0.0
0
LINE
8
0
6
CONTINUOUS
10
0.025445
20
0.336479
30
0.0
11
0.031632
21
0.343877
31
0.0
0
LINE
8
0
6
CONTINUOUS
10
0.034872
20
0.348546
30
0.0
11
0.037664
21
0.351292
31
0.0
0
LINE
8
0
6
CONTINUOUS
10
0.108997
20
0.401815
30
0.0
11
0.112434
21
0.404197
31
0.0
0
LINE
8
0
6
CONTINUOUS
10
0.112434
20
0.404197
30
0.0
11
0.115209
21
0.406321
31
0.0
0
LINE
8
0
6
CONTINUOUS
10
0.117937
20
0.408175
30
0.0
11
0.118368
21
0.408749
31
0.0
0
LINE
8
0
6
CONTINUOUS
10
0.117293
20
0.407750
30
0.0
11
0.117937
21
0.408175
31
0.0
0
LINE
8
0
6
CONTINUOUS
10
0.077997
20
0.380151
30
0.0
11
0.085052
21
0.385000
31
0.0
0
LINE
8
0
6
CONTINUOUS
10
0.104131
20
0.398431
30
0.0
11
0.108997
21
0.401815
31
0.0
0
LINE
8
0
6
CONTINUOUS
10
0.097948
20
0.394025
30
0.0
11
0.104131
21
0.398431
31
0.0
0
LINE
8
0
6
CONTINUOUS
10
0.062106
20
0.369223
30
0.0
11
0.070292
21
0.374850
31
0.0
0
LINE
8
0
6
CONTINUOUS
10
0.034368
20
0.347168
30
0.0
11
0.034872
21
0.348546
31
0.0
0
LINE
8
0
6
CONTINUOUS
10
0.031632
20
0.343877
30
0.0
11
0.034317
21
0.347028
31
0.0
0
LINE
8
0
6
CONTINUOUS
10
0.034317
20
0.347028
30
0.0
11
0.034368
21
0.347168
31
0.0
0
LINE
8
0
6
CONTINUOUS
10
0.034764
20
0.379022
30
0.0
11
0.032188
21
0.376737
31
0.0
0
LINE
8
0
6
CONTINUOUS
10
0.050010
20
0.360757
30
0.0
11
0.054851
21
0.364079
31
0.0
0
LINE
8
0
6
CONTINUOUS
10
0.029652
20
0.374256
30
0.0
11
0.027116
21
0.371776
31
0.0
0
LINE
8
0
6
CONTINUOUS
10
0.043443
20
0.356058
30
0.0
11
0.046233
21
0.358161
31
0.0
0
LINE
8
0
6
CONTINUOUS
10
0.060297
20
0.398272
30
0.0
11
0.052008
21
0.392756
31
0.0
0
LINE
8
0
6
CONTINUOUS
10
0.070293
20
0.374851
30
0.0
11
0.077997
21
0.380151
31
0.0
0
LINE
8
0
6
CONTINUOUS
10
0.093218
20
0.416677
30
0.0
11
0.086415
21
0.413587
31
0.0
0
LINE
8
0
6
CONTINUOUS
10
0.091766
20
0.389618
30
0.0
11
0.097948
21
0.394025
31
0.0
0
LINE
8
0
6
CONTINUOUS
10
0.077501
20
0.408687
30
0.0
11
0.068587
21
0.403787
31
0.0
0
LINE
8
0
6
CONTINUOUS
10
0.085052
20
0.385000
30
0.0
11
0.091766
21
0.389618
31
0.0
0
LINE
8
0
6
CONTINUOUS
10
-0.038196
20
0.230200
30
0.0
11
-0.033460
21
0.237434
31
0.0
0
LINE
8
0
6
CONTINUOUS
10
-0.033766
20
0.240037
30
0.0
11
-0.035377
21
0.240971
31
0.0
0
LINE
8
0
6
CONTINUOUS
10
-0.039923
20
0.243607
30
0.0
11
-0.042547
21
0.245129
31
0.0
0
LINE
8
0
6
CONTINUOUS
10
-0.032454
20
0.239169
30
0.0
11
-0.032408
21
0.239249
31
0.0
0
LINE
8
0
6
CONTINUOUS
10
-0.033460
20
0.237434
30
0.0
11
-0.032454
21
0.239169
31
0.0
0
LINE
8
0
6
CONTINUOUS
10
0.041422
20
0.354478
30
0.0
11
0.037664
21
0.351292
31
0.0
0
LINE
8
0
6
CONTINUOUS
10
0.117293
20
0.407750
30
0.0
11
0.115209
21
0.406321
31
0.0
0
LINE
8
0
6
CONTINUOUS
10
0.048267
20
0.352888
30
0.0
11
0.048900
21
0.353194
31
0.0
0
LINE
8
0
6
CONTINUOUS
10
0.038549
20
0.348149
30
0.0
11
0.039474
21
0.348249
31
0.0
0
LINE
8
0
6
CONTINUOUS
10
0.034872
20
0.348546
30
0.0
11
0.034368
21
0.347168
31
0.0
0
LINE
8
0
6
CONTINUOUS
10
0.037664
20
0.351292
30
0.0
11
0.034872
21
0.348546
31
0.0
0
LINE
8
0
6
CONTINUOUS
10
0.097948
20
0.394025
30
0.0
11
0.091766
21
0.389618
31
0.0
0
LINE
8
0
6
CONTINUOUS
10
0.112434
20
0.404197
30
0.0
11
0.108997
21
0.401815
31
0.0
0
LINE
8
0
6
CONTINUOUS
10
0.108997
20
0.401815
30
0.0
11
0.104131
21
0.398431
31
0.0
0
LINE
8
0
6
CONTINUOUS
10
0.115209
20
0.406321
30
0.0
11
0.112434
21
0.404197
31
0.0
0
LINE
8
0
6
CONTINUOUS
10
0.117937
20
0.408175
30
0.0
11
0.117293
21
0.407750
31
0.0
0
LINE
8
0
6
CONTINUOUS
10
0.113933
20
0.403301
30
0.0
11
0.117937
21
0.408175
31
0.0
0
LINE
8
0
6
CONTINUOUS
10
0.080861
20
0.382120
30
0.0
11
0.077997
21
0.380151
31
0.0
0
LINE
8
0
6
CONTINUOUS
10
0.091094
20
0.380468
30
0.0
11
0.091457
21
0.380780
31
0.0
0
LINE
8
0
6
CONTINUOUS
10
0.067864
20
0.373181
30
0.0
11
0.062106
21
0.369223
31
0.0
0
LINE
8
0
6
CONTINUOUS
10
0.073301
20
0.367060
30
0.0
11
0.077446
21
0.369979
31
0.0
0
LINE
8
0
6
CONTINUOUS
10
0.062106
20
0.369223
30
0.0
11
0.054851
21
0.364079
31
0.0
0
LINE
8
0
6
CONTINUOUS
10
0.066636
20
0.363026
30
0.0
11
0.069050
21
0.364409
31
0.0
0
LINE
8
0
6
CONTINUOUS
10
0.049399
20
0.360337
30
0.0
11
0.046233
21
0.358161
31
0.0
0
LINE
8
0
6
CONTINUOUS
10
0.054489
20
0.356126
30
0.0
11
0.056141
21
0.357056
31
0.0
0
LINE
8
0
6
CONTINUOUS
10
0.045136
20
0.357334
30
0.0
11
0.043443
21
0.356058
31
0.0
0
LINE
8
0
6
CONTINUOUS
10
0.039866
20
0.348456
30
0.0
11
0.044477
21
0.351008
31
0.0
0
LINE
8
0
6
CONTINUOUS
10
0.039474
20
0.348249
30
0.0
11
0.039559
21
0.348271
31
0.0
0
LINE
8
0
6
CONTINUOUS
10
0.039559
20
0.348271
30
0.0
11
0.039866
21
0.348456
31
0.0
0
LINE
8
0
6
CONTINUOUS
10
0.034317
20
0.347028
30
0.0
11
0.038549
21
0.348149
31
0.0
0
LINE
8
0
6
CONTINUOUS
10
0.034368
20
0.347168
30
0.0
11
0.034317
21
0.347028
31
0.0
0
LINE
8
0
6
CONTINUOUS
10
0.054410
20
0.363776
30
0.0
11
0.050010
21
0.360757
31
0.0
0
LINE
8
0
6
CONTINUOUS
10
0.041816
20
0.354786
30
0.0
11
0.041422
21
0.354478
31
0.0
0
LINE
8
0
6
CONTINUOUS
10
0.048900
20
0.353194
30
0.0
11
0.049203
21
0.353353
31
0.0
0
LINE
8
0
6
CONTINUOUS
10
0.076294
20
0.378979
30
0.0
11
0.070293
21
0.374851
31
0.0
0
LINE
8
0
6
CONTINUOUS
10
0.080914
20
0.372421
30
0.0
11
0.085093
21
0.375365
31
0.0
0
LINE
8
0
6
CONTINUOUS
10
0.104131
20
0.398431
30
0.0
11
0.097948
21
0.394025
31
0.0
0
LINE
8
0
6
CONTINUOUS
10
0.108415
20
0.396944
30
0.0
11
0.110195
21
0.398752
31
0.0
0
LINE
8
0
6
CONTINUOUS
10
0.087044
20
0.386371
30
0.0
11
0.085052
21
0.385000
31
0.0
0
LINE
8
0
6
CONTINUOUS
10
0.098050
20
0.386443
30
0.0
11
0.098157
21
0.386535
31
0.0
0
LINE
8
0
6
CONTINUOUS
10
0.034309
20
0.346818
30
0.0
11
0.038188
21
0.347840
31
0.0
0
LINE
8
0
6
CONTINUOUS
10
0.031618
20
0.343686
30
0.0
11
0.034309
21
0.346818
31
0.0
0
LINE
8
0
6
CONTINUOUS
10
0.039116
20
0.347938
30
0.0
11
0.039203
21
0.347957
31
0.0
0
LINE
8
0
6
CONTINUOUS
10
0.020935
20
0.328417
30
0.0
11
0.025519
21
0.336348
31
0.0
0
LINE
8
0
6
CONTINUOUS
10
0.025519
20
0.336348
30
0.0
11
0.031618
21
0.343686
31
0.0
0
LINE
8
0
6
CONTINUOUS
10
0.020721
20
0.325536
30
0.0
11
0.020699
21
0.326600
31
0.0
0
LINE
8
0
6
CONTINUOUS
10
0.020699
20
0.326600
30
0.0
11
0.020935
21
0.328417
31
0.0
0
LINE
8
0
6
CONTINUOUS
10
0.020693
20
0.325245
30
0.0
11
0.020721
21
0.325536
31
0.0
0
LINE
8
0
6
CONTINUOUS
10
0.038188
20
0.347840
30
0.0
11
0.039116
21
0.347938
31
0.0
0
LINE
8
0
6
CONTINUOUS
10
0.020721
20
0.325536
30
0.0
11
0.020693
21
0.325245
31
0.0
0
LINE
8
0
6
CONTINUOUS
10
0.020693
20
0.325245
30
0.0
11
0.026300
21
0.334482
31
0.0
0
LINE
8
0
6
CONTINUOUS
10
0.020699
20
0.326600
30
0.0
11
0.020721
21
0.325536
31
0.0
0
LINE
8
0
6
CONTINUOUS
10
0.031618
20
0.343686
30
0.0
11
0.025519
21
0.336348
31
0.0
0
LINE
8
0
6
CONTINUOUS
10
0.026300
20
0.334482
30
0.0
11
0.031071
21
0.340779
31
0.0
0
LINE
8
0
6
CONTINUOUS
10
0.038188
20
0.347840
30
0.0
11
0.034309
21
0.346818
31
0.0
0
LINE
8
0
6
CONTINUOUS
10
0.034309
20
0.346818
30
0.0
11
0.031618
21
0.343686
31
0.0
0
LINE
8
0
6
CONTINUOUS
10
0.020935
20
0.328417
30
0.0
11
0.020699
21
0.326600
31
0.0
0
LINE
8
0
6
CONTINUOUS
10
0.025519
20
0.336348
30
0.0
11
0.020935
21
0.328417
31
0.0
0
LINE
8
0
6
CONTINUOUS
10
0.039116
20
0.347938
30
0.0
11
0.038188
21
0.347840
31
0.0
0
LINE
8
0
6
CONTINUOUS
10
0.039203
20
0.347957
30
0.0
11
0.039116
21
0.347938
31
0.0
0
LINE
8
0
6
CONTINUOUS
10
0.031071
20
0.340779
30
0.0
11
0.039203
21
0.347957
31
0.0
0
LINE
8
0
6
CONTINUOUS
10
-0.038452
20
0.231006
30
0.0
11
-0.038397
21
0.230819
31
0.0
0
LINE
8
0
6
CONTINUOUS
10
-0.038352
20
0.230664
30
0.0
11
-0.038196
21
0.230200
31
0.0
0
LINE
8
0
6
CONTINUOUS
10
-0.038397
20
0.230819
30
0.0
11
-0.038352
21
0.230664
31
0.0
0
LINE
8
0
6
CONTINUOUS
10
0.096337
20
0.385443
30
0.0
11
0.094991
21
0.384242
31
0.0
0
LINE
8
0
6
CONTINUOUS
10
0.048456
20
0.357211
30
0.0
11
0.048362
21
0.357160
31
0.0
0
LINE
8
0
6
CONTINUOUS
10
0.048362
20
0.357160
30
0.0
11
0.047293
21
0.356298
31
0.0
0
LINE
8
0
6
CONTINUOUS
10
0.050529
20
0.358092
30
0.0
11
0.051115
21
0.358132
31
0.0
0
LINE
8
0
6
CONTINUOUS
10
0.050273
20
0.358077
30
0.0
11
0.050529
21
0.358092
31
0.0
0
LINE
8
0
6
CONTINUOUS
10
0.061525
20
0.360289
30
0.0
11
0.061552
21
0.360158
31
0.0
0
LINE
8
0
6
CONTINUOUS
10
0.061864
20
0.360625
30
0.0
11
0.061525
21
0.360289
31
0.0
0
LINE
8
0
6
CONTINUOUS
10
0.064261
20
0.366670
30
0.0
11
0.063934
21
0.366371
31
0.0
0
LINE
8
0
6
CONTINUOUS
10
0.064633
20
0.365378
30
0.0
11
0.063598
21
0.364833
31
0.0
0
LINE
8
0
6
CONTINUOUS
10
0.063598
20
0.364833
30
0.0
11
0.063028
21
0.364313
31
0.0
0
LINE
8
0
6
CONTINUOUS
10
0.057629
20
0.361797
30
0.0
11
0.055756
21
0.360825
31
0.0
0
LINE
8
0
6
CONTINUOUS
10
0.058284
20
0.364286
30
0.0
11
0.056415
21
0.363310
31
0.0
0
LINE
8
0
6
CONTINUOUS
10
0.056415
20
0.363310
30
0.0
11
0.055400
21
0.362370
31
0.0
0
LINE
8
0
6
CONTINUOUS
10
0.068041
20
0.371679
30
0.0
11
0.066236
21
0.370612
31
0.0
0
LINE
8
0
6
CONTINUOUS
10
0.065581
20
0.369841
30
0.0
11
0.065314
21
0.369540
31
0.0
0
LINE
8
0
6
CONTINUOUS
10
0.064504
20
0.366931
30
0.0
11
0.064261
21
0.366670
31
0.0
0
ENDSEC
0
EOF
