999
unknown String-ID: 20550
0
SECTION
2
HEADER
9
$ACADVER
1
AC1009
9
$DWGCODEPAGE
3
unknown String-ID: 20561
0
ENDSEC
0
SECTION
2
TABLES
0
TABLE
2
LAYER
70
1
0
LAYER
2
0
70
0
62
7
6
CONTINUOUS
0
ENDTAB
0
ENDSEC
0
SECTION
2
ENTITIES
0
LINE
8
0
6
CONTINUOUS
10
-0.246478
20
0.205341
30
0.0
11
-0.247190
21
0.205341
31
0.0
0
LINE
8
0
6
CONTINUOUS
10
-0.246478
20
0.205341
30
0.0
11
-0.226217
21
0.205341
31
0.0
0
LINE
8
0
6
CONTINUOUS
10
-0.230724
20
0.243086
30
0.0
11
-0.226217
21
0.243086
31
0.0
0
LINE
8
0
6
CONTINUOUS
10
-0.226217
20
0.205341
30
0.0
11
-0.225926
21
0.205341
31
0.0
0
LINE
8
0
6
CONTINUOUS
10
-0.226217
20
0.243086
30
0.0
11
-0.225926
21
0.243086
31
0.0
0
LINE
8
0
6
CONTINUOUS
10
-0.247190
20
0.205341
30
0.0
11
-0.247190
21
0.205985
31
0.0
0
LINE
8
0
6
CONTINUOUS
10
-0.247190
20
0.205985
30
0.0
11
-0.247190
21
0.207870
31
0.0
0
LINE
8
0
6
CONTINUOUS
10
-0.247190
20
0.207870
30
0.0
11
-0.247190
21
0.210869
31
0.0
0
LINE
8
0
6
CONTINUOUS
10
-0.247190
20
0.214778
30
0.0
11
-0.247190
21
0.219329
31
0.0
0
LINE
8
0
6
CONTINUOUS
10
-0.247190
20
0.219329
30
0.0
11
-0.247190
21
0.224214
31
0.0
0
LINE
8
0
6
CONTINUOUS
10
-0.247190
20
0.224214
30
0.0
11
-0.247190
21
0.229098
31
0.0
0
LINE
8
0
6
CONTINUOUS
10
-0.247190
20
0.229098
30
0.0
11
-0.247190
21
0.233650
31
0.0
0
LINE
8
0
6
CONTINUOUS
10
-0.247190
20
0.233650
30
0.0
11
-0.247190
21
0.237559
31
0.0
0
LINE
8
0
6
CONTINUOUS
10
-0.247190
20
0.237559
30
0.0
11
-0.247190
21
0.240558
31
0.0
0
LINE
8
0
6
CONTINUOUS
10
-0.247190
20
0.240558
30
0.0
11
-0.247190
21
0.242443
31
0.0
0
LINE
8
0
6
CONTINUOUS
10
-0.247190
20
0.242443
30
0.0
11
-0.247190
21
0.243086
31
0.0
0
LINE
8
0
6
CONTINUOUS
10
-0.246276
20
0.251381
30
0.0
11
-0.246389
21
0.251388
31
0.0
0
LINE
8
0
6
CONTINUOUS
10
-0.246276
20
0.251381
30
0.0
11
-0.230836
21
0.251395
31
0.0
0
LINE
8
0
6
CONTINUOUS
10
-0.230724
20
0.239518
30
0.0
11
-0.230724
21
0.247401
31
0.0
0
LINE
8
0
6
CONTINUOUS
10
-0.230836
20
0.251395
30
0.0
11
-0.230724
21
0.251395
31
0.0
0
LINE
8
0
6
CONTINUOUS
10
-0.246389
20
0.251388
30
0.0
11
-0.246413
21
0.251345
31
0.0
0
LINE
8
0
6
CONTINUOUS
10
-0.246413
20
0.251345
30
0.0
11
-0.246446
21
0.251103
31
0.0
0
LINE
8
0
6
CONTINUOUS
10
-0.246446
20
0.251103
30
0.0
11
-0.246488
21
0.250675
31
0.0
0
LINE
8
0
6
CONTINUOUS
10
-0.246488
20
0.250675
30
0.0
11
-0.246534
21
0.250093
31
0.0
0
LINE
8
0
6
CONTINUOUS
10
-0.246534
20
0.250093
30
0.0
11
-0.246583
21
0.249395
31
0.0
0
LINE
8
0
6
CONTINUOUS
10
-0.247130
20
0.241524
30
0.0
11
-0.246583
21
0.249395
31
0.0
0
LINE
8
0
6
CONTINUOUS
10
-0.230724
20
0.248168
30
0.0
11
-0.230724
21
0.247401
31
0.0
0
LINE
8
0
6
CONTINUOUS
10
-0.230724
20
0.248951
30
0.0
11
-0.230724
21
0.248168
31
0.0
0
LINE
8
0
6
CONTINUOUS
10
-0.230724
20
0.249697
30
0.0
11
-0.230724
21
0.248951
31
0.0
0
LINE
8
0
6
CONTINUOUS
10
-0.230724
20
0.250354
30
0.0
11
-0.230724
21
0.249697
31
0.0
0
LINE
8
0
6
CONTINUOUS
10
-0.230724
20
0.250878
30
0.0
11
-0.230724
21
0.250354
31
0.0
0
LINE
8
0
6
CONTINUOUS
10
-0.230724
20
0.251233
30
0.0
11
-0.230724
21
0.250878
31
0.0
0
LINE
8
0
6
CONTINUOUS
10
-0.230724
20
0.251395
30
0.0
11
-0.230724
21
0.251233
31
0.0
0
LINE
8
0
6
CONTINUOUS
10
-0.225926
20
0.205985
30
0.0
11
-0.225926
21
0.205341
31
0.0
0
LINE
8
0
6
CONTINUOUS
10
-0.225926
20
0.207870
30
0.0
11
-0.225926
21
0.205985
31
0.0
0
LINE
8
0
6
CONTINUOUS
10
-0.225926
20
0.210869
30
0.0
11
-0.225926
21
0.207870
31
0.0
0
LINE
8
0
6
CONTINUOUS
10
-0.225926
20
0.214778
30
0.0
11
-0.225926
21
0.210869
31
0.0
0
LINE
8
0
6
CONTINUOUS
10
-0.225926
20
0.219329
30
0.0
11
-0.225926
21
0.214778
31
0.0
0
LINE
8
0
6
CONTINUOUS
10
-0.225926
20
0.224214
30
0.0
11
-0.225926
21
0.219329
31
0.0
0
LINE
8
0
6
CONTINUOUS
10
-0.225926
20
0.229098
30
0.0
11
-0.225926
21
0.224214
31
0.0
0
LINE
8
0
6
CONTINUOUS
10
-0.225926
20
0.233650
30
0.0
11
-0.225926
21
0.229098
31
0.0
0
LINE
8
0
6
CONTINUOUS
10
-0.225926
20
0.240558
30
0.0
11
-0.225926
21
0.237559
31
0.0
0
LINE
8
0
6
CONTINUOUS
10
-0.225926
20
0.242443
30
0.0
11
-0.225926
21
0.240558
31
0.0
0
LINE
8
0
6
CONTINUOUS
10
-0.225926
20
0.243086
30
0.0
11
-0.225926
21
0.242443
31
0.0
0
LINE
8
0
6
CONTINUOUS
10
-0.184560
20
0.239723
30
0.0
11
-0.184232
21
0.239021
31
0.0
0
LINE
8
0
6
CONTINUOUS
10
-0.164537
20
0.220783
30
0.0
11
-0.164537
21
0.224484
31
0.0
0
LINE
8
0
6
CONTINUOUS
10
-0.164537
20
0.213913
30
0.0
11
-0.164537
21
0.217214
31
0.0
0
LINE
8
0
6
CONTINUOUS
10
-0.164537
20
0.217214
30
0.0
11
-0.164537
21
0.220783
31
0.0
0
LINE
8
0
6
CONTINUOUS
10
-0.164537
20
0.228175
30
0.0
11
-0.164537
21
0.231714
31
0.0
0
LINE
8
0
6
CONTINUOUS
10
-0.164537
20
0.231714
30
0.0
11
-0.164537
21
0.233807
31
0.0
0
LINE
8
0
6
CONTINUOUS
10
-0.225025
20
0.243159
30
0.0
11
-0.225345
21
0.243159
31
0.0
0
LINE
8
0
6
CONTINUOUS
10
-0.184492
20
0.243159
30
0.0
11
-0.193967
21
0.243159
31
0.0
0
LINE
8
0
6
CONTINUOUS
10
-0.215967
20
0.243159
30
0.0
11
-0.225025
21
0.243159
31
0.0
0
LINE
8
0
6
CONTINUOUS
10
-0.225025
20
0.205269
30
0.0
11
-0.225345
21
0.205269
31
0.0
0
LINE
8
0
6
CONTINUOUS
10
-0.168099
20
0.205269
30
0.0
11
-0.172715
21
0.204595
31
0.0
0
LINE
8
0
6
CONTINUOUS
10
-0.177624
20
0.204603
30
0.0
11
-0.172715
21
0.204579
31
0.0
0
LINE
8
0
6
CONTINUOUS
10
-0.177624
20
0.204603
30
0.0
11
-0.181185
21
0.205269
31
0.0
0
LINE
8
0
6
CONTINUOUS
10
-0.164537
20
0.205685
30
0.0
11
-0.164537
21
0.206814
31
0.0
0
LINE
8
0
6
CONTINUOUS
10
-0.164537
20
0.206814
30
0.0
11
-0.164537
21
0.208612
31
0.0
0
LINE
8
0
6
CONTINUOUS
10
-0.164537
20
0.211009
30
0.0
11
-0.164537
21
0.213913
31
0.0
0
LINE
8
0
6
CONTINUOUS
10
-0.164537
20
0.208612
30
0.0
11
-0.164537
21
0.211009
31
0.0
0
LINE
8
0
6
CONTINUOUS
10
-0.164537
20
0.205269
30
0.0
11
-0.164537
21
0.205685
31
0.0
0
LINE
8
0
6
CONTINUOUS
10
-0.164537
20
0.205269
30
0.0
11
-0.164938
21
0.205269
31
0.0
0
LINE
8
0
6
CONTINUOUS
10
-0.181185
20
0.205269
30
0.0
11
-0.193967
21
0.205269
31
0.0
0
LINE
8
0
6
CONTINUOUS
10
-0.215967
20
0.205269
30
0.0
11
-0.225025
21
0.205269
31
0.0
0
LINE
8
0
6
CONTINUOUS
10
-0.164938
20
0.205269
30
0.0
11
-0.168099
21
0.205269
31
0.0
0
LINE
8
0
6
CONTINUOUS
10
-0.225345
20
0.224484
30
0.0
11
-0.225345
21
0.228175
31
0.0
0
LINE
8
0
6
CONTINUOUS
10
-0.225345
20
0.228175
30
0.0
11
-0.225345
21
0.231714
31
0.0
0
LINE
8
0
6
CONTINUOUS
10
-0.225345
20
0.213913
30
0.0
11
-0.225345
21
0.217214
31
0.0
0
LINE
8
0
6
CONTINUOUS
10
-0.225345
20
0.220783
30
0.0
11
-0.225345
21
0.224484
31
0.0
0
LINE
8
0
6
CONTINUOUS
10
-0.225345
20
0.237801
30
0.0
11
-0.225345
21
0.240116
31
0.0
0
LINE
8
0
6
CONTINUOUS
10
-0.225345
20
0.205685
30
0.0
11
-0.225345
21
0.206814
31
0.0
0
LINE
8
0
6
CONTINUOUS
10
-0.225345
20
0.231714
30
0.0
11
-0.225345
21
0.234964
31
0.0
0
LINE
8
0
6
CONTINUOUS
10
-0.225345
20
0.217214
30
0.0
11
-0.225345
21
0.220783
31
0.0
0
LINE
8
0
6
CONTINUOUS
10
-0.225345
20
0.211009
30
0.0
11
-0.225345
21
0.213913
31
0.0
0
LINE
8
0
6
CONTINUOUS
10
-0.225345
20
0.240116
30
0.0
11
-0.225345
21
0.241820
31
0.0
0
LINE
8
0
6
CONTINUOUS
10
-0.225345
20
0.242848
30
0.0
11
-0.225345
21
0.243159
31
0.0
0
LINE
8
0
6
CONTINUOUS
10
-0.225345
20
0.234964
30
0.0
11
-0.225345
21
0.237801
31
0.0
0
LINE
8
0
6
CONTINUOUS
10
-0.225345
20
0.205269
30
0.0
11
-0.225345
21
0.205685
31
0.0
0
LINE
8
0
6
CONTINUOUS
10
-0.225345
20
0.208612
30
0.0
11
-0.225345
21
0.211009
31
0.0
0
LINE
8
0
6
CONTINUOUS
10
-0.225345
20
0.206814
30
0.0
11
-0.225345
21
0.208612
31
0.0
0
LINE
8
0
6
CONTINUOUS
10
-0.225345
20
0.241820
30
0.0
11
-0.225345
21
0.242848
31
0.0
0
LINE
8
0
6
CONTINUOUS
10
-0.207767
20
-0.427500
30
0.0
11
-0.204967
21
-0.427500
31
0.0
0
LINE
8
0
6
CONTINUOUS
10
-0.215967
20
-0.478946
30
0.0
11
-0.215967
21
-0.479500
31
0.0
0
LINE
8
0
6
CONTINUOUS
10
-0.215567
20
-0.479500
30
0.0
11
-0.215967
21
-0.479500
31
0.0
0
LINE
8
0
6
CONTINUOUS
10
-0.214467
20
-0.479500
30
0.0
11
-0.215567
21
-0.479500
31
0.0
0
LINE
8
0
6
CONTINUOUS
10
-0.212767
20
-0.479500
30
0.0
11
-0.214467
21
-0.479500
31
0.0
0
LINE
8
0
6
CONTINUOUS
10
-0.210467
20
-0.479500
30
0.0
11
-0.212767
21
-0.479500
31
0.0
0
LINE
8
0
6
CONTINUOUS
10
-0.207767
20
-0.479500
30
0.0
11
-0.210467
21
-0.479500
31
0.0
0
LINE
8
0
6
CONTINUOUS
10
-0.204967
20
-0.479500
30
0.0
11
-0.207767
21
-0.479500
31
0.0
0
LINE
8
0
6
CONTINUOUS
10
-0.207767
20
-0.427500
30
0.0
11
-0.210467
21
-0.427500
31
0.0
0
LINE
8
0
6
CONTINUOUS
10
-0.210467
20
-0.427500
30
0.0
11
-0.212767
21
-0.427500
31
0.0
0
LINE
8
0
6
CONTINUOUS
10
-0.214467
20
-0.427500
30
0.0
11
-0.215567
21
-0.427500
31
0.0
0
LINE
8
0
6
CONTINUOUS
10
-0.193967
20
-0.479500
30
0.0
11
-0.194367
21
-0.479500
31
0.0
0
LINE
8
0
6
CONTINUOUS
10
-0.194367
20
-0.479500
30
0.0
11
-0.195467
21
-0.479500
31
0.0
0
LINE
8
0
6
CONTINUOUS
10
-0.195467
20
-0.479500
30
0.0
11
-0.197167
21
-0.479500
31
0.0
0
LINE
8
0
6
CONTINUOUS
10
-0.197167
20
-0.479500
30
0.0
11
-0.199467
21
-0.479500
31
0.0
0
LINE
8
0
6
CONTINUOUS
10
-0.199467
20
-0.479500
30
0.0
11
-0.202167
21
-0.479500
31
0.0
0
LINE
8
0
6
CONTINUOUS
10
-0.202167
20
-0.479500
30
0.0
11
-0.204967
21
-0.479500
31
0.0
0
LINE
8
0
6
CONTINUOUS
10
-0.215567
20
-0.427500
30
0.0
11
-0.215967
21
-0.427500
31
0.0
0
LINE
8
0
6
CONTINUOUS
10
-0.215967
20
-0.428054
30
0.0
11
-0.215967
21
-0.427500
31
0.0
0
LINE
8
0
6
CONTINUOUS
10
-0.215967
20
-0.478946
30
0.0
11
-0.215967
21
-0.428054
31
0.0
0
LINE
8
0
6
CONTINUOUS
10
-0.212767
20
-0.427500
30
0.0
11
-0.214467
21
-0.427500
31
0.0
0
LINE
8
0
6
CONTINUOUS
10
-0.194367
20
0.479500
30
0.0
11
-0.193967
21
0.479500
31
0.0
0
LINE
8
0
6
CONTINUOUS
10
-0.195467
20
0.479500
30
0.0
11
-0.194367
21
0.479500
31
0.0
0
LINE
8
0
6
CONTINUOUS
10
-0.197167
20
0.479500
30
0.0
11
-0.195467
21
0.479500
31
0.0
0
LINE
8
0
6
CONTINUOUS
10
-0.199467
20
0.479500
30
0.0
11
-0.197167
21
0.479500
31
0.0
0
LINE
8
0
6
CONTINUOUS
10
-0.202167
20
0.479500
30
0.0
11
-0.199467
21
0.479500
31
0.0
0
LINE
8
0
6
CONTINUOUS
10
-0.204967
20
0.479500
30
0.0
11
-0.202167
21
0.479500
31
0.0
0
LINE
8
0
6
CONTINUOUS
10
-0.215967
20
0.479500
30
0.0
11
-0.215967
21
0.478792
31
0.0
0
LINE
8
0
6
CONTINUOUS
10
-0.215967
20
0.479500
30
0.0
11
-0.215567
21
0.479500
31
0.0
0
LINE
8
0
6
CONTINUOUS
10
-0.215567
20
0.479500
30
0.0
11
-0.214467
21
0.479500
31
0.0
0
LINE
8
0
6
CONTINUOUS
10
-0.214467
20
0.479500
30
0.0
11
-0.212767
21
0.479500
31
0.0
0
LINE
8
0
6
CONTINUOUS
10
-0.212767
20
0.479500
30
0.0
11
-0.210467
21
0.479500
31
0.0
0
LINE
8
0
6
CONTINUOUS
10
-0.210467
20
0.479500
30
0.0
11
-0.207767
21
0.479500
31
0.0
0
LINE
8
0
6
CONTINUOUS
10
-0.207767
20
0.479500
30
0.0
11
-0.204967
21
0.479500
31
0.0
0
LINE
8
0
6
CONTINUOUS
10
-0.193967
20
-0.427000
30
0.0
11
-0.194467
21
-0.427500
31
0.0
0
LINE
8
0
6
CONTINUOUS
10
-0.193967
20
0.427000
30
0.0
11
-0.193967
21
0.426687
31
0.0
0
LINE
8
0
6
CONTINUOUS
10
-0.194467
20
0.427500
30
0.0
11
-0.193967
21
0.427000
31
0.0
0
LINE
8
0
6
CONTINUOUS
10
-0.215467
20
-0.427500
30
0.0
11
-0.215967
21
-0.427000
31
0.0
0
LINE
8
0
6
CONTINUOUS
10
-0.215967
20
0.426687
30
0.0
11
-0.215967
21
0.427000
31
0.0
0
LINE
8
0
6
CONTINUOUS
10
-0.215967
20
0.427000
30
0.0
11
-0.215467
21
0.427500
31
0.0
0
LINE
8
0
6
CONTINUOUS
10
-0.194367
20
0.427500
30
0.0
11
-0.193967
21
0.427500
31
0.0
0
LINE
8
0
6
CONTINUOUS
10
-0.195467
20
0.427500
30
0.0
11
-0.194367
21
0.427500
31
0.0
0
LINE
8
0
6
CONTINUOUS
10
-0.197167
20
0.427500
30
0.0
11
-0.195467
21
0.427500
31
0.0
0
LINE
8
0
6
CONTINUOUS
10
-0.199467
20
0.427500
30
0.0
11
-0.197167
21
0.427500
31
0.0
0
LINE
8
0
6
CONTINUOUS
10
-0.202167
20
0.427500
30
0.0
11
-0.199467
21
0.427500
31
0.0
0
LINE
8
0
6
CONTINUOUS
10
-0.204967
20
0.427500
30
0.0
11
-0.202167
21
0.427500
31
0.0
0
LINE
8
0
6
CONTINUOUS
10
-0.215967
20
0.428208
30
0.0
11
-0.215967
21
0.427500
31
0.0
0
LINE
8
0
6
CONTINUOUS
10
-0.215967
20
0.427500
30
0.0
11
-0.215567
21
0.427500
31
0.0
0
LINE
8
0
6
CONTINUOUS
10
-0.215967
20
0.478792
30
0.0
11
-0.215967
21
0.428208
31
0.0
0
LINE
8
0
6
CONTINUOUS
10
-0.215567
20
0.427500
30
0.0
11
-0.214467
21
0.427500
31
0.0
0
LINE
8
0
6
CONTINUOUS
10
-0.214467
20
0.427500
30
0.0
11
-0.212767
21
0.427500
31
0.0
0
LINE
8
0
6
CONTINUOUS
10
-0.212767
20
0.427500
30
0.0
11
-0.210467
21
0.427500
31
0.0
0
LINE
8
0
6
CONTINUOUS
10
-0.210467
20
0.427500
30
0.0
11
-0.207767
21
0.427500
31
0.0
0
LINE
8
0
6
CONTINUOUS
10
-0.207767
20
0.427500
30
0.0
11
-0.204967
21
0.427500
31
0.0
0
LINE
8
0
6
CONTINUOUS
10
-0.193967
20
0.479500
30
0.0
11
-0.193967
21
0.478792
31
0.0
0
LINE
8
0
6
CONTINUOUS
10
-0.193967
20
0.428208
30
0.0
11
-0.193967
21
0.427500
31
0.0
0
LINE
8
0
6
CONTINUOUS
10
-0.193967
20
0.478792
30
0.0
11
-0.193967
21
0.428208
31
0.0
0
LINE
8
0
6
CONTINUOUS
10
-0.193967
20
0.426687
30
0.0
11
-0.193967
21
0.426145
31
0.0
0
LINE
8
0
6
CONTINUOUS
10
-0.215967
20
0.426145
30
0.0
11
-0.215967
21
0.426687
31
0.0
0
LINE
8
0
6
CONTINUOUS
10
-0.193967
20
-0.427500
30
0.0
11
-0.194367
21
-0.427500
31
0.0
0
LINE
8
0
6
CONTINUOUS
10
-0.194367
20
-0.427500
30
0.0
11
-0.195467
21
-0.427500
31
0.0
0
LINE
8
0
6
CONTINUOUS
10
-0.195467
20
-0.427500
30
0.0
11
-0.197167
21
-0.427500
31
0.0
0
LINE
8
0
6
CONTINUOUS
10
-0.197167
20
-0.427500
30
0.0
11
-0.199467
21
-0.427500
31
0.0
0
LINE
8
0
6
CONTINUOUS
10
-0.199467
20
-0.427500
30
0.0
11
-0.202167
21
-0.427500
31
0.0
0
LINE
8
0
6
CONTINUOUS
10
-0.202167
20
-0.427500
30
0.0
11
-0.204967
21
-0.427500
31
0.0
0
LINE
8
0
6
CONTINUOUS
10
-0.193967
20
-0.427500
30
0.0
11
-0.193967
21
-0.428054
31
0.0
0
LINE
8
0
6
CONTINUOUS
10
-0.193967
20
-0.428054
30
0.0
11
-0.193967
21
-0.478946
31
0.0
0
LINE
8
0
6
CONTINUOUS
10
-0.193967
20
-0.478946
30
0.0
11
-0.193967
21
-0.479500
31
0.0
0
LINE
8
0
6
CONTINUOUS
10
-0.215967
20
-0.426786
30
0.0
11
-0.215967
21
-0.427000
31
0.0
0
LINE
8
0
6
CONTINUOUS
10
-0.193967
20
-0.426786
30
0.0
11
-0.193967
21
-0.427000
31
0.0
0
LINE
8
0
6
CONTINUOUS
10
-0.193967
20
0.426145
30
0.0
11
-0.193967
21
0.421911
31
0.0
0
LINE
8
0
6
CONTINUOUS
10
-0.193967
20
0.345882
30
0.0
11
-0.193967
21
0.243159
31
0.0
0
LINE
8
0
6
CONTINUOUS
10
-0.193967
20
0.205269
30
0.0
11
-0.193967
21
-0.426206
31
0.0
0
LINE
8
0
6
CONTINUOUS
10
-0.215967
20
-0.426206
30
0.0
11
-0.215967
21
0.205269
31
0.0
0
LINE
8
0
6
CONTINUOUS
10
-0.215967
20
0.243159
30
0.0
11
-0.215967
21
0.357381
31
0.0
0
LINE
8
0
6
CONTINUOUS
10
-0.215967
20
0.414785
30
0.0
11
-0.215967
21
0.426145
31
0.0
0
LINE
8
0
6
CONTINUOUS
10
-0.193967
20
-0.426206
30
0.0
11
-0.193967
21
-0.426786
31
0.0
0
LINE
8
0
6
CONTINUOUS
10
-0.215967
20
-0.426786
30
0.0
11
-0.215967
21
-0.426206
31
0.0
0
LINE
8
0
6
CONTINUOUS
10
-0.165456
20
0.203823
30
0.0
11
-0.165456
21
0.205269
31
0.0
0
LINE
8
0
6
CONTINUOUS
10
-0.181456
20
0.203823
30
0.0
11
-0.181456
21
0.205269
31
0.0
0
LINE
8
0
6
CONTINUOUS
10
-0.165456
20
0.185215
30
0.0
11
-0.165456
21
0.203823
31
0.0
0
LINE
8
0
6
CONTINUOUS
10
-0.181456
20
0.185215
30
0.0
11
-0.181456
21
0.203823
31
0.0
0
LINE
8
0
6
CONTINUOUS
10
-0.165456
20
0.167890
30
0.0
11
-0.165456
21
0.185215
31
0.0
0
LINE
8
0
6
CONTINUOUS
10
-0.181456
20
0.167890
30
0.0
11
-0.181456
21
0.185215
31
0.0
0
LINE
8
0
6
CONTINUOUS
10
-0.165456
20
0.151431
30
0.0
11
-0.165456
21
0.167890
31
0.0
0
LINE
8
0
6
CONTINUOUS
10
-0.181456
20
0.151431
30
0.0
11
-0.181456
21
0.167890
31
0.0
0
LINE
8
0
6
CONTINUOUS
10
-0.165456
20
0.135419
30
0.0
11
-0.165456
21
0.151431
31
0.0
0
LINE
8
0
6
CONTINUOUS
10
-0.181456
20
0.135419
30
0.0
11
-0.181456
21
0.151431
31
0.0
0
LINE
8
0
6
CONTINUOUS
10
-0.165456
20
0.119438
30
0.0
11
-0.165456
21
0.135419
31
0.0
0
LINE
8
0
6
CONTINUOUS
10
-0.181456
20
0.119438
30
0.0
11
-0.181456
21
0.135419
31
0.0
0
LINE
8
0
6
CONTINUOUS
10
-0.165456
20
0.103070
30
0.0
11
-0.165456
21
0.119438
31
0.0
0
LINE
8
0
6
CONTINUOUS
10
-0.181456
20
0.103070
30
0.0
11
-0.181456
21
0.119438
31
0.0
0
LINE
8
0
6
CONTINUOUS
10
-0.165456
20
0.085898
30
0.0
11
-0.165456
21
0.103070
31
0.0
0
LINE
8
0
6
CONTINUOUS
10
-0.181456
20
0.085898
30
0.0
11
-0.181456
21
0.103070
31
0.0
0
LINE
8
0
6
CONTINUOUS
10
-0.165456
20
0.067504
30
0.0
11
-0.165456
21
0.085898
31
0.0
0
LINE
8
0
6
CONTINUOUS
10
-0.181456
20
0.067504
30
0.0
11
-0.181456
21
0.085898
31
0.0
0
LINE
8
0
6
CONTINUOUS
10
-0.165456
20
0.047471
30
0.0
11
-0.165456
21
0.067504
31
0.0
0
LINE
8
0
6
CONTINUOUS
10
-0.181456
20
0.047471
30
0.0
11
-0.181456
21
0.067504
31
0.0
0
LINE
8
0
6
CONTINUOUS
10
-0.165456
20
0.000736
30
0.0
11
-0.165456
21
0.047471
31
0.0
0
LINE
8
0
6
CONTINUOUS
10
-0.181456
20
0.000736
30
0.0
11
-0.181456
21
0.047471
31
0.0
0
LINE
8
0
6
CONTINUOUS
10
-0.165456
20
-0.055614
30
0.0
11
-0.165456
21
0.000736
31
0.0
0
LINE
8
0
6
CONTINUOUS
10
-0.181456
20
-0.055614
30
0.0
11
-0.181456
21
0.000736
31
0.0
0
LINE
8
0
6
CONTINUOUS
10
-0.165456
20
-0.118471
30
0.0
11
-0.165456
21
-0.055614
31
0.0
0
LINE
8
0
6
CONTINUOUS
10
-0.181456
20
-0.118471
30
0.0
11
-0.181456
21
-0.055614
31
0.0
0
LINE
8
0
6
CONTINUOUS
10
-0.165456
20
-0.184725
30
0.0
11
-0.165456
21
-0.118471
31
0.0
0
LINE
8
0
6
CONTINUOUS
10
-0.181456
20
-0.184725
30
0.0
11
-0.181456
21
-0.118471
31
0.0
0
LINE
8
0
6
CONTINUOUS
10
-0.165456
20
-0.251267
30
0.0
11
-0.165456
21
-0.184725
31
0.0
0
LINE
8
0
6
CONTINUOUS
10
-0.181456
20
-0.251267
30
0.0
11
-0.181456
21
-0.184725
31
0.0
0
LINE
8
0
6
CONTINUOUS
10
-0.165456
20
-0.314989
30
0.0
11
-0.165456
21
-0.251267
31
0.0
0
LINE
8
0
6
CONTINUOUS
10
-0.181456
20
-0.314989
30
0.0
11
-0.181456
21
-0.251267
31
0.0
0
LINE
8
0
6
CONTINUOUS
10
-0.165456
20
-0.372782
30
0.0
11
-0.165456
21
-0.314989
31
0.0
0
LINE
8
0
6
CONTINUOUS
10
-0.181456
20
-0.372782
30
0.0
11
-0.181456
21
-0.314989
31
0.0
0
LINE
8
0
6
CONTINUOUS
10
-0.165456
20
-0.421538
30
0.0
11
-0.165456
21
-0.372782
31
0.0
0
LINE
8
0
6
CONTINUOUS
10
-0.181456
20
-0.421538
30
0.0
11
-0.181456
21
-0.372782
31
0.0
0
LINE
8
0
6
CONTINUOUS
10
-0.165456
20
-0.458147
30
0.0
11
-0.165456
21
-0.421538
31
0.0
0
LINE
8
0
6
CONTINUOUS
10
-0.181456
20
-0.458147
30
0.0
11
-0.181456
21
-0.421538
31
0.0
0
LINE
8
0
6
CONTINUOUS
10
-0.165456
20
-0.479500
30
0.0
11
-0.165456
21
-0.458147
31
0.0
0
LINE
8
0
6
CONTINUOUS
10
-0.166528
20
-0.479500
30
0.0
11
-0.165456
21
-0.479500
31
0.0
0
LINE
8
0
6
CONTINUOUS
10
-0.169456
20
-0.479500
30
0.0
11
-0.166528
21
-0.479500
31
0.0
0
LINE
8
0
6
CONTINUOUS
10
-0.173456
20
-0.479500
30
0.0
11
-0.169456
21
-0.479500
31
0.0
0
LINE
8
0
6
CONTINUOUS
10
-0.177456
20
-0.479500
30
0.0
11
-0.173456
21
-0.479500
31
0.0
0
LINE
8
0
6
CONTINUOUS
10
-0.180384
20
-0.479500
30
0.0
11
-0.177456
21
-0.479500
31
0.0
0
LINE
8
0
6
CONTINUOUS
10
-0.181456
20
-0.479500
30
0.0
11
-0.180384
21
-0.479500
31
0.0
0
LINE
8
0
6
CONTINUOUS
10
-0.181456
20
-0.479500
30
0.0
11
-0.181456
21
-0.458147
31
0.0
0
LINE
8
0
6
CONTINUOUS
10
0.105183
20
-0.443331
30
0.0
11
0.105183
21
-0.442527
31
0.0
0
LINE
8
0
6
CONTINUOUS
10
0.084884
20
-0.442527
30
0.0
11
0.084884
21
-0.443331
31
0.0
0
LINE
8
0
6
CONTINUOUS
10
0.092638
20
-0.443331
30
0.0
11
0.088261
21
-0.443331
31
0.0
0
LINE
8
0
6
CONTINUOUS
10
0.105011
20
-0.443331
30
0.0
11
0.101805
21
-0.443331
31
0.0
0
LINE
8
0
6
CONTINUOUS
10
0.085056
20
-0.443331
30
0.0
11
0.083575
21
-0.443331
31
0.0
0
LINE
8
0
6
CONTINUOUS
10
0.097429
20
-0.443331
30
0.0
11
0.092638
21
-0.443331
31
0.0
0
LINE
8
0
6
CONTINUOUS
10
0.106491
20
-0.443331
30
0.0
11
0.105011
21
-0.443331
31
0.0
0
LINE
8
0
6
CONTINUOUS
10
0.106491
20
-0.444711
30
0.0
11
0.106491
21
-0.443331
31
0.0
0
LINE
8
0
6
CONTINUOUS
10
0.088261
20
-0.443331
30
0.0
11
0.085056
21
-0.443331
31
0.0
0
LINE
8
0
6
CONTINUOUS
10
0.101805
20
-0.443331
30
0.0
11
0.097429
21
-0.443331
31
0.0
0
LINE
8
0
6
CONTINUOUS
10
0.083575
20
-0.444711
30
0.0
11
0.083575
21
-0.443331
31
0.0
0
LINE
8
0
6
CONTINUOUS
10
0.084777
20
-0.465979
30
0.0
11
0.086102
21
-0.465979
31
0.0
0
LINE
8
0
6
CONTINUOUS
10
0.084735
20
-0.465236
30
0.0
11
0.084777
21
-0.465979
31
0.0
0
LINE
8
0
6
CONTINUOUS
10
0.086102
20
-0.465979
30
0.0
11
0.088971
21
-0.465979
31
0.0
0
LINE
8
0
6
CONTINUOUS
10
0.088971
20
-0.465979
30
0.0
11
0.092889
21
-0.465979
31
0.0
0
LINE
8
0
6
CONTINUOUS
10
0.092889
20
-0.465979
30
0.0
11
0.097177
21
-0.465979
31
0.0
0
LINE
8
0
6
CONTINUOUS
10
0.097177
20
-0.465979
30
0.0
11
0.101095
21
-0.465979
31
0.0
0
LINE
8
0
6
CONTINUOUS
10
0.101095
20
-0.465979
30
0.0
11
0.103965
21
-0.465979
31
0.0
0
LINE
8
0
6
CONTINUOUS
10
0.103965
20
-0.465979
30
0.0
11
0.105290
21
-0.465979
31
0.0
0
LINE
8
0
6
CONTINUOUS
10
0.105332
20
-0.465236
30
0.0
11
0.105290
21
-0.465979
31
0.0
0
LINE
8
0
6
CONTINUOUS
10
0.083575
20
-0.444711
30
0.0
11
0.084735
21
-0.465236
31
0.0
0
LINE
8
0
6
CONTINUOUS
10
0.106491
20
-0.444711
30
0.0
11
0.105332
21
-0.465236
31
0.0
0
LINE
8
0
6
CONTINUOUS
10
0.019757
20
-0.460268
30
0.0
11
0.026432
21
-0.459662
31
0.0
0
LINE
8
0
6
CONTINUOUS
10
0.026438
20
-0.393017
30
0.0
11
0.019798
21
-0.392363
31
0.0
0
LINE
8
0
6
CONTINUOUS
10
0.032840
20
-0.394919
30
0.0
11
0.026438
21
-0.393017
31
0.0
0
LINE
8
0
6
CONTINUOUS
10
0.038779
20
-0.398128
30
0.0
11
0.032840
21
-0.394919
31
0.0
0
LINE
8
0
6
CONTINUOUS
10
0.043910
20
-0.402389
30
0.0
11
0.038779
21
-0.398128
31
0.0
0
LINE
8
0
6
CONTINUOUS
10
0.045093
20
-0.403830
30
0.0
11
0.043910
21
-0.402389
31
0.0
0
LINE
8
0
6
CONTINUOUS
10
0.047964
20
-0.445322
30
0.0
11
0.049537
21
-0.442415
31
0.0
0
LINE
8
0
6
CONTINUOUS
10
0.043742
20
-0.450487
30
0.0
11
0.047964
21
-0.445322
31
0.0
0
LINE
8
0
6
CONTINUOUS
10
0.038549
20
-0.454639
30
0.0
11
0.043742
21
-0.450487
31
0.0
0
LINE
8
0
6
CONTINUOUS
10
0.032726
20
-0.457717
30
0.0
11
0.038549
21
-0.454639
31
0.0
0
LINE
8
0
6
CONTINUOUS
10
0.026432
20
-0.459662
30
0.0
11
0.032726
21
-0.457717
31
0.0
0
LINE
8
0
6
CONTINUOUS
10
0.019757
20
-0.460268
30
0.0
11
0.026432
21
-0.459662
31
0.0
0
LINE
8
0
6
CONTINUOUS
10
0.013215
20
-0.459608
30
0.0
11
0.019757
21
-0.460268
31
0.0
0
LINE
8
0
6
CONTINUOUS
10
0.006904
20
-0.457747
30
0.0
11
0.013215
21
-0.459608
31
0.0
0
LINE
8
0
6
CONTINUOUS
10
0.001001
20
-0.454572
30
0.0
11
0.006904
21
-0.457747
31
0.0
0
LINE
8
0
6
CONTINUOUS
10
-0.004086
20
-0.450399
30
0.0
11
0.001001
21
-0.454572
31
0.0
0
LINE
8
0
6
CONTINUOUS
10
-0.008317
20
-0.445347
30
0.0
11
-0.004086
21
-0.450399
31
0.0
0
LINE
8
0
6
CONTINUOUS
10
-0.010133
20
-0.441966
30
0.0
11
-0.008317
21
-0.445347
31
0.0
0
LINE
8
0
6
CONTINUOUS
10
-0.004299
20
-0.402387
30
0.0
11
-0.005774
21
-0.404215
31
0.0
0
LINE
8
0
6
CONTINUOUS
10
0.000853
20
-0.398171
30
0.0
11
-0.004299
21
-0.402387
31
0.0
0
LINE
8
0
6
CONTINUOUS
10
0.006711
20
-0.395000
30
0.0
11
0.000853
21
-0.398171
31
0.0
0
LINE
8
0
6
CONTINUOUS
10
0.013140
20
-0.392979
30
0.0
11
0.006711
21
-0.395000
31
0.0
0
LINE
8
0
6
CONTINUOUS
10
0.019798
20
-0.392363
30
0.0
11
0.013140
21
-0.392979
31
0.0
0
LINE
8
0
6
CONTINUOUS
10
0.020284
20
-0.403972
30
0.0
11
0.010713
21
-0.404058
31
0.0
0
LINE
8
0
6
CONTINUOUS
10
0.027879
20
-0.442345
30
0.0
11
0.084884
21
-0.442527
31
0.0
0
LINE
8
0
6
CONTINUOUS
10
0.027878
20
-0.403904
30
0.0
11
0.095033
21
-0.403614
31
0.0
0
LINE
8
0
6
CONTINUOUS
10
-0.010698
20
-0.441960
30
0.0
11
0.010712
21
-0.442195
31
0.0
0
LINE
8
0
6
CONTINUOUS
10
-0.010698
20
-0.404262
30
0.0
11
0.010713
21
-0.404058
31
0.0
0
LINE
8
0
6
CONTINUOUS
10
0.020280
20
-0.442295
30
0.0
11
0.027879
21
-0.442345
31
0.0
0
LINE
8
0
6
CONTINUOUS
10
0.020284
20
-0.403972
30
0.0
11
0.027878
21
-0.403904
31
0.0
0
LINE
8
0
6
CONTINUOUS
10
0.020280
20
-0.442295
30
0.0
11
0.010712
21
-0.442195
31
0.0
0
LINE
8
0
6
CONTINUOUS
10
-0.010958
20
-0.441958
30
0.0
11
-0.010698
21
-0.441960
31
0.0
0
LINE
8
0
6
CONTINUOUS
10
-0.010957
20
-0.404264
30
0.0
11
-0.010698
21
-0.404262
31
0.0
0
LINE
8
0
6
CONTINUOUS
10
-0.056014
20
-0.441501
30
0.0
11
-0.011735
21
-0.441954
31
0.0
0
LINE
8
0
6
CONTINUOUS
10
-0.036287
20
-0.404486
30
0.0
11
-0.011734
21
-0.404268
31
0.0
0
LINE
8
0
6
CONTINUOUS
10
-0.011735
20
-0.441954
30
0.0
11
-0.011476
21
-0.441955
31
0.0
0
LINE
8
0
6
CONTINUOUS
10
-0.011476
20
-0.441955
30
0.0
11
-0.011217
21
-0.440920
31
0.0
0
LINE
8
0
6
CONTINUOUS
10
-0.011217
20
-0.440920
30
0.0
11
-0.010958
21
-0.441958
31
0.0
0
LINE
8
0
6
CONTINUOUS
10
-0.011734
20
-0.404268
30
0.0
11
-0.011475
21
-0.404266
31
0.0
0
LINE
8
0
6
CONTINUOUS
10
-0.011475
20
-0.404266
30
0.0
11
-0.011216
21
-0.405297
31
0.0
0
LINE
8
0
6
CONTINUOUS
10
-0.011216
20
-0.405297
30
0.0
11
-0.010957
21
-0.404264
31
0.0
0
LINE
8
0
6
CONTINUOUS
10
-0.056014
20
-0.441501
30
0.0
11
-0.056823
21
-0.441493
31
0.0
0
LINE
8
0
6
CONTINUOUS
10
0.019757
20
-0.460268
30
0.0
11
0.026432
21
-0.459662
31
0.0
0
LINE
8
0
6
CONTINUOUS
10
-0.056823
20
-0.441493
30
0.0
11
-0.056823
21
-0.440898
31
0.0
0
LINE
8
0
6
CONTINUOUS
10
-0.056823
20
-0.440898
30
0.0
11
-0.056823
21
-0.439080
31
0.0
0
LINE
8
0
6
CONTINUOUS
10
-0.056823
20
-0.439080
30
0.0
11
-0.056823
21
-0.436160
31
0.0
0
LINE
8
0
6
CONTINUOUS
10
-0.056823
20
-0.436160
30
0.0
11
-0.056823
21
-0.432338
31
0.0
0
LINE
8
0
6
CONTINUOUS
10
-0.056823
20
-0.432338
30
0.0
11
-0.056823
21
-0.427859
31
0.0
0
LINE
8
0
6
CONTINUOUS
10
-0.056823
20
-0.427859
30
0.0
11
-0.056823
21
-0.423052
31
0.0
0
LINE
8
0
6
CONTINUOUS
10
-0.056823
20
-0.423052
30
0.0
11
-0.056823
21
-0.418250
31
0.0
0
LINE
8
0
6
CONTINUOUS
10
-0.056823
20
-0.418250
30
0.0
11
-0.056823
21
-0.413704
31
0.0
0
LINE
8
0
6
CONTINUOUS
10
-0.036857
20
-0.403984
30
0.0
11
-0.036295
21
-0.403976
31
0.0
0
LINE
8
0
6
CONTINUOUS
10
-0.057116
20
-0.404281
30
0.0
11
-0.056571
21
-0.404268
31
0.0
0
LINE
8
0
6
CONTINUOUS
10
-0.056571
20
-0.404268
30
0.0
11
-0.036857
21
-0.403984
31
0.0
0
LINE
8
0
6
CONTINUOUS
10
-0.036286
20
-0.404497
30
0.0
11
-0.036295
21
-0.403976
31
0.0
0
LINE
8
0
6
CONTINUOUS
10
-0.036233
20
-0.410158
30
0.0
11
-0.036286
21
-0.404497
31
0.0
0
LINE
8
0
6
CONTINUOUS
10
-0.057107
20
-0.409299
30
0.0
11
-0.057115
21
-0.408184
31
0.0
0
LINE
8
0
6
CONTINUOUS
10
-0.057115
20
-0.408184
30
0.0
11
-0.057121
21
-0.406775
31
0.0
0
LINE
8
0
6
CONTINUOUS
10
-0.057121
20
-0.406775
30
0.0
11
-0.057124
21
-0.405449
31
0.0
0
LINE
8
0
6
CONTINUOUS
10
-0.057122
20
-0.404492
30
0.0
11
-0.057116
21
-0.404281
31
0.0
0
LINE
8
0
6
CONTINUOUS
10
-0.057054
20
-0.414961
30
0.0
11
-0.057107
21
-0.409299
31
0.0
0
LINE
8
0
6
CONTINUOUS
10
-0.057124
20
-0.405449
30
0.0
11
-0.057122
21
-0.404492
31
0.0
0
LINE
8
0
6
CONTINUOUS
10
0.163634
20
-0.459662
30
0.0
11
0.170309
21
-0.460268
31
0.0
0
LINE
8
0
6
CONTINUOUS
10
0.170269
20
-0.392363
30
0.0
11
0.163628
21
-0.393017
31
0.0
0
LINE
8
0
6
CONTINUOUS
10
0.163628
20
-0.393017
30
0.0
11
0.157226
21
-0.394919
31
0.0
0
LINE
8
0
6
CONTINUOUS
10
0.157226
20
-0.394919
30
0.0
11
0.151288
21
-0.398128
31
0.0
0
LINE
8
0
6
CONTINUOUS
10
0.151288
20
-0.398128
30
0.0
11
0.146157
21
-0.402389
31
0.0
0
LINE
8
0
6
CONTINUOUS
10
0.146157
20
-0.402389
30
0.0
11
0.144974
21
-0.403830
31
0.0
0
LINE
8
0
6
CONTINUOUS
10
0.140530
20
-0.442415
30
0.0
11
0.142103
21
-0.445322
31
0.0
0
LINE
8
0
6
CONTINUOUS
10
0.142103
20
-0.445322
30
0.0
11
0.146325
21
-0.450487
31
0.0
0
LINE
8
0
6
CONTINUOUS
10
0.146325
20
-0.450487
30
0.0
11
0.151517
21
-0.454639
31
0.0
0
LINE
8
0
6
CONTINUOUS
10
0.151517
20
-0.454639
30
0.0
11
0.157340
21
-0.457717
31
0.0
0
LINE
8
0
6
CONTINUOUS
10
0.157340
20
-0.457717
30
0.0
11
0.163634
21
-0.459662
31
0.0
0
LINE
8
0
6
CONTINUOUS
10
0.163634
20
-0.459662
30
0.0
11
0.170309
21
-0.460268
31
0.0
0
LINE
8
0
6
CONTINUOUS
10
0.170309
20
-0.460268
30
0.0
11
0.176851
21
-0.459608
31
0.0
0
LINE
8
0
6
CONTINUOUS
10
0.176851
20
-0.459608
30
0.0
11
0.183163
21
-0.457747
31
0.0
0
LINE
8
0
6
CONTINUOUS
10
0.183163
20
-0.457747
30
0.0
11
0.189065
21
-0.454572
31
0.0
0
LINE
8
0
6
CONTINUOUS
10
0.189065
20
-0.454572
30
0.0
11
0.194153
21
-0.450399
31
0.0
0
LINE
8
0
6
CONTINUOUS
10
0.194153
20
-0.450399
30
0.0
11
0.198384
21
-0.445347
31
0.0
0
LINE
8
0
6
CONTINUOUS
10
0.198384
20
-0.445347
30
0.0
11
0.200200
21
-0.441966
31
0.0
0
LINE
8
0
6
CONTINUOUS
10
0.195840
20
-0.404215
30
0.0
11
0.194366
21
-0.402387
31
0.0
0
LINE
8
0
6
CONTINUOUS
10
0.194366
20
-0.402387
30
0.0
11
0.189214
21
-0.398171
31
0.0
0
LINE
8
0
6
CONTINUOUS
10
0.189214
20
-0.398171
30
0.0
11
0.183356
21
-0.395000
31
0.0
0
LINE
8
0
6
CONTINUOUS
10
0.183356
20
-0.395000
30
0.0
11
0.176926
21
-0.392979
31
0.0
0
LINE
8
0
6
CONTINUOUS
10
0.176926
20
-0.392979
30
0.0
11
0.170269
21
-0.392363
31
0.0
0
LINE
8
0
6
CONTINUOUS
10
0.179353
20
-0.404058
30
0.0
11
0.169782
21
-0.403972
31
0.0
0
LINE
8
0
6
CONTINUOUS
10
0.105183
20
-0.442527
30
0.0
11
0.162187
21
-0.442345
31
0.0
0
LINE
8
0
6
CONTINUOUS
10
0.095033
20
-0.403614
30
0.0
11
0.162189
21
-0.403904
31
0.0
0
LINE
8
0
6
CONTINUOUS
10
0.179354
20
-0.442195
30
0.0
11
0.200765
21
-0.441960
31
0.0
0
LINE
8
0
6
CONTINUOUS
10
0.179353
20
-0.404058
30
0.0
11
0.200765
21
-0.404262
31
0.0
0
LINE
8
0
6
CONTINUOUS
10
0.162187
20
-0.442345
30
0.0
11
0.169786
21
-0.442295
31
0.0
0
LINE
8
0
6
CONTINUOUS
10
0.162189
20
-0.403904
30
0.0
11
0.169782
21
-0.403972
31
0.0
0
LINE
8
0
6
CONTINUOUS
10
0.179354
20
-0.442195
30
0.0
11
0.169786
21
-0.442295
31
0.0
0
LINE
8
0
6
CONTINUOUS
10
0.200765
20
-0.441960
30
0.0
11
0.201024
21
-0.441958
31
0.0
0
LINE
8
0
6
CONTINUOUS
10
0.200765
20
-0.404262
30
0.0
11
0.201024
21
-0.404264
31
0.0
0
LINE
8
0
6
CONTINUOUS
10
0.201802
20
-0.441954
30
0.0
11
0.246080
21
-0.441501
31
0.0
0
LINE
8
0
6
CONTINUOUS
10
0.201801
20
-0.404268
30
0.0
11
0.226353
21
-0.404486
31
0.0
0
LINE
8
0
6
CONTINUOUS
10
0.201543
20
-0.441955
30
0.0
11
0.201802
21
-0.441954
31
0.0
0
LINE
8
0
6
CONTINUOUS
10
0.201283
20
-0.440920
30
0.0
11
0.201543
21
-0.441955
31
0.0
0
LINE
8
0
6
CONTINUOUS
10
0.201024
20
-0.441958
30
0.0
11
0.201283
21
-0.440920
31
0.0
0
LINE
8
0
6
CONTINUOUS
10
0.201542
20
-0.404266
30
0.0
11
0.201801
21
-0.404268
31
0.0
0
LINE
8
0
6
CONTINUOUS
10
0.201283
20
-0.405297
30
0.0
11
0.201542
21
-0.404266
31
0.0
0
LINE
8
0
6
CONTINUOUS
10
0.201024
20
-0.404264
30
0.0
11
0.201283
21
-0.405297
31
0.0
0
LINE
8
0
6
CONTINUOUS
10
0.246889
20
-0.441493
30
0.0
11
0.246080
21
-0.441501
31
0.0
0
LINE
8
0
6
CONTINUOUS
10
0.163634
20
-0.459662
30
0.0
11
0.170309
21
-0.460268
31
0.0
0
LINE
8
0
6
CONTINUOUS
10
0.246889
20
-0.440898
30
0.0
11
0.246889
21
-0.441493
31
0.0
0
LINE
8
0
6
CONTINUOUS
10
0.246889
20
-0.439080
30
0.0
11
0.246889
21
-0.440898
31
0.0
0
LINE
8
0
6
CONTINUOUS
10
0.246889
20
-0.436160
30
0.0
11
0.246889
21
-0.439080
31
0.0
0
LINE
8
0
6
CONTINUOUS
10
0.246889
20
-0.432338
30
0.0
11
0.246889
21
-0.436160
31
0.0
0
LINE
8
0
6
CONTINUOUS
10
0.246889
20
-0.427859
30
0.0
11
0.246889
21
-0.432338
31
0.0
0
LINE
8
0
6
CONTINUOUS
10
0.246889
20
-0.423052
30
0.0
11
0.246889
21
-0.427859
31
0.0
0
LINE
8
0
6
CONTINUOUS
10
0.246889
20
-0.418250
30
0.0
11
0.246889
21
-0.423052
31
0.0
0
LINE
8
0
6
CONTINUOUS
10
0.246889
20
-0.414616
30
0.0
11
0.246889
21
-0.418250
31
0.0
0
LINE
8
0
6
CONTINUOUS
10
0.226361
20
-0.403976
30
0.0
11
0.226923
21
-0.403984
31
0.0
0
LINE
8
0
6
CONTINUOUS
10
0.246889
20
-0.414957
30
0.0
11
0.247121
21
-0.414961
31
0.0
0
LINE
8
0
6
CONTINUOUS
10
0.246637
20
-0.404268
30
0.0
11
0.247182
21
-0.404281
31
0.0
0
LINE
8
0
6
CONTINUOUS
10
0.226923
20
-0.403984
30
0.0
11
0.246637
21
-0.404268
31
0.0
0
LINE
8
0
6
CONTINUOUS
10
0.226361
20
-0.403976
30
0.0
11
0.226353
21
-0.404486
31
0.0
0
LINE
8
0
6
CONTINUOUS
10
0.226353
20
-0.404497
30
0.0
11
0.226300
21
-0.410158
31
0.0
0
LINE
8
0
6
CONTINUOUS
10
0.247182
20
-0.408184
30
0.0
11
0.247174
21
-0.409299
31
0.0
0
LINE
8
0
6
CONTINUOUS
10
0.247188
20
-0.406775
30
0.0
11
0.247182
21
-0.408184
31
0.0
0
LINE
8
0
6
CONTINUOUS
10
0.247190
20
-0.405449
30
0.0
11
0.247188
21
-0.406775
31
0.0
0
LINE
8
0
6
CONTINUOUS
10
0.247182
20
-0.404281
30
0.0
11
0.247188
21
-0.404492
31
0.0
0
LINE
8
0
6
CONTINUOUS
10
0.247174
20
-0.409299
30
0.0
11
0.247121
21
-0.414961
31
0.0
0
LINE
8
0
6
CONTINUOUS
10
0.247188
20
-0.404492
30
0.0
11
0.247190
21
-0.405449
31
0.0
0
LINE
8
0
6
CONTINUOUS
10
-0.219443
20
0.369428
30
0.0
11
-0.219068
21
0.370632
31
0.0
0
LINE
8
0
6
CONTINUOUS
10
-0.219443
20
0.370612
30
0.0
11
-0.219443
21
0.369428
31
0.0
0
LINE
8
0
6
CONTINUOUS
10
-0.215447
20
0.370257
30
0.0
11
-0.215447
21
0.370589
31
0.0
0
LINE
8
0
6
CONTINUOUS
10
-0.217069
20
0.371046
30
0.0
11
-0.215447
21
0.370257
31
0.0
0
LINE
8
0
6
CONTINUOUS
10
-0.217078
20
0.385575
30
0.0
11
-0.215182
21
0.386126
31
0.0
0
LINE
8
0
6
CONTINUOUS
10
-0.215182
20
0.386126
30
0.0
11
-0.213405
21
0.385456
31
0.0
0
LINE
8
0
6
CONTINUOUS
10
-0.217197
20
0.384354
30
0.0
11
-0.217078
21
0.385575
31
0.0
0
LINE
8
0
6
CONTINUOUS
10
-0.217197
20
0.385247
30
0.0
11
-0.217197
21
0.384354
31
0.0
0
LINE
8
0
6
CONTINUOUS
10
-0.210188
20
0.392200
30
0.0
11
-0.208133
21
0.392509
31
0.0
0
LINE
8
0
6
CONTINUOUS
10
-0.210751
20
0.391021
30
0.0
11
-0.210188
21
0.392200
31
0.0
0
LINE
8
0
6
CONTINUOUS
10
-0.210751
20
0.392036
30
0.0
11
-0.210751
21
0.391021
31
0.0
0
LINE
8
0
6
CONTINUOUS
10
-0.173001
20
0.402287
30
0.0
11
-0.171563
21
0.401387
31
0.0
0
LINE
8
0
6
CONTINUOUS
10
-0.175709
20
0.400853
30
0.0
11
-0.175074
21
0.402020
31
0.0
0
LINE
8
0
6
CONTINUOUS
10
-0.175709
20
0.401349
30
0.0
11
-0.175709
21
0.400853
31
0.0
0
LINE
8
0
6
CONTINUOUS
10
-0.200074
20
0.397527
30
0.0
11
-0.197952
21
0.397580
31
0.0
0
LINE
8
0
6
CONTINUOUS
10
-0.197952
20
0.397580
30
0.0
11
-0.196811
21
0.396548
31
0.0
0
LINE
8
0
6
CONTINUOUS
10
-0.187071
20
0.400694
30
0.0
11
-0.184977
21
0.400488
31
0.0
0
LINE
8
0
6
CONTINUOUS
10
-0.184977
20
0.400488
30
0.0
11
-0.184239
21
0.399342
31
0.0
0
LINE
8
0
6
CONTINUOUS
10
-0.188427
20
0.399753
30
0.0
11
-0.187071
21
0.400694
31
0.0
0
LINE
8
0
6
CONTINUOUS
10
-0.188427
20
0.400495
30
0.0
11
-0.188427
21
0.399753
31
0.0
0
LINE
8
0
6
CONTINUOUS
10
-0.220287
20
0.377904
30
0.0
11
-0.218665
21
0.378693
31
0.0
0
LINE
8
0
6
CONTINUOUS
10
-0.220287
20
0.379035
30
0.0
11
-0.220287
21
0.377904
31
0.0
0
LINE
8
0
6
CONTINUOUS
10
-0.216666
20
0.378279
30
0.0
11
-0.216291
21
0.377075
31
0.0
0
LINE
8
0
6
CONTINUOUS
10
-0.186298
20
0.371466
30
0.0
11
-0.184402
21
0.372018
31
0.0
0
LINE
8
0
6
CONTINUOUS
10
-0.184402
20
0.372018
30
0.0
11
-0.182625
21
0.371348
31
0.0
0
LINE
8
0
6
CONTINUOUS
10
-0.186417
20
0.370245
30
0.0
11
-0.186298
21
0.371466
31
0.0
0
LINE
8
0
6
CONTINUOUS
10
-0.186417
20
0.371157
30
0.0
11
-0.186417
21
0.370245
31
0.0
0
LINE
8
0
6
CONTINUOUS
10
-0.192454
20
0.373755
30
0.0
11
-0.190558
21
0.374306
31
0.0
0
LINE
8
0
6
CONTINUOUS
10
-0.192573
20
0.372534
30
0.0
11
-0.192454
21
0.373755
31
0.0
0
LINE
8
0
6
CONTINUOUS
10
-0.192573
20
0.373662
30
0.0
11
-0.192573
21
0.372534
31
0.0
0
LINE
8
0
6
CONTINUOUS
10
-0.198610
20
0.376397
30
0.0
11
-0.196714
21
0.376949
31
0.0
0
LINE
8
0
6
CONTINUOUS
10
-0.198729
20
0.375176
30
0.0
11
-0.198610
21
0.376397
31
0.0
0
LINE
8
0
6
CONTINUOUS
10
-0.198729
20
0.376186
30
0.0
11
-0.198729
21
0.375176
31
0.0
0
LINE
8
0
6
CONTINUOUS
10
-0.204766
20
0.379259
30
0.0
11
-0.202870
21
0.379810
31
0.0
0
LINE
8
0
6
CONTINUOUS
10
-0.202870
20
0.379810
30
0.0
11
-0.201093
21
0.379141
31
0.0
0
LINE
8
0
6
CONTINUOUS
10
-0.204885
20
0.378038
30
0.0
11
-0.204766
21
0.379259
31
0.0
0
LINE
8
0
6
CONTINUOUS
10
-0.204885
20
0.379248
30
0.0
11
-0.204885
21
0.378038
31
0.0
0
LINE
8
0
6
CONTINUOUS
10
-0.210922
20
0.382188
30
0.0
11
-0.209026
21
0.382739
31
0.0
0
LINE
8
0
6
CONTINUOUS
10
-0.209026
20
0.382739
30
0.0
11
-0.207249
21
0.382070
31
0.0
0
LINE
8
0
6
CONTINUOUS
10
-0.211041
20
0.380967
30
0.0
11
-0.210922
21
0.382188
31
0.0
0
LINE
8
0
6
CONTINUOUS
10
-0.211041
20
0.382193
30
0.0
11
-0.211041
21
0.380967
31
0.0
0
LINE
8
0
6
CONTINUOUS
10
-0.180388
20
0.376999
30
0.0
11
-0.178333
21
0.377308
31
0.0
0
LINE
8
0
6
CONTINUOUS
10
-0.180951
20
0.375820
30
0.0
11
-0.180388
21
0.376999
31
0.0
0
LINE
8
0
6
CONTINUOUS
10
-0.180951
20
0.376616
30
0.0
11
-0.180951
21
0.375820
31
0.0
0
LINE
8
0
6
CONTINUOUS
10
-0.184293
20
0.379980
30
0.0
11
-0.182801
21
0.379110
31
0.0
0
LINE
8
0
6
CONTINUOUS
10
-0.192308
20
0.382575
30
0.0
11
-0.190253
21
0.382884
31
0.0
0
LINE
8
0
6
CONTINUOUS
10
-0.190253
20
0.382884
30
0.0
11
-0.188761
21
0.382014
31
0.0
0
LINE
8
0
6
CONTINUOUS
10
-0.192871
20
0.381396
30
0.0
11
-0.192308
21
0.382575
31
0.0
0
LINE
8
0
6
CONTINUOUS
10
-0.192871
20
0.382380
30
0.0
11
-0.192871
21
0.381396
31
0.0
0
LINE
8
0
6
CONTINUOUS
10
-0.198268
20
0.385502
30
0.0
11
-0.196213
21
0.385811
31
0.0
0
LINE
8
0
6
CONTINUOUS
10
-0.196213
20
0.385811
30
0.0
11
-0.194721
21
0.384941
31
0.0
0
LINE
8
0
6
CONTINUOUS
10
-0.198831
20
0.384323
30
0.0
11
-0.198268
21
0.385502
31
0.0
0
LINE
8
0
6
CONTINUOUS
10
-0.198831
20
0.385383
30
0.0
11
-0.198831
21
0.384323
31
0.0
0
LINE
8
0
6
CONTINUOUS
10
-0.204228
20
0.388945
30
0.0
11
-0.202173
21
0.389254
31
0.0
0
LINE
8
0
6
CONTINUOUS
10
-0.202173
20
0.389254
30
0.0
11
-0.200681
21
0.388384
31
0.0
0
LINE
8
0
6
CONTINUOUS
10
-0.204791
20
0.387766
30
0.0
11
-0.204228
21
0.388945
31
0.0
0
LINE
8
0
6
CONTINUOUS
10
-0.204791
20
0.388848
30
0.0
11
-0.204791
21
0.387766
31
0.0
0
LINE
8
0
6
CONTINUOUS
10
-0.174693
20
0.382337
30
0.0
11
-0.172571
21
0.382390
31
0.0
0
LINE
8
0
6
CONTINUOUS
10
-0.172571
20
0.382390
30
0.0
11
-0.171430
21
0.381358
31
0.0
0
LINE
8
0
6
CONTINUOUS
10
-0.175674
20
0.381252
30
0.0
11
-0.175147
21
0.381835
31
0.0
0
LINE
8
0
6
CONTINUOUS
10
-0.175147
20
0.381835
30
0.0
11
-0.174693
21
0.382337
31
0.0
0
LINE
8
0
6
CONTINUOUS
10
-0.187383
20
0.389416
30
0.0
11
-0.185261
21
0.389469
31
0.0
0
LINE
8
0
6
CONTINUOUS
10
-0.185261
20
0.389469
30
0.0
11
-0.184121
21
0.388438
31
0.0
0
LINE
8
0
6
CONTINUOUS
10
-0.188365
20
0.388332
30
0.0
11
-0.187383
21
0.389416
31
0.0
0
LINE
8
0
6
CONTINUOUS
10
-0.188365
20
0.389263
30
0.0
11
-0.188365
21
0.388332
31
0.0
0
LINE
8
0
6
CONTINUOUS
10
-0.193729
20
0.393500
30
0.0
11
-0.191606
21
0.393553
31
0.0
0
LINE
8
0
6
CONTINUOUS
10
-0.191606
20
0.393553
30
0.0
11
-0.190466
21
0.392521
31
0.0
0
LINE
8
0
6
CONTINUOUS
10
-0.194710
20
0.392415
30
0.0
11
-0.193729
21
0.393500
31
0.0
0
LINE
8
0
6
CONTINUOUS
10
-0.194710
20
0.393337
30
0.0
11
-0.194710
21
0.392415
31
0.0
0
LINE
8
0
6
CONTINUOUS
10
-0.174290
20
0.391912
30
0.0
11
-0.172196
21
0.391706
31
0.0
0
LINE
8
0
6
CONTINUOUS
10
-0.172196
20
0.391706
30
0.0
11
-0.171458
21
0.390559
31
0.0
0
LINE
8
0
6
CONTINUOUS
10
-0.175646
20
0.390971
30
0.0
11
-0.174290
21
0.391912
31
0.0
0
LINE
8
0
6
CONTINUOUS
10
-0.175646
20
0.391771
30
0.0
11
-0.175646
21
0.390971
31
0.0
0
LINE
8
0
6
CONTINUOUS
10
-0.190738
20
0.366167
30
0.0
11
-0.189115
21
0.366956
31
0.0
0
LINE
8
0
6
CONTINUOUS
10
-0.190738
20
0.367357
30
0.0
11
-0.190738
21
0.366167
31
0.0
0
LINE
8
0
6
CONTINUOUS
10
-0.187117
20
0.366541
30
0.0
11
-0.186741
21
0.365338
31
0.0
0
LINE
8
0
6
CONTINUOUS
10
-0.198125
20
0.368750
30
0.0
11
-0.196502
21
0.369539
31
0.0
0
LINE
8
0
6
CONTINUOUS
10
-0.198125
20
0.369895
30
0.0
11
-0.198125
21
0.368750
31
0.0
0
LINE
8
0
6
CONTINUOUS
10
-0.196502
20
0.369539
30
0.0
11
-0.194504
21
0.369124
31
0.0
0
LINE
8
0
6
CONTINUOUS
10
-0.205512
20
0.371465
30
0.0
11
-0.203890
21
0.372254
31
0.0
0
LINE
8
0
6
CONTINUOUS
10
-0.205512
20
0.372742
30
0.0
11
-0.205512
21
0.371465
31
0.0
0
LINE
8
0
6
CONTINUOUS
10
-0.203890
20
0.372254
30
0.0
11
-0.201891
21
0.371839
31
0.0
0
LINE
8
0
6
CONTINUOUS
10
-0.201891
20
0.371839
30
0.0
11
-0.201516
21
0.370635
31
0.0
0
LINE
8
0
6
CONTINUOUS
10
-0.212900
20
0.374319
30
0.0
11
-0.211277
21
0.375109
31
0.0
0
LINE
8
0
6
CONTINUOUS
10
-0.212900
20
0.375686
30
0.0
11
-0.212900
21
0.374319
31
0.0
0
LINE
8
0
6
CONTINUOUS
10
-0.211277
20
0.375109
30
0.0
11
-0.209279
21
0.374694
31
0.0
0
LINE
8
0
6
CONTINUOUS
10
-0.209279
20
0.374694
30
0.0
11
-0.208903
21
0.373490
31
0.0
0
LINE
8
0
6
CONTINUOUS
10
-0.195519
20
0.351839
30
0.0
11
-0.193896
21
0.352628
31
0.0
0
LINE
8
0
6
CONTINUOUS
10
-0.195519
20
0.352735
30
0.0
11
-0.195519
21
0.351839
31
0.0
0
LINE
8
0
6
CONTINUOUS
10
-0.193896
20
0.352628
30
0.0
11
-0.191898
21
0.352214
31
0.0
0
LINE
8
0
6
CONTINUOUS
10
-0.194323
20
0.354904
30
0.0
11
-0.192701
21
0.355693
31
0.0
0
LINE
8
0
6
CONTINUOUS
10
-0.194323
20
0.356185
30
0.0
11
-0.194323
21
0.354904
31
0.0
0
LINE
8
0
6
CONTINUOUS
10
-0.192701
20
0.355693
30
0.0
11
-0.190702
21
0.355279
31
0.0
0
LINE
8
0
6
CONTINUOUS
10
-0.190702
20
0.355279
30
0.0
11
-0.190327
21
0.354075
31
0.0
0
LINE
8
0
6
CONTINUOUS
10
-0.193128
20
0.358532
30
0.0
11
-0.191506
21
0.359321
31
0.0
0
LINE
8
0
6
CONTINUOUS
10
-0.193128
20
0.359746
30
0.0
11
-0.193128
21
0.358532
31
0.0
0
LINE
8
0
6
CONTINUOUS
10
-0.191506
20
0.359321
30
0.0
11
-0.189507
21
0.358907
31
0.0
0
LINE
8
0
6
CONTINUOUS
10
-0.191933
20
0.362298
30
0.0
11
-0.190310
21
0.363088
31
0.0
0
LINE
8
0
6
CONTINUOUS
10
-0.191933
20
0.363461
30
0.0
11
-0.191933
21
0.362298
31
0.0
0
LINE
8
0
6
CONTINUOUS
10
-0.190310
20
0.363088
30
0.0
11
-0.188312
21
0.362673
31
0.0
0
LINE
8
0
6
CONTINUOUS
10
-0.188312
20
0.362673
30
0.0
11
-0.187936
21
0.361470
31
0.0
0
LINE
8
0
6
CONTINUOUS
10
-0.211006
20
0.365963
30
0.0
11
-0.210630
21
0.367167
31
0.0
0
LINE
8
0
6
CONTINUOUS
10
-0.211006
20
0.367354
30
0.0
11
-0.211006
21
0.365963
31
0.0
0
LINE
8
0
6
CONTINUOUS
10
-0.210630
20
0.367167
30
0.0
11
-0.208632
21
0.367581
31
0.0
0
LINE
8
0
6
CONTINUOUS
10
-0.207010
20
0.366792
30
0.0
11
-0.207010
21
0.367489
31
0.0
0
LINE
8
0
6
CONTINUOUS
10
-0.208632
20
0.367581
30
0.0
11
-0.207010
21
0.366792
31
0.0
0
LINE
8
0
6
CONTINUOUS
10
-0.203131
20
0.363429
30
0.0
11
-0.202756
21
0.364633
31
0.0
0
LINE
8
0
6
CONTINUOUS
10
-0.203131
20
0.364833
30
0.0
11
-0.203131
21
0.363429
31
0.0
0
LINE
8
0
6
CONTINUOUS
10
-0.202756
20
0.364633
30
0.0
11
-0.200757
21
0.365047
31
0.0
0
LINE
8
0
6
CONTINUOUS
10
-0.205100
20
0.359418
30
0.0
11
-0.204724
21
0.360622
31
0.0
0
LINE
8
0
6
CONTINUOUS
10
-0.205100
20
0.360825
30
0.0
11
-0.205100
21
0.359418
31
0.0
0
LINE
8
0
6
CONTINUOUS
10
-0.204724
20
0.360622
30
0.0
11
-0.202726
21
0.361036
31
0.0
0
LINE
8
0
6
CONTINUOUS
10
-0.201103
20
0.360247
30
0.0
11
-0.201103
21
0.360956
31
0.0
0
LINE
8
0
6
CONTINUOUS
10
-0.202726
20
0.361036
30
0.0
11
-0.201103
21
0.360247
31
0.0
0
LINE
8
0
6
CONTINUOUS
10
-0.205944
20
0.355903
30
0.0
11
-0.205568
21
0.357106
31
0.0
0
LINE
8
0
6
CONTINUOUS
10
-0.205944
20
0.357160
30
0.0
11
-0.205944
21
0.355903
31
0.0
0
LINE
8
0
6
CONTINUOUS
10
-0.205568
20
0.357106
30
0.0
11
-0.203570
21
0.357521
31
0.0
0
LINE
8
0
6
CONTINUOUS
10
-0.201947
20
0.356732
30
0.0
11
-0.201947
21
0.357276
31
0.0
0
LINE
8
0
6
CONTINUOUS
10
-0.203570
20
0.357521
30
0.0
11
-0.201947
21
0.356732
31
0.0
0
LINE
8
0
6
CONTINUOUS
10
-0.214803
20
0.362300
30
0.0
11
-0.214427
21
0.363504
31
0.0
0
LINE
8
0
6
CONTINUOUS
10
-0.214803
20
0.363310
30
0.0
11
-0.214803
21
0.362300
31
0.0
0
LINE
8
0
6
CONTINUOUS
10
-0.214427
20
0.363504
30
0.0
11
-0.212429
21
0.363918
31
0.0
0
LINE
8
0
6
CONTINUOUS
10
-0.181129
20
0.365225
30
0.0
11
-0.179506
21
0.366015
31
0.0
0
LINE
8
0
6
CONTINUOUS
10
-0.181129
20
0.366137
30
0.0
11
-0.181129
21
0.365225
31
0.0
0
LINE
8
0
6
CONTINUOUS
10
-0.179506
20
0.366015
30
0.0
11
-0.177508
21
0.365600
31
0.0
0
LINE
8
0
6
CONTINUOUS
10
-0.177508
20
0.365600
30
0.0
11
-0.177132
21
0.364396
31
0.0
0
LINE
8
0
6
CONTINUOUS
10
-0.182444
20
0.351732
30
0.0
11
-0.180821
21
0.352521
31
0.0
0
LINE
8
0
6
CONTINUOUS
10
-0.182444
20
0.352606
30
0.0
11
-0.182444
21
0.351732
31
0.0
0
LINE
8
0
6
CONTINUOUS
10
-0.182115
20
0.354820
30
0.0
11
-0.180492
21
0.355610
31
0.0
0
LINE
8
0
6
CONTINUOUS
10
-0.182115
20
0.355825
30
0.0
11
-0.182115
21
0.354820
31
0.0
0
LINE
8
0
6
CONTINUOUS
10
-0.181786
20
0.358255
30
0.0
11
-0.180163
21
0.359044
31
0.0
0
LINE
8
0
6
CONTINUOUS
10
-0.181786
20
0.359215
30
0.0
11
-0.181786
21
0.358255
31
0.0
0
LINE
8
0
6
CONTINUOUS
10
-0.180163
20
0.359044
30
0.0
11
-0.178165
21
0.358630
31
0.0
0
LINE
8
0
6
CONTINUOUS
10
-0.178165
20
0.358630
30
0.0
11
-0.177789
21
0.357426
31
0.0
0
LINE
8
0
6
CONTINUOUS
10
-0.181457
20
0.361749
30
0.0
11
-0.179835
21
0.362538
31
0.0
0
LINE
8
0
6
CONTINUOUS
10
-0.181457
20
0.362663
30
0.0
11
-0.181457
21
0.361749
31
0.0
0
LINE
8
0
6
CONTINUOUS
10
-0.179835
20
0.362538
30
0.0
11
-0.177836
21
0.362124
31
0.0
0
LINE
8
0
6
CONTINUOUS
10
-0.177836
20
0.362124
30
0.0
11
-0.177461
21
0.360920
31
0.0
0
LINE
8
0
6
CONTINUOUS
10
-0.165647
20
0.361730
30
0.0
11
-0.165647
21
0.362607
31
0.0
0
LINE
8
0
6
CONTINUOUS
10
-0.167270
20
0.362519
30
0.0
11
-0.165647
21
0.361730
31
0.0
0
LINE
8
0
6
CONTINUOUS
10
-0.169268
20
0.362105
30
0.0
11
-0.167270
21
0.362519
31
0.0
0
LINE
8
0
6
CONTINUOUS
10
-0.169644
20
0.360901
30
0.0
11
-0.169268
21
0.362105
31
0.0
0
LINE
8
0
6
CONTINUOUS
10
-0.169644
20
0.361741
30
0.0
11
-0.169644
21
0.360901
31
0.0
0
LINE
8
0
6
CONTINUOUS
10
-0.165318
20
0.358247
30
0.0
11
-0.165318
21
0.359158
31
0.0
0
LINE
8
0
6
CONTINUOUS
10
-0.166941
20
0.359036
30
0.0
11
-0.165318
21
0.358247
31
0.0
0
LINE
8
0
6
CONTINUOUS
10
-0.168939
20
0.358621
30
0.0
11
-0.166941
21
0.359036
31
0.0
0
LINE
8
0
6
CONTINUOUS
10
-0.169315
20
0.357418
30
0.0
11
-0.168939
21
0.358621
31
0.0
0
LINE
8
0
6
CONTINUOUS
10
-0.169315
20
0.358300
30
0.0
11
-0.169315
21
0.357418
31
0.0
0
LINE
8
0
6
CONTINUOUS
10
-0.164990
20
0.354839
30
0.0
11
-0.164990
21
0.355772
31
0.0
0
LINE
8
0
6
CONTINUOUS
10
-0.166612
20
0.355628
30
0.0
11
-0.164990
21
0.354839
31
0.0
0
LINE
8
0
6
CONTINUOUS
10
-0.168611
20
0.355213
30
0.0
11
-0.166612
21
0.355628
31
0.0
0
LINE
8
0
6
CONTINUOUS
10
-0.168986
20
0.354010
30
0.0
11
-0.168611
21
0.355213
31
0.0
0
LINE
8
0
6
CONTINUOUS
10
-0.168986
20
0.354942
30
0.0
11
-0.168986
21
0.354010
31
0.0
0
LINE
8
0
6
CONTINUOUS
10
-0.164661
20
0.351618
30
0.0
11
-0.164661
21
0.352490
31
0.0
0
LINE
8
0
6
CONTINUOUS
10
-0.166283
20
0.352407
30
0.0
11
-0.164661
21
0.351618
31
0.0
0
LINE
8
0
6
CONTINUOUS
10
-0.168282
20
0.351992
30
0.0
11
-0.166283
21
0.352407
31
0.0
0
LINE
8
0
6
CONTINUOUS
10
-0.168658
20
0.350789
30
0.0
11
-0.168282
21
0.351992
31
0.0
0
LINE
8
0
6
CONTINUOUS
10
-0.168658
20
0.351746
30
0.0
11
-0.168658
21
0.350789
31
0.0
0
LINE
8
0
6
CONTINUOUS
10
-0.165976
20
0.365207
30
0.0
11
-0.165976
21
0.366074
31
0.0
0
LINE
8
0
6
CONTINUOUS
10
-0.167598
20
0.365997
30
0.0
11
-0.165976
21
0.365207
31
0.0
0
LINE
8
0
6
CONTINUOUS
10
-0.169597
20
0.365582
30
0.0
11
-0.167598
21
0.365997
31
0.0
0
LINE
8
0
6
CONTINUOUS
10
-0.132677
20
0.363379
30
0.0
11
-0.132301
21
0.362175
31
0.0
0
LINE
8
0
6
CONTINUOUS
10
-0.134675
20
0.363793
30
0.0
11
-0.132677
21
0.363379
31
0.0
0
LINE
8
0
6
CONTINUOUS
10
-0.136298
20
0.363004
30
0.0
11
-0.134675
21
0.363793
31
0.0
0
LINE
8
0
6
CONTINUOUS
10
-0.136298
20
0.363134
30
0.0
11
-0.136298
21
0.363004
31
0.0
0
LINE
8
0
6
CONTINUOUS
10
-0.141536
20
0.356935
30
0.0
11
-0.141161
21
0.355731
31
0.0
0
LINE
8
0
6
CONTINUOUS
10
-0.144378
20
0.360988
30
0.0
11
-0.142380
21
0.360573
31
0.0
0
LINE
8
0
6
CONTINUOUS
10
-0.146001
20
0.360198
30
0.0
11
-0.144378
21
0.360988
31
0.0
0
LINE
8
0
6
CONTINUOUS
10
-0.146001
20
0.360734
30
0.0
11
-0.146001
21
0.360198
31
0.0
0
LINE
8
0
6
CONTINUOUS
10
-0.144349
20
0.364560
30
0.0
11
-0.143973
21
0.363356
31
0.0
0
LINE
8
0
6
CONTINUOUS
10
-0.146347
20
0.364974
30
0.0
11
-0.144349
21
0.364560
31
0.0
0
LINE
8
0
6
CONTINUOUS
10
-0.136474
20
0.367062
30
0.0
11
-0.136098
21
0.365858
31
0.0
0
LINE
8
0
6
CONTINUOUS
10
-0.138472
20
0.367476
30
0.0
11
-0.136474
21
0.367062
31
0.0
0
LINE
8
0
6
CONTINUOUS
10
-0.140095
20
0.366687
30
0.0
11
-0.138472
21
0.367476
31
0.0
0
LINE
8
0
6
CONTINUOUS
10
-0.140095
20
0.367232
30
0.0
11
-0.140095
21
0.366687
31
0.0
0
LINE
8
0
6
CONTINUOUS
10
-0.159168
20
0.361419
30
0.0
11
-0.158792
21
0.362623
31
0.0
0
LINE
8
0
6
CONTINUOUS
10
-0.159168
20
0.362179
30
0.0
11
-0.159168
21
0.361419
31
0.0
0
LINE
8
0
6
CONTINUOUS
10
-0.153976
20
0.358543
30
0.0
11
-0.153976
21
0.359589
31
0.0
0
LINE
8
0
6
CONTINUOUS
10
-0.155599
20
0.359332
30
0.0
11
-0.153976
21
0.358543
31
0.0
0
LINE
8
0
6
CONTINUOUS
10
-0.157597
20
0.358917
30
0.0
11
-0.155599
21
0.359332
31
0.0
0
LINE
8
0
6
CONTINUOUS
10
-0.157973
20
0.357714
30
0.0
11
-0.157597
21
0.358917
31
0.0
0
LINE
8
0
6
CONTINUOUS
10
-0.157973
20
0.358498
30
0.0
11
-0.157973
21
0.357714
31
0.0
0
LINE
8
0
6
CONTINUOUS
10
-0.151586
20
0.351403
30
0.0
11
-0.151586
21
0.352549
31
0.0
0
LINE
8
0
6
CONTINUOUS
10
-0.153208
20
0.352192
30
0.0
11
-0.151586
21
0.351403
31
0.0
0
LINE
8
0
6
CONTINUOUS
10
-0.155207
20
0.351777
30
0.0
11
-0.153208
21
0.352192
31
0.0
0
LINE
8
0
6
CONTINUOUS
10
-0.155582
20
0.350574
30
0.0
11
-0.155207
21
0.351777
31
0.0
0
LINE
8
0
6
CONTINUOUS
10
-0.155582
20
0.351378
30
0.0
11
-0.155582
21
0.350574
31
0.0
0
LINE
8
0
6
CONTINUOUS
10
-0.134205
20
0.374206
30
0.0
11
-0.134205
21
0.375411
31
0.0
0
LINE
8
0
6
CONTINUOUS
10
-0.135827
20
0.374995
30
0.0
11
-0.134205
21
0.374206
31
0.0
0
LINE
8
0
6
CONTINUOUS
10
-0.137826
20
0.374581
30
0.0
11
-0.135827
21
0.374995
31
0.0
0
LINE
8
0
6
CONTINUOUS
10
-0.138201
20
0.373377
30
0.0
11
-0.137826
21
0.374581
31
0.0
0
LINE
8
0
6
CONTINUOUS
10
-0.138201
20
0.373924
30
0.0
11
-0.138201
21
0.373377
31
0.0
0
LINE
8
0
6
CONTINUOUS
10
-0.145213
20
0.371744
30
0.0
11
-0.143215
21
0.372158
31
0.0
0
LINE
8
0
6
CONTINUOUS
10
-0.145589
20
0.370540
30
0.0
11
-0.145213
21
0.371744
31
0.0
0
LINE
8
0
6
CONTINUOUS
10
-0.145589
20
0.371057
30
0.0
11
-0.145589
21
0.370540
31
0.0
0
LINE
8
0
6
CONTINUOUS
10
-0.152600
20
0.369057
30
0.0
11
-0.150602
21
0.369471
31
0.0
0
LINE
8
0
6
CONTINUOUS
10
-0.152976
20
0.367853
30
0.0
11
-0.152600
21
0.369057
31
0.0
0
LINE
8
0
6
CONTINUOUS
10
-0.152976
20
0.368513
30
0.0
11
-0.152976
21
0.367853
31
0.0
0
LINE
8
0
6
CONTINUOUS
10
-0.156367
20
0.366116
30
0.0
11
-0.156367
21
0.367177
31
0.0
0
LINE
8
0
6
CONTINUOUS
10
-0.157989
20
0.366905
30
0.0
11
-0.156367
21
0.366116
31
0.0
0
LINE
8
0
6
CONTINUOUS
10
-0.159988
20
0.366491
30
0.0
11
-0.157989
21
0.366905
31
0.0
0
LINE
8
0
6
CONTINUOUS
10
-0.160363
20
0.365287
30
0.0
11
-0.159988
21
0.366491
31
0.0
0
LINE
8
0
6
CONTINUOUS
10
-0.160363
20
0.365961
30
0.0
11
-0.160363
21
0.365287
31
0.0
0
LINE
8
0
6
CONTINUOUS
10
-0.152394
20
0.392360
30
0.0
11
-0.152394
21
0.393206
31
0.0
0
LINE
8
0
6
CONTINUOUS
10
-0.153376
20
0.393445
30
0.0
11
-0.152394
21
0.392360
31
0.0
0
LINE
8
0
6
CONTINUOUS
10
-0.162984
20
0.388406
30
0.0
11
-0.161843
21
0.389437
31
0.0
0
LINE
8
0
6
CONTINUOUS
10
-0.162984
20
0.389035
30
0.0
11
-0.162984
21
0.388406
31
0.0
0
LINE
8
0
6
CONTINUOUS
10
-0.169329
20
0.384751
30
0.0
11
-0.168188
21
0.385783
31
0.0
0
LINE
8
0
6
CONTINUOUS
10
-0.169329
20
0.385384
30
0.0
11
-0.169329
21
0.384751
31
0.0
0
LINE
8
0
6
CONTINUOUS
10
-0.146424
20
0.388285
30
0.0
11
-0.144931
21
0.389155
31
0.0
0
LINE
8
0
6
CONTINUOUS
10
-0.146424
20
0.388717
30
0.0
11
-0.146424
21
0.388285
31
0.0
0
LINE
8
0
6
CONTINUOUS
10
-0.142313
20
0.387667
30
0.0
11
-0.142313
21
0.388649
31
0.0
0
LINE
8
0
6
CONTINUOUS
10
-0.142876
20
0.388846
30
0.0
11
-0.142313
21
0.387667
31
0.0
0
LINE
8
0
6
CONTINUOUS
10
-0.150891
20
0.385742
30
0.0
11
-0.148836
21
0.385433
31
0.0
0
LINE
8
0
6
CONTINUOUS
10
-0.152384
20
0.384871
30
0.0
11
-0.150891
21
0.385742
31
0.0
0
LINE
8
0
6
CONTINUOUS
10
-0.152384
20
0.385492
30
0.0
11
-0.152384
21
0.384871
31
0.0
0
LINE
8
0
6
CONTINUOUS
10
-0.148273
20
0.384253
30
0.0
11
-0.148273
21
0.385209
31
0.0
0
LINE
8
0
6
CONTINUOUS
10
-0.148836
20
0.385433
30
0.0
11
-0.148273
21
0.384253
31
0.0
0
LINE
8
0
6
CONTINUOUS
10
-0.156851
20
0.382825
30
0.0
11
-0.154796
21
0.382516
31
0.0
0
LINE
8
0
6
CONTINUOUS
10
-0.158344
20
0.381954
30
0.0
11
-0.156851
21
0.382825
31
0.0
0
LINE
8
0
6
CONTINUOUS
10
-0.158344
20
0.382464
30
0.0
11
-0.158344
21
0.381954
31
0.0
0
LINE
8
0
6
CONTINUOUS
10
-0.154233
20
0.381336
30
0.0
11
-0.154233
21
0.382213
31
0.0
0
LINE
8
0
6
CONTINUOUS
10
-0.154796
20
0.382516
30
0.0
11
-0.154233
21
0.381336
31
0.0
0
LINE
8
0
6
CONTINUOUS
10
-0.162811
20
0.379950
30
0.0
11
-0.160756
21
0.379641
31
0.0
0
LINE
8
0
6
CONTINUOUS
10
-0.164304
20
0.379080
30
0.0
11
-0.162811
21
0.379950
31
0.0
0
LINE
8
0
6
CONTINUOUS
10
-0.164304
20
0.379771
30
0.0
11
-0.164304
21
0.379080
31
0.0
0
LINE
8
0
6
CONTINUOUS
10
-0.160193
20
0.378462
30
0.0
11
-0.160193
21
0.379209
31
0.0
0
LINE
8
0
6
CONTINUOUS
10
-0.160756
20
0.379641
30
0.0
11
-0.160193
21
0.378462
31
0.0
0
LINE
8
0
6
CONTINUOUS
10
-0.168771
20
0.377290
30
0.0
11
-0.166716
21
0.376981
31
0.0
0
LINE
8
0
6
CONTINUOUS
10
-0.170264
20
0.376420
30
0.0
11
-0.168771
21
0.377290
31
0.0
0
LINE
8
0
6
CONTINUOUS
10
-0.170264
20
0.377115
30
0.0
11
-0.170264
21
0.376420
31
0.0
0
LINE
8
0
6
CONTINUOUS
10
-0.166153
20
0.375802
30
0.0
11
-0.166153
21
0.376561
31
0.0
0
LINE
8
0
6
CONTINUOUS
10
-0.166716
20
0.376981
30
0.0
11
-0.166153
21
0.375802
31
0.0
0
LINE
8
0
6
CONTINUOUS
10
-0.138078
20
0.382634
30
0.0
11
-0.136182
21
0.382083
31
0.0
0
LINE
8
0
6
CONTINUOUS
10
-0.139855
20
0.381964
30
0.0
11
-0.138078
21
0.382634
31
0.0
0
LINE
8
0
6
CONTINUOUS
10
-0.139855
20
0.382608
30
0.0
11
-0.139855
21
0.381964
31
0.0
0
LINE
8
0
6
CONTINUOUS
10
-0.144234
20
0.379713
30
0.0
11
-0.142338
21
0.379162
31
0.0
0
LINE
8
0
6
CONTINUOUS
10
-0.146011
20
0.379043
30
0.0
11
-0.144234
21
0.379713
31
0.0
0
LINE
8
0
6
CONTINUOUS
10
-0.146011
20
0.379543
30
0.0
11
-0.146011
21
0.379043
31
0.0
0
LINE
8
0
6
CONTINUOUS
10
-0.142219
20
0.377941
30
0.0
11
-0.142219
21
0.379006
31
0.0
0
LINE
8
0
6
CONTINUOUS
10
-0.142338
20
0.379162
30
0.0
11
-0.142219
21
0.377941
31
0.0
0
LINE
8
0
6
CONTINUOUS
10
-0.150390
20
0.376878
30
0.0
11
-0.148494
21
0.376326
31
0.0
0
LINE
8
0
6
CONTINUOUS
10
-0.152168
20
0.376208
30
0.0
11
-0.150390
21
0.376878
31
0.0
0
LINE
8
0
6
CONTINUOUS
10
-0.152168
20
0.376810
30
0.0
11
-0.152168
21
0.376208
31
0.0
0
LINE
8
0
6
CONTINUOUS
10
-0.148375
20
0.375105
30
0.0
11
-0.148375
21
0.376016
31
0.0
0
LINE
8
0
6
CONTINUOUS
10
-0.148494
20
0.376326
30
0.0
11
-0.148375
21
0.375105
31
0.0
0
LINE
8
0
6
CONTINUOUS
10
-0.156546
20
0.374251
30
0.0
11
-0.154650
21
0.373700
31
0.0
0
LINE
8
0
6
CONTINUOUS
10
-0.158324
20
0.373581
30
0.0
11
-0.156546
21
0.374251
31
0.0
0
LINE
8
0
6
CONTINUOUS
10
-0.158324
20
0.374177
30
0.0
11
-0.158324
21
0.373581
31
0.0
0
LINE
8
0
6
CONTINUOUS
10
-0.154532
20
0.372479
30
0.0
11
-0.154532
21
0.373503
31
0.0
0
LINE
8
0
6
CONTINUOUS
10
-0.154650
20
0.373700
30
0.0
11
-0.154532
21
0.372479
31
0.0
0
LINE
8
0
6
CONTINUOUS
10
-0.162703
20
0.371987
30
0.0
11
-0.160807
21
0.371436
31
0.0
0
LINE
8
0
6
CONTINUOUS
10
-0.164480
20
0.371317
30
0.0
11
-0.162703
21
0.371987
31
0.0
0
LINE
8
0
6
CONTINUOUS
10
-0.164480
20
0.372051
30
0.0
11
-0.164480
21
0.371317
31
0.0
0
LINE
8
0
6
CONTINUOUS
10
-0.160688
20
0.370215
30
0.0
11
-0.160688
21
0.371086
31
0.0
0
LINE
8
0
6
CONTINUOUS
10
-0.160807
20
0.371436
30
0.0
11
-0.160688
21
0.370215
31
0.0
0
LINE
8
0
6
CONTINUOUS
10
-0.126817
20
0.377761
30
0.0
11
-0.126817
21
0.378725
31
0.0
0
LINE
8
0
6
CONTINUOUS
10
-0.128440
20
0.378550
30
0.0
11
-0.126817
21
0.377761
31
0.0
0
LINE
8
0
6
CONTINUOUS
10
-0.130438
20
0.378135
30
0.0
11
-0.128440
21
0.378550
31
0.0
0
LINE
8
0
6
CONTINUOUS
10
-0.130814
20
0.376932
30
0.0
11
-0.130438
21
0.378135
31
0.0
0
LINE
8
0
6
CONTINUOUS
10
-0.130814
20
0.377057
30
0.0
11
-0.130814
21
0.376932
31
0.0
0
LINE
8
0
6
CONTINUOUS
10
-0.162128
20
0.400455
30
0.0
11
-0.160034
21
0.400661
31
0.0
0
LINE
8
0
6
CONTINUOUS
10
-0.162865
20
0.399308
30
0.0
11
-0.162128
21
0.400455
31
0.0
0
LINE
8
0
6
CONTINUOUS
10
-0.162865
20
0.399721
30
0.0
11
-0.162865
21
0.399308
31
0.0
0
LINE
8
0
6
CONTINUOUS
10
-0.158677
20
0.399719
30
0.0
11
-0.158677
21
0.400429
31
0.0
0
LINE
8
0
6
CONTINUOUS
10
-0.160034
20
0.400661
30
0.0
11
-0.158677
21
0.399719
31
0.0
0
LINE
8
0
6
CONTINUOUS
10
-0.149153
20
0.397506
30
0.0
11
-0.147031
21
0.397453
31
0.0
0
LINE
8
0
6
CONTINUOUS
10
-0.150293
20
0.396474
30
0.0
11
-0.149153
21
0.397506
31
0.0
0
LINE
8
0
6
CONTINUOUS
10
-0.150293
20
0.396876
30
0.0
11
-0.150293
21
0.396474
31
0.0
0
LINE
8
0
6
CONTINUOUS
10
-0.146049
20
0.396369
30
0.0
11
-0.146049
21
0.397061
31
0.0
0
LINE
8
0
6
CONTINUOUS
10
-0.147031
20
0.397453
30
0.0
11
-0.146049
21
0.396369
31
0.0
0
LINE
8
0
6
CONTINUOUS
10
-0.138971
20
0.392411
30
0.0
11
-0.136916
21
0.392102
31
0.0
0
LINE
8
0
6
CONTINUOUS
10
-0.140464
20
0.391541
30
0.0
11
-0.138971
21
0.392411
31
0.0
0
LINE
8
0
6
CONTINUOUS
10
-0.140464
20
0.392155
30
0.0
11
-0.140464
21
0.391541
31
0.0
0
LINE
8
0
6
CONTINUOUS
10
-0.136353
20
0.390923
30
0.0
11
-0.136353
21
0.391854
31
0.0
0
LINE
8
0
6
CONTINUOUS
10
-0.136916
20
0.392102
30
0.0
11
-0.136353
21
0.390923
31
0.0
0
LINE
8
0
6
CONTINUOUS
10
-0.131922
20
0.385990
30
0.0
11
-0.130026
21
0.385439
31
0.0
0
LINE
8
0
6
CONTINUOUS
10
-0.133699
20
0.385320
30
0.0
11
-0.131922
21
0.385990
31
0.0
0
LINE
8
0
6
CONTINUOUS
10
-0.133699
20
0.385594
30
0.0
11
-0.133699
21
0.385320
31
0.0
0
LINE
8
0
6
CONTINUOUS
10
-0.128037
20
0.370495
30
0.0
11
-0.127661
21
0.369291
31
0.0
0
LINE
8
0
6
CONTINUOUS
10
-0.130035
20
0.370909
30
0.0
11
-0.128037
21
0.370495
31
0.0
0
LINE
8
0
6
CONTINUOUS
10
-0.219068
20
0.370632
30
0.0
11
-0.217069
21
0.371046
31
0.0
0
LINE
8
0
6
CONTINUOUS
10
-0.208133
20
0.392509
30
0.0
11
-0.206641
21
0.391639
31
0.0
0
LINE
8
0
6
CONTINUOUS
10
-0.175074
20
0.402020
30
0.0
11
-0.173001
21
0.402287
31
0.0
0
LINE
8
0
6
CONTINUOUS
10
-0.201055
20
0.396443
30
0.0
11
-0.200074
21
0.397527
31
0.0
0
LINE
8
0
6
CONTINUOUS
10
-0.201055
20
0.397213
30
0.0
11
-0.201055
21
0.396443
31
0.0
0
LINE
8
0
6
CONTINUOUS
10
-0.218665
20
0.378693
30
0.0
11
-0.216666
21
0.378279
31
0.0
0
LINE
8
0
6
CONTINUOUS
10
-0.190558
20
0.374306
30
0.0
11
-0.188781
21
0.373637
31
0.0
0
LINE
8
0
6
CONTINUOUS
10
-0.196714
20
0.376949
30
0.0
11
-0.194937
21
0.376279
31
0.0
0
LINE
8
0
6
CONTINUOUS
10
-0.178333
20
0.377308
30
0.0
11
-0.176841
21
0.376438
31
0.0
0
LINE
8
0
6
CONTINUOUS
10
-0.186348
20
0.379671
30
0.0
11
-0.184293
21
0.379980
31
0.0
0
LINE
8
0
6
CONTINUOUS
10
-0.186911
20
0.378492
30
0.0
11
-0.186348
21
0.379671
31
0.0
0
LINE
8
0
6
CONTINUOUS
10
-0.186911
20
0.379300
30
0.0
11
-0.186911
21
0.378492
31
0.0
0
LINE
8
0
6
CONTINUOUS
10
-0.181038
20
0.385749
30
0.0
11
-0.178916
21
0.385802
31
0.0
0
LINE
8
0
6
CONTINUOUS
10
-0.178916
20
0.385802
30
0.0
11
-0.177775
21
0.384770
31
0.0
0
LINE
8
0
6
CONTINUOUS
10
-0.182020
20
0.384665
30
0.0
11
-0.181038
21
0.385749
31
0.0
0
LINE
8
0
6
CONTINUOUS
10
-0.182020
20
0.385443
30
0.0
11
-0.182020
21
0.384665
31
0.0
0
LINE
8
0
6
CONTINUOUS
10
-0.180680
20
0.396191
30
0.0
11
-0.178586
21
0.395986
31
0.0
0
LINE
8
0
6
CONTINUOUS
10
-0.178586
20
0.395986
30
0.0
11
-0.177849
21
0.394839
31
0.0
0
LINE
8
0
6
CONTINUOUS
10
-0.182036
20
0.395250
30
0.0
11
-0.180680
21
0.396191
31
0.0
0
LINE
8
0
6
CONTINUOUS
10
-0.182036
20
0.396047
30
0.0
11
-0.182036
21
0.395250
31
0.0
0
LINE
8
0
6
CONTINUOUS
10
-0.189115
20
0.366956
30
0.0
11
-0.187117
21
0.366541
31
0.0
0
LINE
8
0
6
CONTINUOUS
10
-0.194504
20
0.369124
30
0.0
11
-0.194128
21
0.367920
31
0.0
0
LINE
8
0
6
CONTINUOUS
10
-0.191898
20
0.352214
30
0.0
11
-0.191522
21
0.351010
31
0.0
0
LINE
8
0
6
CONTINUOUS
10
-0.189507
20
0.358907
30
0.0
11
-0.189131
21
0.357703
31
0.0
0
LINE
8
0
6
CONTINUOUS
10
-0.199135
20
0.364258
30
0.0
11
-0.199135
21
0.364950
31
0.0
0
LINE
8
0
6
CONTINUOUS
10
-0.200757
20
0.365047
30
0.0
11
-0.199135
21
0.364258
31
0.0
0
LINE
8
0
6
CONTINUOUS
10
-0.210806
20
0.363129
30
0.0
11
-0.210806
21
0.363382
31
0.0
0
LINE
8
0
6
CONTINUOUS
10
-0.212429
20
0.363918
30
0.0
11
-0.210806
21
0.363129
31
0.0
0
LINE
8
0
6
CONTINUOUS
10
-0.180821
20
0.352521
30
0.0
11
-0.178823
21
0.352106
31
0.0
0
LINE
8
0
6
CONTINUOUS
10
-0.178823
20
0.352106
30
0.0
11
-0.178447
21
0.350903
31
0.0
0
LINE
8
0
6
CONTINUOUS
10
-0.180492
20
0.355610
30
0.0
11
-0.178494
21
0.355195
31
0.0
0
LINE
8
0
6
CONTINUOUS
10
-0.178494
20
0.355195
30
0.0
11
-0.178118
21
0.353991
31
0.0
0
LINE
8
0
6
CONTINUOUS
10
-0.169972
20
0.364378
30
0.0
11
-0.169597
21
0.365582
31
0.0
0
LINE
8
0
6
CONTINUOUS
10
-0.169972
20
0.365198
30
0.0
11
-0.169972
21
0.364378
31
0.0
0
LINE
8
0
6
CONTINUOUS
10
-0.143535
20
0.357349
30
0.0
11
-0.141536
21
0.356935
31
0.0
0
LINE
8
0
6
CONTINUOUS
10
-0.145157
20
0.356560
30
0.0
11
-0.143535
21
0.357349
31
0.0
0
LINE
8
0
6
CONTINUOUS
10
-0.145157
20
0.357066
30
0.0
11
-0.145157
21
0.356560
31
0.0
0
LINE
8
0
6
CONTINUOUS
10
-0.142380
20
0.360573
30
0.0
11
-0.142004
21
0.359369
31
0.0
0
LINE
8
0
6
CONTINUOUS
10
-0.147970
20
0.364185
30
0.0
11
-0.146347
21
0.364974
31
0.0
0
LINE
8
0
6
CONTINUOUS
10
-0.147970
20
0.364749
30
0.0
11
-0.147970
21
0.364185
31
0.0
0
LINE
8
0
6
CONTINUOUS
10
-0.155171
20
0.362248
30
0.0
11
-0.155171
21
0.363301
31
0.0
0
LINE
8
0
6
CONTINUOUS
10
-0.156794
20
0.363037
30
0.0
11
-0.155171
21
0.362248
31
0.0
0
LINE
8
0
6
CONTINUOUS
10
-0.158792
20
0.362623
30
0.0
11
-0.156794
21
0.363037
31
0.0
0
LINE
8
0
6
CONTINUOUS
10
-0.152781
20
0.354920
30
0.0
11
-0.152781
21
0.355977
31
0.0
0
LINE
8
0
6
CONTINUOUS
10
-0.154404
20
0.355710
30
0.0
11
-0.152781
21
0.354920
31
0.0
0
LINE
8
0
6
CONTINUOUS
10
-0.156402
20
0.355295
30
0.0
11
-0.154404
21
0.355710
31
0.0
0
LINE
8
0
6
CONTINUOUS
10
-0.156778
20
0.354091
30
0.0
11
-0.156402
21
0.355295
31
0.0
0
LINE
8
0
6
CONTINUOUS
10
-0.156778
20
0.354907
30
0.0
11
-0.156778
21
0.354091
31
0.0
0
LINE
8
0
6
CONTINUOUS
10
-0.141592
20
0.371369
30
0.0
11
-0.141592
21
0.372493
31
0.0
0
LINE
8
0
6
CONTINUOUS
10
-0.143215
20
0.372158
30
0.0
11
-0.141592
21
0.371369
31
0.0
0
LINE
8
0
6
CONTINUOUS
10
-0.148979
20
0.368682
30
0.0
11
-0.148979
21
0.369732
31
0.0
0
LINE
8
0
6
CONTINUOUS
10
-0.150602
20
0.369471
30
0.0
11
-0.148979
21
0.368682
31
0.0
0
LINE
8
0
6
CONTINUOUS
10
-0.168518
20
0.395967
30
0.0
11
-0.166424
21
0.396172
31
0.0
0
LINE
8
0
6
CONTINUOUS
10
-0.169256
20
0.394820
30
0.0
11
-0.168518
21
0.395967
31
0.0
0
LINE
8
0
6
CONTINUOUS
10
-0.169256
20
0.395361
30
0.0
11
-0.169256
21
0.394820
31
0.0
0
LINE
8
0
6
CONTINUOUS
10
-0.165068
20
0.395231
30
0.0
11
-0.165068
21
0.396005
31
0.0
0
LINE
8
0
6
CONTINUOUS
10
-0.166424
20
0.396172
30
0.0
11
-0.165068
21
0.395231
31
0.0
0
LINE
8
0
6
CONTINUOUS
10
-0.155498
20
0.393498
30
0.0
11
-0.153376
21
0.393445
31
0.0
0
LINE
8
0
6
CONTINUOUS
10
-0.156638
20
0.392466
30
0.0
11
-0.155498
21
0.393498
31
0.0
0
LINE
8
0
6
CONTINUOUS
10
-0.156638
20
0.392915
30
0.0
11
-0.156638
21
0.392466
31
0.0
0
LINE
8
0
6
CONTINUOUS
10
-0.161843
20
0.389437
30
0.0
11
-0.159721
21
0.389384
31
0.0
0
LINE
8
0
6
CONTINUOUS
10
-0.158740
20
0.388300
30
0.0
11
-0.158740
21
0.389079
31
0.0
0
LINE
8
0
6
CONTINUOUS
10
-0.159721
20
0.389384
30
0.0
11
-0.158740
21
0.388300
31
0.0
0
LINE
8
0
6
CONTINUOUS
10
-0.168188
20
0.385783
30
0.0
11
-0.166066
21
0.385730
31
0.0
0
LINE
8
0
6
CONTINUOUS
10
-0.165085
20
0.384646
30
0.0
11
-0.165085
21
0.385395
31
0.0
0
LINE
8
0
6
CONTINUOUS
10
-0.166066
20
0.385730
30
0.0
11
-0.165085
21
0.384646
31
0.0
0
LINE
8
0
6
CONTINUOUS
10
-0.174534
20
0.382390
30
0.0
11
-0.172412
21
0.382337
31
0.0
0
LINE
8
0
6
CONTINUOUS
10
-0.175674
20
0.381358
30
0.0
11
-0.174534
21
0.382390
31
0.0
0
LINE
8
0
6
CONTINUOUS
10
-0.175674
20
0.382170
30
0.0
11
-0.175674
21
0.381358
31
0.0
0
LINE
8
0
6
CONTINUOUS
10
-0.172412
20
0.382337
30
0.0
11
-0.171430
21
0.381252
31
0.0
0
LINE
8
0
6
CONTINUOUS
10
-0.144931
20
0.389155
30
0.0
11
-0.142876
21
0.388846
31
0.0
0
LINE
8
0
6
CONTINUOUS
10
-0.136063
20
0.380862
30
0.0
11
-0.136063
21
0.381980
31
0.0
0
LINE
8
0
6
CONTINUOUS
10
-0.136182
20
0.382083
30
0.0
11
-0.136063
21
0.380862
31
0.0
0
LINE
8
0
6
CONTINUOUS
10
-0.129907
20
0.384217
30
0.0
11
-0.129907
21
0.384958
31
0.0
0
LINE
8
0
6
CONTINUOUS
10
-0.130026
20
0.385439
30
0.0
11
-0.129907
21
0.384217
31
0.0
0
LINE
8
0
6
CONTINUOUS
10
-0.131658
20
0.370120
30
0.0
11
-0.130035
21
0.370909
31
0.0
0
LINE
8
0
6
CONTINUOUS
10
-0.131658
20
0.370277
30
0.0
11
-0.131658
21
0.370120
31
0.0
0
LINE
8
0
6
CONTINUOUS
10
-0.148657
20
0.359522
30
0.0
11
-0.145681
21
0.361503
31
0.0
0
LINE
8
0
6
CONTINUOUS
10
-0.149382
20
0.359116
30
0.0
11
-0.148657
21
0.359522
31
0.0
0
LINE
8
0
6
CONTINUOUS
10
-0.146492
20
0.361040
30
0.0
11
-0.149382
21
0.359116
31
0.0
0
LINE
8
0
6
CONTINUOUS
10
-0.145681
20
0.361503
30
0.0
11
-0.143151
21
0.363698
31
0.0
0
LINE
8
0
6
CONTINUOUS
10
-0.144036
20
0.363170
30
0.0
11
-0.146492
21
0.361040
31
0.0
0
LINE
8
0
6
CONTINUOUS
10
-0.143151
20
0.363698
30
0.0
11
-0.141110
21
0.366081
31
0.0
0
LINE
8
0
6
CONTINUOUS
10
-0.142055
20
0.365484
30
0.0
11
-0.144036
21
0.363170
31
0.0
0
LINE
8
0
6
CONTINUOUS
10
-0.141110
20
0.366081
30
0.0
11
-0.139600
21
0.368627
31
0.0
0
LINE
8
0
6
CONTINUOUS
10
-0.140589
20
0.367956
30
0.0
11
-0.142055
21
0.365484
31
0.0
0
LINE
8
0
6
CONTINUOUS
10
-0.139600
20
0.368627
30
0.0
11
-0.138663
21
0.371313
31
0.0
0
LINE
8
0
6
CONTINUOUS
10
-0.139679
20
0.370562
30
0.0
11
-0.140589
21
0.367956
31
0.0
0
LINE
8
0
6
CONTINUOUS
10
-0.138663
20
0.371313
30
0.0
11
-0.138342
21
0.374111
31
0.0
0
LINE
8
0
6
CONTINUOUS
10
-0.139367
20
0.373280
30
0.0
11
-0.139679
21
0.370562
31
0.0
0
LINE
8
0
6
CONTINUOUS
10
-0.138342
20
0.374111
30
0.0
11
-0.138663
21
0.376910
31
0.0
0
LINE
8
0
6
CONTINUOUS
10
-0.139679
20
0.375998
30
0.0
11
-0.139367
21
0.373280
31
0.0
0
LINE
8
0
6
CONTINUOUS
10
-0.138663
20
0.376910
30
0.0
11
-0.139600
21
0.379595
31
0.0
0
LINE
8
0
6
CONTINUOUS
10
-0.140589
20
0.378605
30
0.0
11
-0.139679
21
0.375998
31
0.0
0
LINE
8
0
6
CONTINUOUS
10
-0.139600
20
0.379595
30
0.0
11
-0.141110
21
0.382142
31
0.0
0
LINE
8
0
6
CONTINUOUS
10
-0.142055
20
0.381077
30
0.0
11
-0.140589
21
0.378605
31
0.0
0
LINE
8
0
6
CONTINUOUS
10
-0.141110
20
0.382142
30
0.0
11
-0.143151
21
0.384525
31
0.0
0
LINE
8
0
6
CONTINUOUS
10
-0.144036
20
0.383390
30
0.0
11
-0.142055
21
0.381077
31
0.0
0
LINE
8
0
6
CONTINUOUS
10
-0.146492
20
0.385521
30
0.0
11
-0.144036
21
0.383390
31
0.0
0
LINE
8
0
6
CONTINUOUS
10
-0.149382
20
0.387445
30
0.0
11
-0.146492
21
0.385521
31
0.0
0
LINE
8
0
6
CONTINUOUS
10
-0.152666
20
0.389138
30
0.0
11
-0.149382
21
0.387445
31
0.0
0
LINE
8
0
6
CONTINUOUS
10
-0.156301
20
0.390578
30
0.0
11
-0.152666
21
0.389138
31
0.0
0
LINE
8
0
6
CONTINUOUS
10
-0.160249
20
0.391739
30
0.0
11
-0.156301
21
0.390578
31
0.0
0
LINE
8
0
6
CONTINUOUS
10
-0.164467
20
0.392598
30
0.0
11
-0.160249
21
0.391739
31
0.0
0
LINE
8
0
6
CONTINUOUS
10
-0.168916
20
0.393131
30
0.0
11
-0.164467
21
0.392598
31
0.0
0
LINE
8
0
6
CONTINUOUS
10
-0.173553
20
0.393313
30
0.0
11
-0.168916
21
0.393131
31
0.0
0
LINE
8
0
6
CONTINUOUS
10
-0.178191
20
0.393131
30
0.0
11
-0.173553
21
0.393313
31
0.0
0
LINE
8
0
6
CONTINUOUS
10
-0.182639
20
0.392598
30
0.0
11
-0.178191
21
0.393131
31
0.0
0
LINE
8
0
6
CONTINUOUS
10
-0.186858
20
0.391739
30
0.0
11
-0.182639
21
0.392598
31
0.0
0
LINE
8
0
6
CONTINUOUS
10
-0.190805
20
0.390578
30
0.0
11
-0.186858
21
0.391739
31
0.0
0
LINE
8
0
6
CONTINUOUS
10
-0.193967
20
0.390881
30
0.0
11
-0.195068
21
0.390445
31
0.0
0
LINE
8
0
6
CONTINUOUS
10
-0.194441
20
0.389138
30
0.0
11
-0.190805
21
0.390578
31
0.0
0
LINE
8
0
6
CONTINUOUS
10
-0.195068
20
0.390445
30
0.0
11
-0.198449
21
0.388701
31
0.0
0
LINE
8
0
6
CONTINUOUS
10
-0.197724
20
0.387445
30
0.0
11
-0.194441
21
0.389138
31
0.0
0
LINE
8
0
6
CONTINUOUS
10
-0.198449
20
0.388701
30
0.0
11
-0.201426
21
0.386719
31
0.0
0
LINE
8
0
6
CONTINUOUS
10
-0.200614
20
0.385521
30
0.0
11
-0.197724
21
0.387445
31
0.0
0
LINE
8
0
6
CONTINUOUS
10
-0.201426
20
0.386719
30
0.0
11
-0.203956
21
0.384525
31
0.0
0
LINE
8
0
6
CONTINUOUS
10
-0.203071
20
0.383390
30
0.0
11
-0.200614
21
0.385521
31
0.0
0
LINE
8
0
6
CONTINUOUS
10
-0.203956
20
0.384525
30
0.0
11
-0.205997
21
0.382142
31
0.0
0
LINE
8
0
6
CONTINUOUS
10
-0.205052
20
0.381077
30
0.0
11
-0.203071
21
0.383390
31
0.0
0
LINE
8
0
6
CONTINUOUS
10
-0.205997
20
0.382142
30
0.0
11
-0.207507
21
0.379595
31
0.0
0
LINE
8
0
6
CONTINUOUS
10
-0.206518
20
0.378605
30
0.0
11
-0.205052
21
0.381077
31
0.0
0
LINE
8
0
6
CONTINUOUS
10
-0.207507
20
0.379595
30
0.0
11
-0.208443
21
0.376910
31
0.0
0
LINE
8
0
6
CONTINUOUS
10
-0.207427
20
0.375998
30
0.0
11
-0.206518
21
0.378605
31
0.0
0
LINE
8
0
6
CONTINUOUS
10
-0.208443
20
0.376910
30
0.0
11
-0.208765
21
0.374111
31
0.0
0
LINE
8
0
6
CONTINUOUS
10
-0.207739
20
0.373280
30
0.0
11
-0.207427
21
0.375998
31
0.0
0
LINE
8
0
6
CONTINUOUS
10
-0.208765
20
0.374111
30
0.0
11
-0.208443
21
0.371313
31
0.0
0
LINE
8
0
6
CONTINUOUS
10
-0.207427
20
0.370562
30
0.0
11
-0.207739
21
0.373280
31
0.0
0
LINE
8
0
6
CONTINUOUS
10
-0.208443
20
0.371313
30
0.0
11
-0.207507
21
0.368627
31
0.0
0
LINE
8
0
6
CONTINUOUS
10
-0.206518
20
0.367956
30
0.0
11
-0.207427
21
0.370562
31
0.0
0
LINE
8
0
6
CONTINUOUS
10
-0.207507
20
0.368627
30
0.0
11
-0.205997
21
0.366081
31
0.0
0
LINE
8
0
6
CONTINUOUS
10
-0.205052
20
0.365484
30
0.0
11
-0.206518
21
0.367956
31
0.0
0
LINE
8
0
6
CONTINUOUS
10
-0.205997
20
0.366081
30
0.0
11
-0.203956
21
0.363698
31
0.0
0
LINE
8
0
6
CONTINUOUS
10
-0.203071
20
0.363170
30
0.0
11
-0.205052
21
0.365484
31
0.0
0
LINE
8
0
6
CONTINUOUS
10
-0.203956
20
0.363698
30
0.0
11
-0.201426
21
0.361503
31
0.0
0
LINE
8
0
6
CONTINUOUS
10
-0.200614
20
0.361040
30
0.0
11
-0.203071
21
0.363170
31
0.0
0
LINE
8
0
6
CONTINUOUS
10
-0.198449
20
0.359522
30
0.0
11
-0.197724
21
0.359116
31
0.0
0
LINE
8
0
6
CONTINUOUS
10
-0.201426
20
0.361503
30
0.0
11
-0.198449
21
0.359522
31
0.0
0
LINE
8
0
6
CONTINUOUS
10
-0.197724
20
0.359116
30
0.0
11
-0.200614
21
0.361040
31
0.0
0
LINE
8
0
6
CONTINUOUS
10
-0.161091
20
0.362548
30
0.0
11
-0.160789
21
0.362684
31
0.0
0
LINE
8
0
6
CONTINUOUS
10
-0.159132
20
0.363541
30
0.0
11
-0.161091
21
0.362548
31
0.0
0
LINE
8
0
6
CONTINUOUS
10
-0.157407
20
0.364669
30
0.0
11
-0.159132
21
0.363541
31
0.0
0
LINE
8
0
6
CONTINUOUS
10
-0.154760
20
0.367274
30
0.0
11
-0.155942
21
0.365918
31
0.0
0
LINE
8
0
6
CONTINUOUS
10
-0.154127
20
0.367622
30
0.0
11
-0.153223
21
0.369120
31
0.0
0
LINE
8
0
6
CONTINUOUS
10
-0.153885
20
0.368723
30
0.0
11
-0.154760
21
0.367274
31
0.0
0
LINE
8
0
6
CONTINUOUS
10
-0.153223
20
0.369120
30
0.0
11
-0.152662
21
0.370700
31
0.0
0
LINE
8
0
6
CONTINUOUS
10
-0.153343
20
0.370251
30
0.0
11
-0.153885
21
0.368723
31
0.0
0
LINE
8
0
6
CONTINUOUS
10
-0.152662
20
0.370700
30
0.0
11
-0.152470
21
0.372346
31
0.0
0
LINE
8
0
6
CONTINUOUS
10
-0.153157
20
0.371844
30
0.0
11
-0.153343
21
0.370251
31
0.0
0
LINE
8
0
6
CONTINUOUS
10
-0.152470
20
0.372346
30
0.0
11
-0.152662
21
0.373993
31
0.0
0
LINE
8
0
6
CONTINUOUS
10
-0.153343
20
0.373438
30
0.0
11
-0.153157
21
0.371844
31
0.0
0
LINE
8
0
6
CONTINUOUS
10
-0.153885
20
0.374966
30
0.0
11
-0.153343
21
0.373438
31
0.0
0
LINE
8
0
6
CONTINUOUS
10
-0.154760
20
0.376415
30
0.0
11
-0.153885
21
0.374966
31
0.0
0
LINE
8
0
6
CONTINUOUS
10
-0.154127
20
0.377071
30
0.0
11
-0.155349
21
0.378473
31
0.0
0
LINE
8
0
6
CONTINUOUS
10
-0.155942
20
0.377771
30
0.0
11
-0.154760
21
0.376415
31
0.0
0
LINE
8
0
6
CONTINUOUS
10
-0.155349
20
0.378473
30
0.0
11
-0.156864
21
0.379764
31
0.0
0
LINE
8
0
6
CONTINUOUS
10
-0.157407
20
0.379020
30
0.0
11
-0.155942
21
0.377771
31
0.0
0
LINE
8
0
6
CONTINUOUS
10
-0.159132
20
0.380148
30
0.0
11
-0.157407
21
0.379020
31
0.0
0
LINE
8
0
6
CONTINUOUS
10
-0.161091
20
0.381141
30
0.0
11
-0.159132
21
0.380148
31
0.0
0
LINE
8
0
6
CONTINUOUS
10
-0.163260
20
0.381985
30
0.0
11
-0.161091
21
0.381141
31
0.0
0
LINE
8
0
6
CONTINUOUS
10
-0.162913
20
0.382828
30
0.0
11
-0.165348
21
0.383532
31
0.0
0
LINE
8
0
6
CONTINUOUS
10
-0.165615
20
0.382665
30
0.0
11
-0.163260
21
0.381985
31
0.0
0
LINE
8
0
6
CONTINUOUS
10
-0.168132
20
0.383169
30
0.0
11
-0.165615
21
0.382665
31
0.0
0
LINE
8
0
6
CONTINUOUS
10
-0.170786
20
0.383481
30
0.0
11
-0.168132
21
0.383169
31
0.0
0
LINE
8
0
6
CONTINUOUS
10
-0.173553
20
0.383588
30
0.0
11
-0.170786
21
0.383481
31
0.0
0
LINE
8
0
6
CONTINUOUS
10
-0.175674
20
0.384404
30
0.0
11
-0.176412
21
0.384375
31
0.0
0
LINE
8
0
6
CONTINUOUS
10
-0.176320
20
0.383481
30
0.0
11
-0.173553
21
0.383588
31
0.0
0
LINE
8
0
6
CONTINUOUS
10
-0.176412
20
0.384375
30
0.0
11
-0.179156
21
0.384052
31
0.0
0
LINE
8
0
6
CONTINUOUS
10
-0.178974
20
0.383169
30
0.0
11
-0.176320
21
0.383481
31
0.0
0
LINE
8
0
6
CONTINUOUS
10
-0.181491
20
0.382665
30
0.0
11
-0.178974
21
0.383169
31
0.0
0
LINE
8
0
6
CONTINUOUS
10
-0.181759
20
0.383532
30
0.0
11
-0.184193
21
0.382828
31
0.0
0
LINE
8
0
6
CONTINUOUS
10
-0.183846
20
0.381985
30
0.0
11
-0.181491
21
0.382665
31
0.0
0
LINE
8
0
6
CONTINUOUS
10
-0.184193
20
0.382828
30
0.0
11
-0.186436
21
0.381956
31
0.0
0
LINE
8
0
6
CONTINUOUS
10
-0.186016
20
0.381141
30
0.0
11
-0.183846
21
0.381985
31
0.0
0
LINE
8
0
6
CONTINUOUS
10
-0.186436
20
0.381956
30
0.0
11
-0.188460
21
0.380930
31
0.0
0
LINE
8
0
6
CONTINUOUS
10
-0.187975
20
0.380148
30
0.0
11
-0.186016
21
0.381141
31
0.0
0
LINE
8
0
6
CONTINUOUS
10
-0.188460
20
0.380930
30
0.0
11
-0.190242
21
0.379764
31
0.0
0
LINE
8
0
6
CONTINUOUS
10
-0.189699
20
0.379020
30
0.0
11
-0.187975
21
0.380148
31
0.0
0
LINE
8
0
6
CONTINUOUS
10
-0.190242
20
0.379764
30
0.0
11
-0.191757
21
0.378473
31
0.0
0
LINE
8
0
6
CONTINUOUS
10
-0.191164
20
0.377771
30
0.0
11
-0.189699
21
0.379020
31
0.0
0
LINE
8
0
6
CONTINUOUS
10
-0.191757
20
0.378473
30
0.0
11
-0.192979
21
0.377071
31
0.0
0
LINE
8
0
6
CONTINUOUS
10
-0.192347
20
0.376415
30
0.0
11
-0.191164
21
0.377771
31
0.0
0
LINE
8
0
6
CONTINUOUS
10
-0.192979
20
0.377071
30
0.0
11
-0.193883
21
0.375573
31
0.0
0
LINE
8
0
6
CONTINUOUS
10
-0.193221
20
0.374966
30
0.0
11
-0.192347
21
0.376415
31
0.0
0
LINE
8
0
6
CONTINUOUS
10
-0.193883
20
0.375573
30
0.0
11
-0.194444
21
0.373993
31
0.0
0
LINE
8
0
6
CONTINUOUS
10
-0.193764
20
0.373438
30
0.0
11
-0.193221
21
0.374966
31
0.0
0
LINE
8
0
6
CONTINUOUS
10
-0.194444
20
0.373993
30
0.0
11
-0.194637
21
0.372346
31
0.0
0
LINE
8
0
6
CONTINUOUS
10
-0.193950
20
0.371844
30
0.0
11
-0.193764
21
0.373438
31
0.0
0
LINE
8
0
6
CONTINUOUS
10
-0.194637
20
0.372346
30
0.0
11
-0.194444
21
0.370700
31
0.0
0
LINE
8
0
6
CONTINUOUS
10
-0.193764
20
0.370251
30
0.0
11
-0.193950
21
0.371844
31
0.0
0
LINE
8
0
6
CONTINUOUS
10
-0.194444
20
0.370700
30
0.0
11
-0.193883
21
0.369120
31
0.0
0
LINE
8
0
6
CONTINUOUS
10
-0.193221
20
0.368723
30
0.0
11
-0.193764
21
0.370251
31
0.0
0
LINE
8
0
6
CONTINUOUS
10
-0.193883
20
0.369120
30
0.0
11
-0.192979
21
0.367622
31
0.0
0
LINE
8
0
6
CONTINUOUS
10
-0.192347
20
0.367274
30
0.0
11
-0.193221
21
0.368723
31
0.0
0
LINE
8
0
6
CONTINUOUS
10
-0.192979
20
0.367622
30
0.0
11
-0.191757
21
0.366220
31
0.0
0
LINE
8
0
6
CONTINUOUS
10
-0.191164
20
0.365918
30
0.0
11
-0.192347
21
0.367274
31
0.0
0
LINE
8
0
6
CONTINUOUS
10
-0.191757
20
0.366220
30
0.0
11
-0.190242
21
0.364929
31
0.0
0
LINE
8
0
6
CONTINUOUS
10
-0.190242
20
0.364929
30
0.0
11
-0.188460
21
0.363763
31
0.0
0
LINE
8
0
6
CONTINUOUS
10
-0.187975
20
0.363541
30
0.0
11
-0.189699
21
0.364669
31
0.0
0
LINE
8
0
6
CONTINUOUS
10
-0.186436
20
0.362737
30
0.0
11
-0.186016
21
0.362548
31
0.0
0
LINE
8
0
6
CONTINUOUS
10
-0.188460
20
0.363763
30
0.0
11
-0.186436
21
0.362737
31
0.0
0
LINE
8
0
6
CONTINUOUS
10
-0.186016
20
0.362548
30
0.0
11
-0.187975
21
0.363541
31
0.0
0
LINE
8
0
6
CONTINUOUS
10
-0.150602
20
0.369471
30
0.0
11
-0.152600
21
0.369057
31
0.0
0
LINE
8
0
6
CONTINUOUS
10
-0.148979
20
0.368682
30
0.0
11
-0.150602
21
0.369471
31
0.0
0
LINE
8
0
6
CONTINUOUS
10
-0.149355
20
0.367478
30
0.0
11
-0.148979
21
0.368682
31
0.0
0
LINE
8
0
6
CONTINUOUS
10
-0.151353
20
0.367064
30
0.0
11
-0.149355
21
0.367478
31
0.0
0
LINE
8
0
6
CONTINUOUS
10
-0.152976
20
0.367853
30
0.0
11
-0.151353
21
0.367064
31
0.0
0
LINE
8
0
6
CONTINUOUS
10
-0.152600
20
0.369057
30
0.0
11
-0.152976
21
0.367853
31
0.0
0
LINE
8
0
6
CONTINUOUS
10
-0.179205
20
0.393898
30
0.0
11
-0.177849
21
0.394839
31
0.0
0
LINE
8
0
6
CONTINUOUS
10
-0.181299
20
0.394103
30
0.0
11
-0.179205
21
0.393898
31
0.0
0
LINE
8
0
6
CONTINUOUS
10
-0.182036
20
0.395250
30
0.0
11
-0.181299
21
0.394103
31
0.0
0
LINE
8
0
6
CONTINUOUS
10
-0.180680
20
0.396191
30
0.0
11
-0.182036
21
0.395250
31
0.0
0
LINE
8
0
6
CONTINUOUS
10
-0.178586
20
0.395986
30
0.0
11
-0.180680
21
0.396191
31
0.0
0
LINE
8
0
6
CONTINUOUS
10
-0.177849
20
0.394839
30
0.0
11
-0.178586
21
0.395986
31
0.0
0
LINE
8
0
6
CONTINUOUS
10
-0.202173
20
0.389254
30
0.0
11
-0.204228
21
0.388945
31
0.0
0
LINE
8
0
6
CONTINUOUS
10
-0.200681
20
0.388384
30
0.0
11
-0.202173
21
0.389254
31
0.0
0
LINE
8
0
6
CONTINUOUS
10
-0.201244
20
0.387204
30
0.0
11
-0.200681
21
0.388384
31
0.0
0
LINE
8
0
6
CONTINUOUS
10
-0.203299
20
0.386895
30
0.0
11
-0.201244
21
0.387204
31
0.0
0
LINE
8
0
6
CONTINUOUS
10
-0.204791
20
0.387766
30
0.0
11
-0.203299
21
0.386895
31
0.0
0
LINE
8
0
6
CONTINUOUS
10
-0.204228
20
0.388945
30
0.0
11
-0.204791
21
0.387766
31
0.0
0
LINE
8
0
6
CONTINUOUS
10
-0.161686
20
0.377592
30
0.0
11
-0.160193
21
0.378462
31
0.0
0
LINE
8
0
6
CONTINUOUS
10
-0.163741
20
0.377901
30
0.0
11
-0.161686
21
0.377592
31
0.0
0
LINE
8
0
6
CONTINUOUS
10
-0.164304
20
0.379080
30
0.0
11
-0.163741
21
0.377901
31
0.0
0
LINE
8
0
6
CONTINUOUS
10
-0.162811
20
0.379950
30
0.0
11
-0.164304
21
0.379080
31
0.0
0
LINE
8
0
6
CONTINUOUS
10
-0.160756
20
0.379641
30
0.0
11
-0.162811
21
0.379950
31
0.0
0
LINE
8
0
6
CONTINUOUS
10
-0.160193
20
0.378462
30
0.0
11
-0.160756
21
0.379641
31
0.0
0
LINE
8
0
6
CONTINUOUS
10
-0.158792
20
0.362623
30
0.0
11
-0.159168
21
0.361419
31
0.0
0
LINE
8
0
6
CONTINUOUS
10
-0.156794
20
0.363037
30
0.0
11
-0.158792
21
0.362623
31
0.0
0
LINE
8
0
6
CONTINUOUS
10
-0.155171
20
0.362248
30
0.0
11
-0.156794
21
0.363037
31
0.0
0
LINE
8
0
6
CONTINUOUS
10
-0.155547
20
0.361044
30
0.0
11
-0.155171
21
0.362248
31
0.0
0
LINE
8
0
6
CONTINUOUS
10
-0.157546
20
0.360630
30
0.0
11
-0.155547
21
0.361044
31
0.0
0
LINE
8
0
6
CONTINUOUS
10
-0.159168
20
0.361419
30
0.0
11
-0.157546
21
0.360630
31
0.0
0
LINE
8
0
6
CONTINUOUS
10
-0.134675
20
0.363793
30
0.0
11
-0.136298
21
0.363004
31
0.0
0
LINE
8
0
6
CONTINUOUS
10
-0.132677
20
0.363379
30
0.0
11
-0.134675
21
0.363793
31
0.0
0
LINE
8
0
6
CONTINUOUS
10
-0.132301
20
0.362175
30
0.0
11
-0.132677
21
0.363379
31
0.0
0
LINE
8
0
6
CONTINUOUS
10
-0.133924
20
0.361386
30
0.0
11
-0.132301
21
0.362175
31
0.0
0
LINE
8
0
6
CONTINUOUS
10
-0.135922
20
0.361800
30
0.0
11
-0.133924
21
0.361386
31
0.0
0
LINE
8
0
6
CONTINUOUS
10
-0.136298
20
0.363004
30
0.0
11
-0.135922
21
0.361800
31
0.0
0
LINE
8
0
6
CONTINUOUS
10
-0.189559
20
0.360680
30
0.0
11
-0.187936
21
0.361470
31
0.0
0
LINE
8
0
6
CONTINUOUS
10
-0.191557
20
0.361095
30
0.0
11
-0.189559
21
0.360680
31
0.0
0
LINE
8
0
6
CONTINUOUS
10
-0.191933
20
0.362298
30
0.0
11
-0.191557
21
0.361095
31
0.0
0
LINE
8
0
6
CONTINUOUS
10
-0.190310
20
0.363088
30
0.0
11
-0.191933
21
0.362298
31
0.0
0
LINE
8
0
6
CONTINUOUS
10
-0.188312
20
0.362673
30
0.0
11
-0.190310
21
0.363088
31
0.0
0
LINE
8
0
6
CONTINUOUS
10
-0.187936
20
0.361470
30
0.0
11
-0.188312
21
0.362673
31
0.0
0
LINE
8
0
6
CONTINUOUS
10
-0.155657
20
0.391381
30
0.0
11
-0.153535
21
0.391328
31
0.0
0
LINE
8
0
6
CONTINUOUS
10
-0.156638
20
0.392466
30
0.0
11
-0.155657
21
0.391381
31
0.0
0
LINE
8
0
6
CONTINUOUS
10
-0.155498
20
0.393498
30
0.0
11
-0.156638
21
0.392466
31
0.0
0
LINE
8
0
6
CONTINUOUS
10
-0.153376
20
0.393445
30
0.0
11
-0.155498
21
0.393498
31
0.0
0
LINE
8
0
6
CONTINUOUS
10
-0.152394
20
0.392360
30
0.0
11
-0.153376
21
0.393445
31
0.0
0
LINE
8
0
6
CONTINUOUS
10
-0.153535
20
0.391328
30
0.0
11
-0.152394
21
0.392360
31
0.0
0
LINE
8
0
6
CONTINUOUS
10
-0.217821
20
0.368639
30
0.0
11
-0.215823
21
0.369053
31
0.0
0
LINE
8
0
6
CONTINUOUS
10
-0.219443
20
0.369428
30
0.0
11
-0.217821
21
0.368639
31
0.0
0
LINE
8
0
6
CONTINUOUS
10
-0.219068
20
0.370632
30
0.0
11
-0.219443
21
0.369428
31
0.0
0
LINE
8
0
6
CONTINUOUS
10
-0.217069
20
0.371046
30
0.0
11
-0.219068
21
0.370632
31
0.0
0
LINE
8
0
6
CONTINUOUS
10
-0.215447
20
0.370257
30
0.0
11
-0.217069
21
0.371046
31
0.0
0
LINE
8
0
6
CONTINUOUS
10
-0.215823
20
0.369053
30
0.0
11
-0.215447
21
0.370257
31
0.0
0
LINE
8
0
6
CONTINUOUS
10
-0.196714
20
0.376949
30
0.0
11
-0.198610
21
0.376397
31
0.0
0
LINE
8
0
6
CONTINUOUS
10
-0.194937
20
0.376279
30
0.0
11
-0.196714
21
0.376949
31
0.0
0
LINE
8
0
6
CONTINUOUS
10
-0.195056
20
0.375058
30
0.0
11
-0.194937
21
0.376279
31
0.0
0
LINE
8
0
6
CONTINUOUS
10
-0.196952
20
0.374506
30
0.0
11
-0.195056
21
0.375058
31
0.0
0
LINE
8
0
6
CONTINUOUS
10
-0.198729
20
0.375176
30
0.0
11
-0.196952
21
0.374506
31
0.0
0
LINE
8
0
6
CONTINUOUS
10
-0.198610
20
0.376397
30
0.0
11
-0.198729
21
0.375176
31
0.0
0
LINE
8
0
6
CONTINUOUS
10
-0.178755
20
0.363607
30
0.0
11
-0.177132
21
0.364396
31
0.0
0
LINE
8
0
6
CONTINUOUS
10
-0.180753
20
0.364022
30
0.0
11
-0.178755
21
0.363607
31
0.0
0
LINE
8
0
6
CONTINUOUS
10
-0.181129
20
0.365225
30
0.0
11
-0.180753
21
0.364022
31
0.0
0
LINE
8
0
6
CONTINUOUS
10
-0.179506
20
0.366015
30
0.0
11
-0.181129
21
0.365225
31
0.0
0
LINE
8
0
6
CONTINUOUS
10
-0.177508
20
0.365600
30
0.0
11
-0.179506
21
0.366015
31
0.0
0
LINE
8
0
6
CONTINUOUS
10
-0.177132
20
0.364396
30
0.0
11
-0.177508
21
0.365600
31
0.0
0
LINE
8
0
6
CONTINUOUS
10
-0.144378
20
0.360988
30
0.0
11
-0.146001
21
0.360198
31
0.0
0
LINE
8
0
6
CONTINUOUS
10
-0.142380
20
0.360573
30
0.0
11
-0.144378
21
0.360988
31
0.0
0
LINE
8
0
6
CONTINUOUS
10
-0.142004
20
0.359369
30
0.0
11
-0.142380
21
0.360573
31
0.0
0
LINE
8
0
6
CONTINUOUS
10
-0.143627
20
0.358580
30
0.0
11
-0.142004
21
0.359369
31
0.0
0
LINE
8
0
6
CONTINUOUS
10
-0.145625
20
0.358995
30
0.0
11
-0.143627
21
0.358580
31
0.0
0
LINE
8
0
6
CONTINUOUS
10
-0.146001
20
0.360198
30
0.0
11
-0.145625
21
0.358995
31
0.0
0
LINE
8
0
6
CONTINUOUS
10
-0.167364
20
0.353220
30
0.0
11
-0.165365
21
0.353635
31
0.0
0
LINE
8
0
6
CONTINUOUS
10
-0.168986
20
0.354010
30
0.0
11
-0.167364
21
0.353220
31
0.0
0
LINE
8
0
6
CONTINUOUS
10
-0.168611
20
0.355213
30
0.0
11
-0.168986
21
0.354010
31
0.0
0
LINE
8
0
6
CONTINUOUS
10
-0.166612
20
0.355628
30
0.0
11
-0.168611
21
0.355213
31
0.0
0
LINE
8
0
6
CONTINUOUS
10
-0.164990
20
0.354839
30
0.0
11
-0.166612
21
0.355628
31
0.0
0
LINE
8
0
6
CONTINUOUS
10
-0.165365
20
0.353635
30
0.0
11
-0.164990
21
0.354839
31
0.0
0
LINE
8
0
6
CONTINUOUS
10
-0.175074
20
0.402020
30
0.0
11
-0.175709
21
0.400853
31
0.0
0
LINE
8
0
6
CONTINUOUS
10
-0.173001
20
0.402287
30
0.0
11
-0.175074
21
0.402020
31
0.0
0
LINE
8
0
6
CONTINUOUS
10
-0.171563
20
0.401387
30
0.0
11
-0.173001
21
0.402287
31
0.0
0
LINE
8
0
6
CONTINUOUS
10
-0.172198
20
0.400220
30
0.0
11
-0.171563
21
0.401387
31
0.0
0
LINE
8
0
6
CONTINUOUS
10
-0.174271
20
0.399953
30
0.0
11
-0.172198
21
0.400220
31
0.0
0
LINE
8
0
6
CONTINUOUS
10
-0.175709
20
0.400853
30
0.0
11
-0.174271
21
0.399953
31
0.0
0
LINE
8
0
6
CONTINUOUS
10
-0.152049
20
0.374987
30
0.0
11
-0.150153
21
0.374436
31
0.0
0
LINE
8
0
6
CONTINUOUS
10
-0.152168
20
0.376208
30
0.0
11
-0.152049
21
0.374987
31
0.0
0
LINE
8
0
6
CONTINUOUS
10
-0.150390
20
0.376878
30
0.0
11
-0.152168
21
0.376208
31
0.0
0
LINE
8
0
6
CONTINUOUS
10
-0.148494
20
0.376326
30
0.0
11
-0.150390
21
0.376878
31
0.0
0
LINE
8
0
6
CONTINUOUS
10
-0.148375
20
0.375105
30
0.0
11
-0.148494
21
0.376326
31
0.0
0
LINE
8
0
6
CONTINUOUS
10
-0.150153
20
0.374436
30
0.0
11
-0.148375
21
0.375105
31
0.0
0
LINE
8
0
6
CONTINUOUS
10
-0.187689
20
0.398606
30
0.0
11
-0.185595
21
0.398400
31
0.0
0
LINE
8
0
6
CONTINUOUS
10
-0.188427
20
0.399753
30
0.0
11
-0.187689
21
0.398606
31
0.0
0
LINE
8
0
6
CONTINUOUS
10
-0.187071
20
0.400694
30
0.0
11
-0.188427
21
0.399753
31
0.0
0
LINE
8
0
6
CONTINUOUS
10
-0.184977
20
0.400488
30
0.0
11
-0.187071
21
0.400694
31
0.0
0
LINE
8
0
6
CONTINUOUS
10
-0.184239
20
0.399342
30
0.0
11
-0.184977
21
0.400488
31
0.0
0
LINE
8
0
6
CONTINUOUS
10
-0.185595
20
0.398400
30
0.0
11
-0.184239
21
0.399342
31
0.0
0
LINE
8
0
6
CONTINUOUS
10
-0.210922
20
0.382188
30
0.0
11
-0.211041
21
0.380967
31
0.0
0
LINE
8
0
6
CONTINUOUS
10
-0.209026
20
0.382739
30
0.0
11
-0.210922
21
0.382188
31
0.0
0
LINE
8
0
6
CONTINUOUS
10
-0.207249
20
0.382070
30
0.0
11
-0.209026
21
0.382739
31
0.0
0
LINE
8
0
6
CONTINUOUS
10
-0.207368
20
0.380848
30
0.0
11
-0.207249
21
0.382070
31
0.0
0
LINE
8
0
6
CONTINUOUS
10
-0.209264
20
0.380297
30
0.0
11
-0.207368
21
0.380848
31
0.0
0
LINE
8
0
6
CONTINUOUS
10
-0.211041
20
0.380967
30
0.0
11
-0.209264
21
0.380297
31
0.0
0
LINE
8
0
6
CONTINUOUS
10
-0.174534
20
0.382390
30
0.0
11
-0.175147
21
0.381835
31
0.0
0
LINE
8
0
6
CONTINUOUS
10
-0.175147
20
0.381835
30
0.0
11
-0.175674
21
0.381358
31
0.0
0
LINE
8
0
6
CONTINUOUS
10
-0.172412
20
0.382337
30
0.0
11
-0.174534
21
0.382390
31
0.0
0
LINE
8
0
6
CONTINUOUS
10
-0.171430
20
0.381252
30
0.0
11
-0.172412
21
0.382337
31
0.0
0
LINE
8
0
6
CONTINUOUS
10
-0.172571
20
0.380221
30
0.0
11
-0.171430
21
0.381252
31
0.0
0
LINE
8
0
6
CONTINUOUS
10
-0.174693
20
0.380273
30
0.0
11
-0.172571
21
0.380221
31
0.0
0
LINE
8
0
6
CONTINUOUS
10
-0.175674
20
0.381358
30
0.0
11
-0.175626
21
0.381305
31
0.0
0
LINE
8
0
6
CONTINUOUS
10
-0.175626
20
0.381305
30
0.0
11
-0.174693
21
0.380273
31
0.0
0
LINE
8
0
6
CONTINUOUS
10
-0.166283
20
0.352407
30
0.0
11
-0.168282
21
0.351992
31
0.0
0
LINE
8
0
6
CONTINUOUS
10
-0.164661
20
0.351618
30
0.0
11
-0.166283
21
0.352407
31
0.0
0
LINE
8
0
6
CONTINUOUS
10
-0.165037
20
0.350414
30
0.0
11
-0.164661
21
0.351618
31
0.0
0
LINE
8
0
6
CONTINUOUS
10
-0.167035
20
0.349999
30
0.0
11
-0.165037
21
0.350414
31
0.0
0
LINE
8
0
6
CONTINUOUS
10
-0.168658
20
0.350789
30
0.0
11
-0.167035
21
0.349999
31
0.0
0
LINE
8
0
6
CONTINUOUS
10
-0.168282
20
0.351992
30
0.0
11
-0.168658
21
0.350789
31
0.0
0
LINE
8
0
6
CONTINUOUS
10
-0.203890
20
0.372254
30
0.0
11
-0.205512
21
0.371465
31
0.0
0
LINE
8
0
6
CONTINUOUS
10
-0.201891
20
0.371839
30
0.0
11
-0.203890
21
0.372254
31
0.0
0
LINE
8
0
6
CONTINUOUS
10
-0.201516
20
0.370635
30
0.0
11
-0.201891
21
0.371839
31
0.0
0
LINE
8
0
6
CONTINUOUS
10
-0.203138
20
0.369846
30
0.0
11
-0.201516
21
0.370635
31
0.0
0
LINE
8
0
6
CONTINUOUS
10
-0.205137
20
0.370261
30
0.0
11
-0.203138
21
0.369846
31
0.0
0
LINE
8
0
6
CONTINUOUS
10
-0.205512
20
0.371465
30
0.0
11
-0.205137
21
0.370261
31
0.0
0
LINE
8
0
6
CONTINUOUS
10
-0.168188
20
0.385783
30
0.0
11
-0.169329
21
0.384751
31
0.0
0
LINE
8
0
6
CONTINUOUS
10
-0.166066
20
0.385730
30
0.0
11
-0.168188
21
0.385783
31
0.0
0
LINE
8
0
6
CONTINUOUS
10
-0.165085
20
0.384646
30
0.0
11
-0.166066
21
0.385730
31
0.0
0
LINE
8
0
6
CONTINUOUS
10
-0.166225
20
0.383614
30
0.0
11
-0.165085
21
0.384646
31
0.0
0
LINE
8
0
6
CONTINUOUS
10
-0.168347
20
0.383667
30
0.0
11
-0.166225
21
0.383614
31
0.0
0
LINE
8
0
6
CONTINUOUS
10
-0.169329
20
0.384751
30
0.0
11
-0.168347
21
0.383667
31
0.0
0
LINE
8
0
6
CONTINUOUS
10
-0.208133
20
0.392509
30
0.0
11
-0.210188
21
0.392200
31
0.0
0
LINE
8
0
6
CONTINUOUS
10
-0.206641
20
0.391639
30
0.0
11
-0.208133
21
0.392509
31
0.0
0
LINE
8
0
6
CONTINUOUS
10
-0.207204
20
0.390459
30
0.0
11
-0.206641
21
0.391639
31
0.0
0
LINE
8
0
6
CONTINUOUS
10
-0.209259
20
0.390150
30
0.0
11
-0.207204
21
0.390459
31
0.0
0
LINE
8
0
6
CONTINUOUS
10
-0.210751
20
0.391021
30
0.0
11
-0.209259
21
0.390150
31
0.0
0
LINE
8
0
6
CONTINUOUS
10
-0.210188
20
0.392200
30
0.0
11
-0.210751
21
0.391021
31
0.0
0
LINE
8
0
6
CONTINUOUS
10
-0.157989
20
0.366905
30
0.0
11
-0.159988
21
0.366491
31
0.0
0
LINE
8
0
6
CONTINUOUS
10
-0.156367
20
0.366116
30
0.0
11
-0.157989
21
0.366905
31
0.0
0
LINE
8
0
6
CONTINUOUS
10
-0.156742
20
0.364913
30
0.0
11
-0.156367
21
0.366116
31
0.0
0
LINE
8
0
6
CONTINUOUS
10
-0.158741
20
0.364498
30
0.0
11
-0.156742
21
0.364913
31
0.0
0
LINE
8
0
6
CONTINUOUS
10
-0.160363
20
0.365287
30
0.0
11
-0.158741
21
0.364498
31
0.0
0
LINE
8
0
6
CONTINUOUS
10
-0.159988
20
0.366491
30
0.0
11
-0.160363
21
0.365287
31
0.0
0
LINE
8
0
6
CONTINUOUS
10
-0.181038
20
0.385749
30
0.0
11
-0.182020
21
0.384665
31
0.0
0
LINE
8
0
6
CONTINUOUS
10
-0.178916
20
0.385802
30
0.0
11
-0.181038
21
0.385749
31
0.0
0
LINE
8
0
6
CONTINUOUS
10
-0.177775
20
0.384770
30
0.0
11
-0.178916
21
0.385802
31
0.0
0
LINE
8
0
6
CONTINUOUS
10
-0.178757
20
0.383686
30
0.0
11
-0.177775
21
0.384770
31
0.0
0
LINE
8
0
6
CONTINUOUS
10
-0.180879
20
0.383633
30
0.0
11
-0.178757
21
0.383686
31
0.0
0
LINE
8
0
6
CONTINUOUS
10
-0.182020
20
0.384665
30
0.0
11
-0.180879
21
0.383633
31
0.0
0
LINE
8
0
6
CONTINUOUS
10
-0.137840
20
0.380192
30
0.0
11
-0.136063
21
0.380862
31
0.0
0
LINE
8
0
6
CONTINUOUS
10
-0.139736
20
0.380743
30
0.0
11
-0.137840
21
0.380192
31
0.0
0
LINE
8
0
6
CONTINUOUS
10
-0.139855
20
0.381964
30
0.0
11
-0.139736
21
0.380743
31
0.0
0
LINE
8
0
6
CONTINUOUS
10
-0.138078
20
0.382634
30
0.0
11
-0.139855
21
0.381964
31
0.0
0
LINE
8
0
6
CONTINUOUS
10
-0.136182
20
0.382083
30
0.0
11
-0.138078
21
0.382634
31
0.0
0
LINE
8
0
6
CONTINUOUS
10
-0.136063
20
0.380862
30
0.0
11
-0.136182
21
0.382083
31
0.0
0
LINE
8
0
6
CONTINUOUS
10
-0.214427
20
0.363504
30
0.0
11
-0.214803
21
0.362300
31
0.0
0
LINE
8
0
6
CONTINUOUS
10
-0.212429
20
0.363918
30
0.0
11
-0.214427
21
0.363504
31
0.0
0
LINE
8
0
6
CONTINUOUS
10
-0.210806
20
0.363129
30
0.0
11
-0.212429
21
0.363918
31
0.0
0
LINE
8
0
6
CONTINUOUS
10
-0.211182
20
0.361925
30
0.0
11
-0.210806
21
0.363129
31
0.0
0
LINE
8
0
6
CONTINUOUS
10
-0.213180
20
0.361511
30
0.0
11
-0.211182
21
0.361925
31
0.0
0
LINE
8
0
6
CONTINUOUS
10
-0.214803
20
0.362300
30
0.0
11
-0.213180
21
0.361511
31
0.0
0
LINE
8
0
6
CONTINUOUS
10
-0.190253
20
0.382884
30
0.0
11
-0.192308
21
0.382575
31
0.0
0
LINE
8
0
6
CONTINUOUS
10
-0.188761
20
0.382014
30
0.0
11
-0.190253
21
0.382884
31
0.0
0
LINE
8
0
6
CONTINUOUS
10
-0.189324
20
0.380834
30
0.0
11
-0.188761
21
0.382014
31
0.0
0
LINE
8
0
6
CONTINUOUS
10
-0.191379
20
0.380525
30
0.0
11
-0.189324
21
0.380834
31
0.0
0
LINE
8
0
6
CONTINUOUS
10
-0.192871
20
0.381396
30
0.0
11
-0.191379
21
0.380525
31
0.0
0
LINE
8
0
6
CONTINUOUS
10
-0.192308
20
0.382575
30
0.0
11
-0.192871
21
0.381396
31
0.0
0
LINE
8
0
6
CONTINUOUS
10
-0.167646
20
0.374932
30
0.0
11
-0.166153
21
0.375802
31
0.0
0
LINE
8
0
6
CONTINUOUS
10
-0.169701
20
0.375241
30
0.0
11
-0.167646
21
0.374932
31
0.0
0
LINE
8
0
6
CONTINUOUS
10
-0.170264
20
0.376420
30
0.0
11
-0.169701
21
0.375241
31
0.0
0
LINE
8
0
6
CONTINUOUS
10
-0.168771
20
0.377290
30
0.0
11
-0.170264
21
0.376420
31
0.0
0
LINE
8
0
6
CONTINUOUS
10
-0.166716
20
0.376981
30
0.0
11
-0.168771
21
0.377290
31
0.0
0
LINE
8
0
6
CONTINUOUS
10
-0.166153
20
0.375802
30
0.0
11
-0.166716
21
0.376981
31
0.0
0
LINE
8
0
6
CONTINUOUS
10
-0.193948
20
0.353700
30
0.0
11
-0.191949
21
0.353286
31
0.0
0
LINE
8
0
6
CONTINUOUS
10
-0.194323
20
0.354904
30
0.0
11
-0.193948
21
0.353700
31
0.0
0
LINE
8
0
6
CONTINUOUS
10
-0.192701
20
0.355693
30
0.0
11
-0.194323
21
0.354904
31
0.0
0
LINE
8
0
6
CONTINUOUS
10
-0.190702
20
0.355279
30
0.0
11
-0.192701
21
0.355693
31
0.0
0
LINE
8
0
6
CONTINUOUS
10
-0.190327
20
0.354075
30
0.0
11
-0.190702
21
0.355279
31
0.0
0
LINE
8
0
6
CONTINUOUS
10
-0.191949
20
0.353286
30
0.0
11
-0.190327
21
0.354075
31
0.0
0
LINE
8
0
6
CONTINUOUS
10
-0.174908
20
0.389824
30
0.0
11
-0.172815
21
0.389618
31
0.0
0
LINE
8
0
6
CONTINUOUS
10
-0.175646
20
0.390971
30
0.0
11
-0.174908
21
0.389824
31
0.0
0
LINE
8
0
6
CONTINUOUS
10
-0.174290
20
0.391912
30
0.0
11
-0.175646
21
0.390971
31
0.0
0
LINE
8
0
6
CONTINUOUS
10
-0.172196
20
0.391706
30
0.0
11
-0.174290
21
0.391912
31
0.0
0
LINE
8
0
6
CONTINUOUS
10
-0.171458
20
0.390559
30
0.0
11
-0.172196
21
0.391706
31
0.0
0
LINE
8
0
6
CONTINUOUS
10
-0.172815
20
0.389618
30
0.0
11
-0.171458
21
0.390559
31
0.0
0
LINE
8
0
6
CONTINUOUS
10
-0.191506
20
0.359321
30
0.0
11
-0.193128
21
0.358532
31
0.0
0
LINE
8
0
6
CONTINUOUS
10
-0.189507
20
0.358907
30
0.0
11
-0.191506
21
0.359321
31
0.0
0
LINE
8
0
6
CONTINUOUS
10
-0.189131
20
0.357703
30
0.0
11
-0.189507
21
0.358907
31
0.0
0
LINE
8
0
6
CONTINUOUS
10
-0.190754
20
0.356914
30
0.0
11
-0.189131
21
0.357703
31
0.0
0
LINE
8
0
6
CONTINUOUS
10
-0.192752
20
0.357329
30
0.0
11
-0.190754
21
0.356914
31
0.0
0
LINE
8
0
6
CONTINUOUS
10
-0.193128
20
0.358532
30
0.0
11
-0.192752
21
0.357329
31
0.0
0
LINE
8
0
6
CONTINUOUS
10
-0.172571
20
0.382390
30
0.0
11
-0.174693
21
0.382337
31
0.0
0
LINE
8
0
6
CONTINUOUS
10
-0.171430
20
0.381358
30
0.0
11
-0.172571
21
0.382390
31
0.0
0
LINE
8
0
6
CONTINUOUS
10
-0.172412
20
0.380273
30
0.0
11
-0.171430
21
0.381358
31
0.0
0
LINE
8
0
6
CONTINUOUS
10
-0.174534
20
0.380221
30
0.0
11
-0.172412
21
0.380273
31
0.0
0
LINE
8
0
6
CONTINUOUS
10
-0.175674
20
0.381252
30
0.0
11
-0.174534
21
0.380221
31
0.0
0
LINE
8
0
6
CONTINUOUS
10
-0.174693
20
0.382337
30
0.0
11
-0.175674
21
0.381252
31
0.0
0
LINE
8
0
6
CONTINUOUS
10
-0.161843
20
0.389437
30
0.0
11
-0.162984
21
0.388406
31
0.0
0
LINE
8
0
6
CONTINUOUS
10
-0.159721
20
0.389384
30
0.0
11
-0.161843
21
0.389437
31
0.0
0
LINE
8
0
6
CONTINUOUS
10
-0.158740
20
0.388300
30
0.0
11
-0.159721
21
0.389384
31
0.0
0
LINE
8
0
6
CONTINUOUS
10
-0.159880
20
0.387268
30
0.0
11
-0.158740
21
0.388300
31
0.0
0
LINE
8
0
6
CONTINUOUS
10
-0.162002
20
0.387321
30
0.0
11
-0.159880
21
0.387268
31
0.0
0
LINE
8
0
6
CONTINUOUS
10
-0.162984
20
0.388406
30
0.0
11
-0.162002
21
0.387321
31
0.0
0
LINE
8
0
6
CONTINUOUS
10
-0.150891
20
0.385742
30
0.0
11
-0.152384
21
0.384871
31
0.0
0
LINE
8
0
6
CONTINUOUS
10
-0.148836
20
0.385433
30
0.0
11
-0.150891
21
0.385742
31
0.0
0
LINE
8
0
6
CONTINUOUS
10
-0.148273
20
0.384253
30
0.0
11
-0.148836
21
0.385433
31
0.0
0
LINE
8
0
6
CONTINUOUS
10
-0.149766
20
0.383383
30
0.0
11
-0.148273
21
0.384253
31
0.0
0
LINE
8
0
6
CONTINUOUS
10
-0.151821
20
0.383692
30
0.0
11
-0.149766
21
0.383383
31
0.0
0
LINE
8
0
6
CONTINUOUS
10
-0.152384
20
0.384871
30
0.0
11
-0.151821
21
0.383692
31
0.0
0
LINE
8
0
6
CONTINUOUS
10
-0.212524
20
0.373116
30
0.0
11
-0.210526
21
0.372701
31
0.0
0
LINE
8
0
6
CONTINUOUS
10
-0.212900
20
0.374319
30
0.0
11
-0.212524
21
0.373116
31
0.0
0
LINE
8
0
6
CONTINUOUS
10
-0.211277
20
0.375109
30
0.0
11
-0.212900
21
0.374319
31
0.0
0
LINE
8
0
6
CONTINUOUS
10
-0.209279
20
0.374694
30
0.0
11
-0.211277
21
0.375109
31
0.0
0
LINE
8
0
6
CONTINUOUS
10
-0.208903
20
0.373490
30
0.0
11
-0.209279
21
0.374694
31
0.0
0
LINE
8
0
6
CONTINUOUS
10
-0.210526
20
0.372701
30
0.0
11
-0.208903
21
0.373490
31
0.0
0
LINE
8
0
6
CONTINUOUS
10
-0.190558
20
0.374306
30
0.0
11
-0.192454
21
0.373755
31
0.0
0
LINE
8
0
6
CONTINUOUS
10
-0.188781
20
0.373637
30
0.0
11
-0.190558
21
0.374306
31
0.0
0
LINE
8
0
6
CONTINUOUS
10
-0.188900
20
0.372416
30
0.0
11
-0.188781
21
0.373637
31
0.0
0
LINE
8
0
6
CONTINUOUS
10
-0.190796
20
0.371864
30
0.0
11
-0.188900
21
0.372416
31
0.0
0
LINE
8
0
6
CONTINUOUS
10
-0.192573
20
0.372534
30
0.0
11
-0.190796
21
0.371864
31
0.0
0
LINE
8
0
6
CONTINUOUS
10
-0.192454
20
0.373755
30
0.0
11
-0.192573
21
0.372534
31
0.0
0
LINE
8
0
6
CONTINUOUS
10
-0.143997
20
0.377271
30
0.0
11
-0.142219
21
0.377941
31
0.0
0
LINE
8
0
6
CONTINUOUS
10
-0.145893
20
0.377822
30
0.0
11
-0.143997
21
0.377271
31
0.0
0
LINE
8
0
6
CONTINUOUS
10
-0.146011
20
0.379043
30
0.0
11
-0.145893
21
0.377822
31
0.0
0
LINE
8
0
6
CONTINUOUS
10
-0.144234
20
0.379713
30
0.0
11
-0.146011
21
0.379043
31
0.0
0
LINE
8
0
6
CONTINUOUS
10
-0.142338
20
0.379162
30
0.0
11
-0.144234
21
0.379713
31
0.0
0
LINE
8
0
6
CONTINUOUS
10
-0.142219
20
0.377941
30
0.0
11
-0.142338
21
0.379162
31
0.0
0
LINE
8
0
6
CONTINUOUS
10
-0.185261
20
0.389469
30
0.0
11
-0.187383
21
0.389416
31
0.0
0
LINE
8
0
6
CONTINUOUS
10
-0.184121
20
0.388438
30
0.0
11
-0.185261
21
0.389469
31
0.0
0
LINE
8
0
6
CONTINUOUS
10
-0.185102
20
0.387353
30
0.0
11
-0.184121
21
0.388438
31
0.0
0
LINE
8
0
6
CONTINUOUS
10
-0.187224
20
0.387300
30
0.0
11
-0.185102
21
0.387353
31
0.0
0
LINE
8
0
6
CONTINUOUS
10
-0.188365
20
0.388332
30
0.0
11
-0.187224
21
0.387300
31
0.0
0
LINE
8
0
6
CONTINUOUS
10
-0.187383
20
0.389416
30
0.0
11
-0.188365
21
0.388332
31
0.0
0
LINE
8
0
6
CONTINUOUS
10
-0.164361
20
0.370096
30
0.0
11
-0.162465
21
0.369545
31
0.0
0
LINE
8
0
6
CONTINUOUS
10
-0.164480
20
0.371317
30
0.0
11
-0.164361
21
0.370096
31
0.0
0
LINE
8
0
6
CONTINUOUS
10
-0.162703
20
0.371987
30
0.0
11
-0.164480
21
0.371317
31
0.0
0
LINE
8
0
6
CONTINUOUS
10
-0.160807
20
0.371436
30
0.0
11
-0.162703
21
0.371987
31
0.0
0
LINE
8
0
6
CONTINUOUS
10
-0.160688
20
0.370215
30
0.0
11
-0.160807
21
0.371436
31
0.0
0
LINE
8
0
6
CONTINUOUS
10
-0.162465
20
0.369545
30
0.0
11
-0.160688
21
0.370215
31
0.0
0
LINE
8
0
6
CONTINUOUS
10
-0.191606
20
0.393553
30
0.0
11
-0.193729
21
0.393500
31
0.0
0
LINE
8
0
6
CONTINUOUS
10
-0.190466
20
0.392521
30
0.0
11
-0.191606
21
0.393553
31
0.0
0
LINE
8
0
6
CONTINUOUS
10
-0.191447
20
0.391436
30
0.0
11
-0.190466
21
0.392521
31
0.0
0
LINE
8
0
6
CONTINUOUS
10
-0.193570
20
0.391384
30
0.0
11
-0.191447
21
0.391436
31
0.0
0
LINE
8
0
6
CONTINUOUS
10
-0.194710
20
0.392415
30
0.0
11
-0.193570
21
0.391384
31
0.0
0
LINE
8
0
6
CONTINUOUS
10
-0.193729
20
0.393500
30
0.0
11
-0.194710
21
0.392415
31
0.0
0
LINE
8
0
6
CONTINUOUS
10
-0.204321
20
0.355113
30
0.0
11
-0.202323
21
0.355528
31
0.0
0
LINE
8
0
6
CONTINUOUS
10
-0.205944
20
0.355903
30
0.0
11
-0.204321
21
0.355113
31
0.0
0
LINE
8
0
6
CONTINUOUS
10
-0.205568
20
0.357106
30
0.0
11
-0.205944
21
0.355903
31
0.0
0
LINE
8
0
6
CONTINUOUS
10
-0.203570
20
0.357521
30
0.0
11
-0.205568
21
0.357106
31
0.0
0
LINE
8
0
6
CONTINUOUS
10
-0.201947
20
0.356732
30
0.0
11
-0.203570
21
0.357521
31
0.0
0
LINE
8
0
6
CONTINUOUS
10
-0.202323
20
0.355528
30
0.0
11
-0.201947
21
0.356732
31
0.0
0
LINE
8
0
6
CONTINUOUS
10
-0.180821
20
0.352521
30
0.0
11
-0.182444
21
0.351732
31
0.0
0
LINE
8
0
6
CONTINUOUS
10
-0.178823
20
0.352106
30
0.0
11
-0.180821
21
0.352521
31
0.0
0
LINE
8
0
6
CONTINUOUS
10
-0.178447
20
0.350903
30
0.0
11
-0.178823
21
0.352106
31
0.0
0
LINE
8
0
6
CONTINUOUS
10
-0.180069
20
0.350113
30
0.0
11
-0.178447
21
0.350903
31
0.0
0
LINE
8
0
6
CONTINUOUS
10
-0.182068
20
0.350528
30
0.0
11
-0.180069
21
0.350113
31
0.0
0
LINE
8
0
6
CONTINUOUS
10
-0.182444
20
0.351732
30
0.0
11
-0.182068
21
0.350528
31
0.0
0
LINE
8
0
6
CONTINUOUS
10
-0.217078
20
0.385575
30
0.0
11
-0.217197
21
0.384354
31
0.0
0
LINE
8
0
6
CONTINUOUS
10
-0.215182
20
0.386126
30
0.0
11
-0.217078
21
0.385575
31
0.0
0
LINE
8
0
6
CONTINUOUS
10
-0.213405
20
0.385456
30
0.0
11
-0.215182
21
0.386126
31
0.0
0
LINE
8
0
6
CONTINUOUS
10
-0.213524
20
0.384235
30
0.0
11
-0.213405
21
0.385456
31
0.0
0
LINE
8
0
6
CONTINUOUS
10
-0.215420
20
0.383684
30
0.0
11
-0.213524
21
0.384235
31
0.0
0
LINE
8
0
6
CONTINUOUS
10
-0.217197
20
0.384354
30
0.0
11
-0.215420
21
0.383684
31
0.0
0
LINE
8
0
6
CONTINUOUS
10
-0.138971
20
0.392411
30
0.0
11
-0.140464
21
0.391541
31
0.0
0
LINE
8
0
6
CONTINUOUS
10
-0.136916
20
0.392102
30
0.0
11
-0.138971
21
0.392411
31
0.0
0
LINE
8
0
6
CONTINUOUS
10
-0.136353
20
0.390923
30
0.0
11
-0.136916
21
0.392102
31
0.0
0
LINE
8
0
6
CONTINUOUS
10
-0.137846
20
0.390053
30
0.0
11
-0.136353
21
0.390923
31
0.0
0
LINE
8
0
6
CONTINUOUS
10
-0.139901
20
0.390362
30
0.0
11
-0.137846
21
0.390053
31
0.0
0
LINE
8
0
6
CONTINUOUS
10
-0.140464
20
0.391541
30
0.0
11
-0.139901
21
0.390362
31
0.0
0
LINE
8
0
6
CONTINUOUS
10
-0.193145
20
0.350221
30
0.0
11
-0.191522
21
0.351010
31
0.0
0
LINE
8
0
6
CONTINUOUS
10
-0.195143
20
0.350635
30
0.0
11
-0.193145
21
0.350221
31
0.0
0
LINE
8
0
6
CONTINUOUS
10
-0.195519
20
0.351839
30
0.0
11
-0.195143
21
0.350635
31
0.0
0
LINE
8
0
6
CONTINUOUS
10
-0.193896
20
0.352628
30
0.0
11
-0.195519
21
0.351839
31
0.0
0
LINE
8
0
6
CONTINUOUS
10
-0.191898
20
0.352214
30
0.0
11
-0.193896
21
0.352628
31
0.0
0
LINE
8
0
6
CONTINUOUS
10
-0.191522
20
0.351010
30
0.0
11
-0.191898
21
0.352214
31
0.0
0
LINE
8
0
6
CONTINUOUS
10
-0.147594
20
0.362982
30
0.0
11
-0.145596
21
0.362567
31
0.0
0
LINE
8
0
6
CONTINUOUS
10
-0.147970
20
0.364185
30
0.0
11
-0.147594
21
0.362982
31
0.0
0
LINE
8
0
6
CONTINUOUS
10
-0.146347
20
0.364974
30
0.0
11
-0.147970
21
0.364185
31
0.0
0
LINE
8
0
6
CONTINUOUS
10
-0.144349
20
0.364560
30
0.0
11
-0.146347
21
0.364974
31
0.0
0
LINE
8
0
6
CONTINUOUS
10
-0.143973
20
0.363356
30
0.0
11
-0.144349
21
0.364560
31
0.0
0
LINE
8
0
6
CONTINUOUS
10
-0.145596
20
0.362567
30
0.0
11
-0.143973
21
0.363356
31
0.0
0
LINE
8
0
6
CONTINUOUS
10
-0.133580
20
0.384099
30
0.0
11
-0.131684
21
0.383548
31
0.0
0
LINE
8
0
6
CONTINUOUS
10
-0.133699
20
0.385320
30
0.0
11
-0.133580
21
0.384099
31
0.0
0
LINE
8
0
6
CONTINUOUS
10
-0.131922
20
0.385990
30
0.0
11
-0.133699
21
0.385320
31
0.0
0
LINE
8
0
6
CONTINUOUS
10
-0.130026
20
0.385439
30
0.0
11
-0.131922
21
0.385990
31
0.0
0
LINE
8
0
6
CONTINUOUS
10
-0.129907
20
0.384217
30
0.0
11
-0.130026
21
0.385439
31
0.0
0
LINE
8
0
6
CONTINUOUS
10
-0.131684
20
0.383548
30
0.0
11
-0.129907
21
0.384217
31
0.0
0
LINE
8
0
6
CONTINUOUS
10
-0.149153
20
0.397506
30
0.0
11
-0.150293
21
0.396474
31
0.0
0
LINE
8
0
6
CONTINUOUS
10
-0.147031
20
0.397453
30
0.0
11
-0.149153
21
0.397506
31
0.0
0
LINE
8
0
6
CONTINUOUS
10
-0.146049
20
0.396369
30
0.0
11
-0.147031
21
0.397453
31
0.0
0
LINE
8
0
6
CONTINUOUS
10
-0.147190
20
0.395337
30
0.0
11
-0.146049
21
0.396369
31
0.0
0
LINE
8
0
6
CONTINUOUS
10
-0.149312
20
0.395390
30
0.0
11
-0.147190
21
0.395337
31
0.0
0
LINE
8
0
6
CONTINUOUS
10
-0.150293
20
0.396474
30
0.0
11
-0.149312
21
0.395390
31
0.0
0
LINE
8
0
6
CONTINUOUS
10
-0.197339
20
0.383452
30
0.0
11
-0.195284
21
0.383761
31
0.0
0
LINE
8
0
6
CONTINUOUS
10
-0.198831
20
0.384323
30
0.0
11
-0.197339
21
0.383452
31
0.0
0
LINE
8
0
6
CONTINUOUS
10
-0.198268
20
0.385502
30
0.0
11
-0.198831
21
0.384323
31
0.0
0
LINE
8
0
6
CONTINUOUS
10
-0.196213
20
0.385811
30
0.0
11
-0.198268
21
0.385502
31
0.0
0
LINE
8
0
6
CONTINUOUS
10
-0.194721
20
0.384941
30
0.0
11
-0.196213
21
0.385811
31
0.0
0
LINE
8
0
6
CONTINUOUS
10
-0.195284
20
0.383761
30
0.0
11
-0.194721
21
0.384941
31
0.0
0
LINE
8
0
6
CONTINUOUS
10
-0.144931
20
0.389155
30
0.0
11
-0.146424
21
0.388285
31
0.0
0
LINE
8
0
6
CONTINUOUS
10
-0.142876
20
0.388846
30
0.0
11
-0.144931
21
0.389155
31
0.0
0
LINE
8
0
6
CONTINUOUS
10
-0.142313
20
0.387667
30
0.0
11
-0.142876
21
0.388846
31
0.0
0
LINE
8
0
6
CONTINUOUS
10
-0.143806
20
0.386797
30
0.0
11
-0.142313
21
0.387667
31
0.0
0
LINE
8
0
6
CONTINUOUS
10
-0.145861
20
0.387106
30
0.0
11
-0.143806
21
0.386797
31
0.0
0
LINE
8
0
6
CONTINUOUS
10
-0.146424
20
0.388285
30
0.0
11
-0.145861
21
0.387106
31
0.0
0
LINE
8
0
6
CONTINUOUS
10
-0.186298
20
0.371466
30
0.0
11
-0.186417
21
0.370245
31
0.0
0
LINE
8
0
6
CONTINUOUS
10
-0.184402
20
0.372018
30
0.0
11
-0.186298
21
0.371466
31
0.0
0
LINE
8
0
6
CONTINUOUS
10
-0.182625
20
0.371348
30
0.0
11
-0.184402
21
0.372018
31
0.0
0
LINE
8
0
6
CONTINUOUS
10
-0.182743
20
0.370127
30
0.0
11
-0.182625
21
0.371348
31
0.0
0
LINE
8
0
6
CONTINUOUS
10
-0.184639
20
0.369575
30
0.0
11
-0.182743
21
0.370127
31
0.0
0
LINE
8
0
6
CONTINUOUS
10
-0.186417
20
0.370245
30
0.0
11
-0.184639
21
0.369575
31
0.0
0
LINE
8
0
6
CONTINUOUS
10
-0.188364
20
0.364548
30
0.0
11
-0.186741
21
0.365338
31
0.0
0
LINE
8
0
6
CONTINUOUS
10
-0.190362
20
0.364963
30
0.0
11
-0.188364
21
0.364548
31
0.0
0
LINE
8
0
6
CONTINUOUS
10
-0.190738
20
0.366167
30
0.0
11
-0.190362
21
0.364963
31
0.0
0
LINE
8
0
6
CONTINUOUS
10
-0.189115
20
0.366956
30
0.0
11
-0.190738
21
0.366167
31
0.0
0
LINE
8
0
6
CONTINUOUS
10
-0.187117
20
0.366541
30
0.0
11
-0.189115
21
0.366956
31
0.0
0
LINE
8
0
6
CONTINUOUS
10
-0.186741
20
0.365338
30
0.0
11
-0.187117
21
0.366541
31
0.0
0
LINE
8
0
6
CONTINUOUS
10
-0.156402
20
0.355295
30
0.0
11
-0.156778
21
0.354091
31
0.0
0
LINE
8
0
6
CONTINUOUS
10
-0.154404
20
0.355710
30
0.0
11
-0.156402
21
0.355295
31
0.0
0
LINE
8
0
6
CONTINUOUS
10
-0.152781
20
0.354920
30
0.0
11
-0.154404
21
0.355710
31
0.0
0
LINE
8
0
6
CONTINUOUS
10
-0.153157
20
0.353717
30
0.0
11
-0.152781
21
0.354920
31
0.0
0
LINE
8
0
6
CONTINUOUS
10
-0.155155
20
0.353302
30
0.0
11
-0.153157
21
0.353717
31
0.0
0
LINE
8
0
6
CONTINUOUS
10
-0.156778
20
0.354091
30
0.0
11
-0.155155
21
0.353302
31
0.0
0
LINE
8
0
6
CONTINUOUS
10
-0.166424
20
0.396172
30
0.0
11
-0.168518
21
0.395967
31
0.0
0
LINE
8
0
6
CONTINUOUS
10
-0.165068
20
0.395231
30
0.0
11
-0.166424
21
0.396172
31
0.0
0
LINE
8
0
6
CONTINUOUS
10
-0.165806
20
0.394084
30
0.0
11
-0.165068
21
0.395231
31
0.0
0
LINE
8
0
6
CONTINUOUS
10
-0.167899
20
0.393879
30
0.0
11
-0.165806
21
0.394084
31
0.0
0
LINE
8
0
6
CONTINUOUS
10
-0.169256
20
0.394820
30
0.0
11
-0.167899
21
0.393879
31
0.0
0
LINE
8
0
6
CONTINUOUS
10
-0.168518
20
0.395967
30
0.0
11
-0.169256
21
0.394820
31
0.0
0
LINE
8
0
6
CONTINUOUS
10
-0.143215
20
0.372158
30
0.0
11
-0.145213
21
0.371744
31
0.0
0
LINE
8
0
6
CONTINUOUS
10
-0.141592
20
0.371369
30
0.0
11
-0.143215
21
0.372158
31
0.0
0
LINE
8
0
6
CONTINUOUS
10
-0.141968
20
0.370165
30
0.0
11
-0.141592
21
0.371369
31
0.0
0
LINE
8
0
6
CONTINUOUS
10
-0.143966
20
0.369751
30
0.0
11
-0.141968
21
0.370165
31
0.0
0
LINE
8
0
6
CONTINUOUS
10
-0.145589
20
0.370540
30
0.0
11
-0.143966
21
0.369751
31
0.0
0
LINE
8
0
6
CONTINUOUS
10
-0.145213
20
0.371744
30
0.0
11
-0.145589
21
0.370540
31
0.0
0
LINE
8
0
6
CONTINUOUS
10
-0.196502
20
0.369539
30
0.0
11
-0.198125
21
0.368750
31
0.0
0
LINE
8
0
6
CONTINUOUS
10
-0.194504
20
0.369124
30
0.0
11
-0.196502
21
0.369539
31
0.0
0
LINE
8
0
6
CONTINUOUS
10
-0.194128
20
0.367920
30
0.0
11
-0.194504
21
0.369124
31
0.0
0
LINE
8
0
6
CONTINUOUS
10
-0.195751
20
0.367131
30
0.0
11
-0.194128
21
0.367920
31
0.0
0
LINE
8
0
6
CONTINUOUS
10
-0.197749
20
0.367546
30
0.0
11
-0.195751
21
0.367131
31
0.0
0
LINE
8
0
6
CONTINUOUS
10
-0.198125
20
0.368750
30
0.0
11
-0.197749
21
0.367546
31
0.0
0
LINE
8
0
6
CONTINUOUS
10
-0.185419
20
0.377622
30
0.0
11
-0.183363
21
0.377931
31
0.0
0
LINE
8
0
6
CONTINUOUS
10
-0.186911
20
0.378492
30
0.0
11
-0.185419
21
0.377622
31
0.0
0
LINE
8
0
6
CONTINUOUS
10
-0.186348
20
0.379671
30
0.0
11
-0.186911
21
0.378492
31
0.0
0
LINE
8
0
6
CONTINUOUS
10
-0.184293
20
0.379980
30
0.0
11
-0.186348
21
0.379671
31
0.0
0
LINE
8
0
6
CONTINUOUS
10
-0.182801
20
0.379110
30
0.0
11
-0.184293
21
0.379980
31
0.0
0
LINE
8
0
6
CONTINUOUS
10
-0.183363
20
0.377931
30
0.0
11
-0.182801
21
0.379110
31
0.0
0
LINE
8
0
6
CONTINUOUS
10
-0.168021
20
0.360112
30
0.0
11
-0.166023
21
0.360526
31
0.0
0
LINE
8
0
6
CONTINUOUS
10
-0.169644
20
0.360901
30
0.0
11
-0.168021
21
0.360112
31
0.0
0
LINE
8
0
6
CONTINUOUS
10
-0.169268
20
0.362105
30
0.0
11
-0.169644
21
0.360901
31
0.0
0
LINE
8
0
6
CONTINUOUS
10
-0.167270
20
0.362519
30
0.0
11
-0.169268
21
0.362105
31
0.0
0
LINE
8
0
6
CONTINUOUS
10
-0.165647
20
0.361730
30
0.0
11
-0.167270
21
0.362519
31
0.0
0
LINE
8
0
6
CONTINUOUS
10
-0.166023
20
0.360526
30
0.0
11
-0.165647
21
0.361730
31
0.0
0
LINE
8
0
6
CONTINUOUS
10
-0.144782
20
0.355356
30
0.0
11
-0.142783
21
0.354942
31
0.0
0
LINE
8
0
6
CONTINUOUS
10
-0.145157
20
0.356560
30
0.0
11
-0.144782
21
0.355356
31
0.0
0
LINE
8
0
6
CONTINUOUS
10
-0.143535
20
0.357349
30
0.0
11
-0.145157
21
0.356560
31
0.0
0
LINE
8
0
6
CONTINUOUS
10
-0.141536
20
0.356935
30
0.0
11
-0.143535
21
0.357349
31
0.0
0
LINE
8
0
6
CONTINUOUS
10
-0.141161
20
0.355731
30
0.0
11
-0.141536
21
0.356935
31
0.0
0
LINE
8
0
6
CONTINUOUS
10
-0.142783
20
0.354942
30
0.0
11
-0.141161
21
0.355731
31
0.0
0
LINE
8
0
6
CONTINUOUS
10
-0.135827
20
0.374995
30
0.0
11
-0.137826
21
0.374581
31
0.0
0
LINE
8
0
6
CONTINUOUS
10
-0.134205
20
0.374206
30
0.0
11
-0.135827
21
0.374995
31
0.0
0
LINE
8
0
6
CONTINUOUS
10
-0.134580
20
0.373003
30
0.0
11
-0.134205
21
0.374206
31
0.0
0
LINE
8
0
6
CONTINUOUS
10
-0.136579
20
0.372588
30
0.0
11
-0.134580
21
0.373003
31
0.0
0
LINE
8
0
6
CONTINUOUS
10
-0.138201
20
0.373377
30
0.0
11
-0.136579
21
0.372588
31
0.0
0
LINE
8
0
6
CONTINUOUS
10
-0.137826
20
0.374581
30
0.0
11
-0.138201
21
0.373377
31
0.0
0
LINE
8
0
6
CONTINUOUS
10
-0.202870
20
0.379810
30
0.0
11
-0.204766
21
0.379259
31
0.0
0
LINE
8
0
6
CONTINUOUS
10
-0.201093
20
0.379141
30
0.0
11
-0.202870
21
0.379810
31
0.0
0
LINE
8
0
6
CONTINUOUS
10
-0.201212
20
0.377919
30
0.0
11
-0.201093
21
0.379141
31
0.0
0
LINE
8
0
6
CONTINUOUS
10
-0.203108
20
0.377368
30
0.0
11
-0.201212
21
0.377919
31
0.0
0
LINE
8
0
6
CONTINUOUS
10
-0.204885
20
0.378038
30
0.0
11
-0.203108
21
0.377368
31
0.0
0
LINE
8
0
6
CONTINUOUS
10
-0.204766
20
0.379259
30
0.0
11
-0.204885
21
0.378038
31
0.0
0
LINE
8
0
6
CONTINUOUS
10
-0.130438
20
0.378135
30
0.0
11
-0.130814
21
0.376932
31
0.0
0
LINE
8
0
6
CONTINUOUS
10
-0.128440
20
0.378550
30
0.0
11
-0.130438
21
0.378135
31
0.0
0
LINE
8
0
6
CONTINUOUS
10
-0.126817
20
0.377761
30
0.0
11
-0.128440
21
0.378550
31
0.0
0
LINE
8
0
6
CONTINUOUS
10
-0.127193
20
0.376557
30
0.0
11
-0.126817
21
0.377761
31
0.0
0
LINE
8
0
6
CONTINUOUS
10
-0.129191
20
0.376142
30
0.0
11
-0.127193
21
0.376557
31
0.0
0
LINE
8
0
6
CONTINUOUS
10
-0.130814
20
0.376932
30
0.0
11
-0.129191
21
0.376142
31
0.0
0
LINE
8
0
6
CONTINUOUS
10
-0.179412
20
0.356637
30
0.0
11
-0.177789
21
0.357426
31
0.0
0
LINE
8
0
6
CONTINUOUS
10
-0.181410
20
0.357051
30
0.0
11
-0.179412
21
0.356637
31
0.0
0
LINE
8
0
6
CONTINUOUS
10
-0.181786
20
0.358255
30
0.0
11
-0.181410
21
0.357051
31
0.0
0
LINE
8
0
6
CONTINUOUS
10
-0.180163
20
0.359044
30
0.0
11
-0.181786
21
0.358255
31
0.0
0
LINE
8
0
6
CONTINUOUS
10
-0.178165
20
0.358630
30
0.0
11
-0.180163
21
0.359044
31
0.0
0
LINE
8
0
6
CONTINUOUS
10
-0.177789
20
0.357426
30
0.0
11
-0.178165
21
0.358630
31
0.0
0
LINE
8
0
6
CONTINUOUS
10
-0.166941
20
0.359036
30
0.0
11
-0.168939
21
0.358621
31
0.0
0
LINE
8
0
6
CONTINUOUS
10
-0.165318
20
0.358247
30
0.0
11
-0.166941
21
0.359036
31
0.0
0
LINE
8
0
6
CONTINUOUS
10
-0.165694
20
0.357043
30
0.0
11
-0.165318
21
0.358247
31
0.0
0
LINE
8
0
6
CONTINUOUS
10
-0.167692
20
0.356629
30
0.0
11
-0.165694
21
0.357043
31
0.0
0
LINE
8
0
6
CONTINUOUS
10
-0.169315
20
0.357418
30
0.0
11
-0.167692
21
0.356629
31
0.0
0
LINE
8
0
6
CONTINUOUS
10
-0.168939
20
0.358621
30
0.0
11
-0.169315
21
0.357418
31
0.0
0
LINE
8
0
6
CONTINUOUS
10
-0.181739
20
0.353617
30
0.0
11
-0.179741
21
0.353202
31
0.0
0
LINE
8
0
6
CONTINUOUS
10
-0.182115
20
0.354820
30
0.0
11
-0.181739
21
0.353617
31
0.0
0
LINE
8
0
6
CONTINUOUS
10
-0.180492
20
0.355610
30
0.0
11
-0.182115
21
0.354820
31
0.0
0
LINE
8
0
6
CONTINUOUS
10
-0.178494
20
0.355195
30
0.0
11
-0.180492
21
0.355610
31
0.0
0
LINE
8
0
6
CONTINUOUS
10
-0.178118
20
0.353991
30
0.0
11
-0.178494
21
0.355195
31
0.0
0
LINE
8
0
6
CONTINUOUS
10
-0.179741
20
0.353202
30
0.0
11
-0.178118
21
0.353991
31
0.0
0
LINE
8
0
6
CONTINUOUS
10
-0.208632
20
0.367581
30
0.0
11
-0.210630
21
0.367167
31
0.0
0
LINE
8
0
6
CONTINUOUS
10
-0.207010
20
0.366792
30
0.0
11
-0.208632
21
0.367581
31
0.0
0
LINE
8
0
6
CONTINUOUS
10
-0.207385
20
0.365589
30
0.0
11
-0.207010
21
0.366792
31
0.0
0
LINE
8
0
6
CONTINUOUS
10
-0.209384
20
0.365174
30
0.0
11
-0.207385
21
0.365589
31
0.0
0
LINE
8
0
6
CONTINUOUS
10
-0.211006
20
0.365963
30
0.0
11
-0.209384
21
0.365174
31
0.0
0
LINE
8
0
6
CONTINUOUS
10
-0.210630
20
0.367167
30
0.0
11
-0.211006
21
0.365963
31
0.0
0
LINE
8
0
6
CONTINUOUS
10
-0.158205
20
0.372360
30
0.0
11
-0.156309
21
0.371809
31
0.0
0
LINE
8
0
6
CONTINUOUS
10
-0.158324
20
0.373581
30
0.0
11
-0.158205
21
0.372360
31
0.0
0
LINE
8
0
6
CONTINUOUS
10
-0.156546
20
0.374251
30
0.0
11
-0.158324
21
0.373581
31
0.0
0
LINE
8
0
6
CONTINUOUS
10
-0.154650
20
0.373700
30
0.0
11
-0.156546
21
0.374251
31
0.0
0
LINE
8
0
6
CONTINUOUS
10
-0.154532
20
0.372479
30
0.0
11
-0.154650
21
0.373700
31
0.0
0
LINE
8
0
6
CONTINUOUS
10
-0.156309
20
0.371809
30
0.0
11
-0.154532
21
0.372479
31
0.0
0
LINE
8
0
6
CONTINUOUS
10
-0.162128
20
0.400455
30
0.0
11
-0.162865
21
0.399308
31
0.0
0
LINE
8
0
6
CONTINUOUS
10
-0.160034
20
0.400661
30
0.0
11
-0.162128
21
0.400455
31
0.0
0
LINE
8
0
6
CONTINUOUS
10
-0.158677
20
0.399719
30
0.0
11
-0.160034
21
0.400661
31
0.0
0
LINE
8
0
6
CONTINUOUS
10
-0.159415
20
0.398573
30
0.0
11
-0.158677
21
0.399719
31
0.0
0
LINE
8
0
6
CONTINUOUS
10
-0.161509
20
0.398367
30
0.0
11
-0.159415
21
0.398573
31
0.0
0
LINE
8
0
6
CONTINUOUS
10
-0.162865
20
0.399308
30
0.0
11
-0.161509
21
0.398367
31
0.0
0
LINE
8
0
6
CONTINUOUS
10
-0.202756
20
0.364633
30
0.0
11
-0.203131
21
0.363429
31
0.0
0
LINE
8
0
6
CONTINUOUS
10
-0.200757
20
0.365047
30
0.0
11
-0.202756
21
0.364633
31
0.0
0
LINE
8
0
6
CONTINUOUS
10
-0.199135
20
0.364258
30
0.0
11
-0.200757
21
0.365047
31
0.0
0
LINE
8
0
6
CONTINUOUS
10
-0.199510
20
0.363054
30
0.0
11
-0.199135
21
0.364258
31
0.0
0
LINE
8
0
6
CONTINUOUS
10
-0.201509
20
0.362640
30
0.0
11
-0.199510
21
0.363054
31
0.0
0
LINE
8
0
6
CONTINUOUS
10
-0.203131
20
0.363429
30
0.0
11
-0.201509
21
0.362640
31
0.0
0
LINE
8
0
6
CONTINUOUS
10
-0.197952
20
0.397580
30
0.0
11
-0.200074
21
0.397527
31
0.0
0
LINE
8
0
6
CONTINUOUS
10
-0.196811
20
0.396548
30
0.0
11
-0.197952
21
0.397580
31
0.0
0
LINE
8
0
6
CONTINUOUS
10
-0.197793
20
0.395464
30
0.0
11
-0.196811
21
0.396548
31
0.0
0
LINE
8
0
6
CONTINUOUS
10
-0.199915
20
0.395411
30
0.0
11
-0.197793
21
0.395464
31
0.0
0
LINE
8
0
6
CONTINUOUS
10
-0.201055
20
0.396443
30
0.0
11
-0.199915
21
0.395411
31
0.0
0
LINE
8
0
6
CONTINUOUS
10
-0.200074
20
0.397527
30
0.0
11
-0.201055
21
0.396443
31
0.0
0
LINE
8
0
6
CONTINUOUS
10
-0.139719
20
0.365484
30
0.0
11
-0.137721
21
0.365069
31
0.0
0
LINE
8
0
6
CONTINUOUS
10
-0.140095
20
0.366687
30
0.0
11
-0.139719
21
0.365484
31
0.0
0
LINE
8
0
6
CONTINUOUS
10
-0.138472
20
0.367476
30
0.0
11
-0.140095
21
0.366687
31
0.0
0
LINE
8
0
6
CONTINUOUS
10
-0.136474
20
0.367062
30
0.0
11
-0.138472
21
0.367476
31
0.0
0
LINE
8
0
6
CONTINUOUS
10
-0.136098
20
0.365858
30
0.0
11
-0.136474
21
0.367062
31
0.0
0
LINE
8
0
6
CONTINUOUS
10
-0.137721
20
0.365069
30
0.0
11
-0.136098
21
0.365858
31
0.0
0
LINE
8
0
6
CONTINUOUS
10
-0.179083
20
0.360131
30
0.0
11
-0.177461
21
0.360920
31
0.0
0
LINE
8
0
6
CONTINUOUS
10
-0.181082
20
0.360545
30
0.0
11
-0.179083
21
0.360131
31
0.0
0
LINE
8
0
6
CONTINUOUS
10
-0.181457
20
0.361749
30
0.0
11
-0.181082
21
0.360545
31
0.0
0
LINE
8
0
6
CONTINUOUS
10
-0.179835
20
0.362538
30
0.0
11
-0.181457
21
0.361749
31
0.0
0
LINE
8
0
6
CONTINUOUS
10
-0.177836
20
0.362124
30
0.0
11
-0.179835
21
0.362538
31
0.0
0
LINE
8
0
6
CONTINUOUS
10
-0.177461
20
0.360920
30
0.0
11
-0.177836
21
0.362124
31
0.0
0
LINE
8
0
6
CONTINUOUS
10
-0.204724
20
0.360622
30
0.0
11
-0.205100
21
0.359418
31
0.0
0
LINE
8
0
6
CONTINUOUS
10
-0.202726
20
0.361036
30
0.0
11
-0.204724
21
0.360622
31
0.0
0
LINE
8
0
6
CONTINUOUS
10
-0.201103
20
0.360247
30
0.0
11
-0.202726
21
0.361036
31
0.0
0
LINE
8
0
6
CONTINUOUS
10
-0.201479
20
0.359043
30
0.0
11
-0.201103
21
0.360247
31
0.0
0
LINE
8
0
6
CONTINUOUS
10
-0.203478
20
0.358629
30
0.0
11
-0.201479
21
0.359043
31
0.0
0
LINE
8
0
6
CONTINUOUS
10
-0.205100
20
0.359418
30
0.0
11
-0.203478
21
0.358629
31
0.0
0
LINE
8
0
6
CONTINUOUS
10
-0.167598
20
0.365997
30
0.0
11
-0.169597
21
0.365582
31
0.0
0
LINE
8
0
6
CONTINUOUS
10
-0.165976
20
0.365207
30
0.0
11
-0.167598
21
0.365997
31
0.0
0
LINE
8
0
6
CONTINUOUS
10
-0.166351
20
0.364004
30
0.0
11
-0.165976
21
0.365207
31
0.0
0
LINE
8
0
6
CONTINUOUS
10
-0.168350
20
0.363589
30
0.0
11
-0.166351
21
0.364004
31
0.0
0
LINE
8
0
6
CONTINUOUS
10
-0.169972
20
0.364378
30
0.0
11
-0.168350
21
0.363589
31
0.0
0
LINE
8
0
6
CONTINUOUS
10
-0.169597
20
0.365582
30
0.0
11
-0.169972
21
0.364378
31
0.0
0
LINE
8
0
6
CONTINUOUS
10
-0.157781
20
0.380775
30
0.0
11
-0.155726
21
0.380466
31
0.0
0
LINE
8
0
6
CONTINUOUS
10
-0.158344
20
0.381954
30
0.0
11
-0.157781
21
0.380775
31
0.0
0
LINE
8
0
6
CONTINUOUS
10
-0.156851
20
0.382825
30
0.0
11
-0.158344
21
0.381954
31
0.0
0
LINE
8
0
6
CONTINUOUS
10
-0.154796
20
0.382516
30
0.0
11
-0.156851
21
0.382825
31
0.0
0
LINE
8
0
6
CONTINUOUS
10
-0.154233
20
0.381336
30
0.0
11
-0.154796
21
0.382516
31
0.0
0
LINE
8
0
6
CONTINUOUS
10
-0.155726
20
0.380466
30
0.0
11
-0.154233
21
0.381336
31
0.0
0
LINE
8
0
6
CONTINUOUS
10
-0.155599
20
0.359332
30
0.0
11
-0.157597
21
0.358917
31
0.0
0
LINE
8
0
6
CONTINUOUS
10
-0.153976
20
0.358543
30
0.0
11
-0.155599
21
0.359332
31
0.0
0
LINE
8
0
6
CONTINUOUS
10
-0.154352
20
0.357339
30
0.0
11
-0.153976
21
0.358543
31
0.0
0
LINE
8
0
6
CONTINUOUS
10
-0.156350
20
0.356924
30
0.0
11
-0.154352
21
0.357339
31
0.0
0
LINE
8
0
6
CONTINUOUS
10
-0.157973
20
0.357714
30
0.0
11
-0.156350
21
0.356924
31
0.0
0
LINE
8
0
6
CONTINUOUS
10
-0.157597
20
0.358917
30
0.0
11
-0.157973
21
0.357714
31
0.0
0
LINE
8
0
6
CONTINUOUS
10
-0.130035
20
0.370909
30
0.0
11
-0.131658
21
0.370120
31
0.0
0
LINE
8
0
6
CONTINUOUS
10
-0.128037
20
0.370495
30
0.0
11
-0.130035
21
0.370909
31
0.0
0
LINE
8
0
6
CONTINUOUS
10
-0.127661
20
0.369291
30
0.0
11
-0.128037
21
0.370495
31
0.0
0
LINE
8
0
6
CONTINUOUS
10
-0.129284
20
0.368502
30
0.0
11
-0.127661
21
0.369291
31
0.0
0
LINE
8
0
6
CONTINUOUS
10
-0.131282
20
0.368916
30
0.0
11
-0.129284
21
0.368502
31
0.0
0
LINE
8
0
6
CONTINUOUS
10
-0.131658
20
0.370120
30
0.0
11
-0.131282
21
0.368916
31
0.0
0
LINE
8
0
6
CONTINUOUS
10
-0.217913
20
0.376286
30
0.0
11
-0.216291
21
0.377075
31
0.0
0
LINE
8
0
6
CONTINUOUS
10
-0.219911
20
0.376700
30
0.0
11
-0.217913
21
0.376286
31
0.0
0
LINE
8
0
6
CONTINUOUS
10
-0.220287
20
0.377904
30
0.0
11
-0.219911
21
0.376700
31
0.0
0
LINE
8
0
6
CONTINUOUS
10
-0.218665
20
0.378693
30
0.0
11
-0.220287
21
0.377904
31
0.0
0
LINE
8
0
6
CONTINUOUS
10
-0.216666
20
0.378279
30
0.0
11
-0.218665
21
0.378693
31
0.0
0
LINE
8
0
6
CONTINUOUS
10
-0.216291
20
0.377075
30
0.0
11
-0.216666
21
0.378279
31
0.0
0
LINE
8
0
6
CONTINUOUS
10
-0.155207
20
0.351777
30
0.0
11
-0.155582
21
0.350574
31
0.0
0
LINE
8
0
6
CONTINUOUS
10
-0.153208
20
0.352192
30
0.0
11
-0.155207
21
0.351777
31
0.0
0
LINE
8
0
6
CONTINUOUS
10
-0.151586
20
0.351403
30
0.0
11
-0.153208
21
0.352192
31
0.0
0
LINE
8
0
6
CONTINUOUS
10
-0.151961
20
0.350199
30
0.0
11
-0.151586
21
0.351403
31
0.0
0
LINE
8
0
6
CONTINUOUS
10
-0.153960
20
0.349784
30
0.0
11
-0.151961
21
0.350199
31
0.0
0
LINE
8
0
6
CONTINUOUS
10
-0.155582
20
0.350574
30
0.0
11
-0.153960
21
0.349784
31
0.0
0
LINE
8
0
6
CONTINUOUS
10
-0.180388
20
0.376999
30
0.0
11
-0.180951
21
0.375820
31
0.0
0
LINE
8
0
6
CONTINUOUS
10
-0.178333
20
0.377308
30
0.0
11
-0.180388
21
0.376999
31
0.0
0
LINE
8
0
6
CONTINUOUS
10
-0.176841
20
0.376438
30
0.0
11
-0.178333
21
0.377308
31
0.0
0
LINE
8
0
6
CONTINUOUS
10
-0.177403
20
0.375258
30
0.0
11
-0.176841
21
0.376438
31
0.0
0
LINE
8
0
6
CONTINUOUS
10
-0.179459
20
0.374949
30
0.0
11
-0.177403
21
0.375258
31
0.0
0
LINE
8
0
6
CONTINUOUS
10
-0.180951
20
0.375820
30
0.0
11
-0.179459
21
0.374949
31
0.0
0
LINE
8
0
6
CONTINUOUS
10
-0.224909
20
0.370347
30
0.0
11
-0.224628
21
0.369273
31
0.0
0
LINE
8
0
6
CONTINUOUS
10
-0.225933
20
0.376015
30
0.0
11
-0.224909
21
0.370347
31
0.0
0
LINE
8
0
6
CONTINUOUS
10
-0.187919
20
0.292006
30
0.0
11
-0.186390
21
0.261919
31
0.0
0
LINE
8
0
6
CONTINUOUS
10
-0.189053
20
0.315005
30
0.0
11
-0.187919
21
0.292006
31
0.0
0
LINE
8
0
6
CONTINUOUS
10
-0.190125
20
0.333099
30
0.0
11
-0.189053
21
0.315005
31
0.0
0
LINE
8
0
6
CONTINUOUS
10
-0.190775
20
0.341201
30
0.0
11
-0.190125
21
0.333099
31
0.0
0
LINE
8
0
6
CONTINUOUS
10
-0.192286
20
0.344319
30
0.0
11
-0.189582
21
0.338810
31
0.0
0
LINE
8
0
6
CONTINUOUS
10
-0.219823
20
0.411539
30
0.0
11
-0.222377
21
0.408399
31
0.0
0
LINE
8
0
6
CONTINUOUS
10
-0.222377
20
0.408399
30
0.0
11
-0.223280
21
0.407174
31
0.0
0
LINE
8
0
6
CONTINUOUS
10
-0.226466
20
0.398070
30
0.0
11
-0.227020
21
0.393099
31
0.0
0
LINE
8
0
6
CONTINUOUS
10
-0.172781
20
0.423119
30
0.0
11
-0.185388
21
0.422786
31
0.0
0
LINE
8
0
6
CONTINUOUS
10
-0.185388
20
0.422786
30
0.0
11
-0.197757
21
0.421524
31
0.0
0
LINE
8
0
6
CONTINUOUS
10
-0.197757
20
0.421524
30
0.0
11
-0.206718
21
0.419713
31
0.0
0
LINE
8
0
6
CONTINUOUS
10
-0.218906
20
0.412626
30
0.0
11
-0.219823
21
0.411539
31
0.0
0
LINE
8
0
6
CONTINUOUS
10
-0.213514
20
0.416586
30
0.0
11
-0.218906
21
0.412626
31
0.0
0
LINE
8
0
6
CONTINUOUS
10
-0.206718
20
0.419713
30
0.0
11
-0.213514
21
0.416586
31
0.0
0
LINE
8
0
6
CONTINUOUS
10
-0.196684
20
0.348408
30
0.0
11
-0.192286
21
0.344319
31
0.0
0
LINE
8
0
6
CONTINUOUS
10
-0.216806
20
0.358161
30
0.0
11
-0.219742
21
0.360757
31
0.0
0
LINE
8
0
6
CONTINUOUS
10
-0.220291
20
0.360766
30
0.0
11
-0.217308
21
0.358172
31
0.0
0
LINE
8
0
6
CONTINUOUS
10
-0.209639
20
0.354478
30
0.0
11
-0.213294
21
0.356058
31
0.0
0
LINE
8
0
6
CONTINUOUS
10
-0.213766
20
0.356082
30
0.0
11
-0.210081
21
0.354515
31
0.0
0
LINE
8
0
6
CONTINUOUS
10
-0.198262
20
0.406321
30
0.0
11
-0.185533
21
0.407750
31
0.0
0
LINE
8
0
6
CONTINUOUS
10
-0.210081
20
0.354515
30
0.0
11
-0.201534
21
0.351379
31
0.0
0
LINE
8
0
6
CONTINUOUS
10
-0.201181
20
0.351292
30
0.0
11
-0.209639
21
0.354478
31
0.0
0
LINE
8
0
6
CONTINUOUS
10
-0.222177
20
0.364079
30
0.0
11
-0.223861
21
0.369223
31
0.0
0
LINE
8
0
6
CONTINUOUS
10
-0.224628
20
0.369273
30
0.0
11
-0.222773
21
0.364084
31
0.0
0
LINE
8
0
6
CONTINUOUS
10
-0.201534
20
0.351379
30
0.0
11
-0.196684
21
0.348408
31
0.0
0
LINE
8
0
6
CONTINUOUS
10
-0.186390
20
0.261919
30
0.0
11
-0.185131
21
0.247910
31
0.0
0
LINE
8
0
6
CONTINUOUS
10
-0.190775
20
0.341201
30
0.0
11
-0.190160
21
0.339866
31
0.0
0
LINE
8
0
6
CONTINUOUS
10
-0.175388
20
0.239496
30
0.0
11
-0.172781
21
0.239297
31
0.0
0
LINE
8
0
6
CONTINUOUS
10
-0.178207
20
0.240079
30
0.0
11
-0.175388
21
0.239496
31
0.0
0
LINE
8
0
6
CONTINUOUS
10
-0.180614
20
0.241005
30
0.0
11
-0.178207
21
0.240079
31
0.0
0
LINE
8
0
6
CONTINUOUS
10
-0.184457
20
0.244714
30
0.0
11
-0.184009
21
0.243868
31
0.0
0
LINE
8
0
6
CONTINUOUS
10
-0.184009
20
0.243868
30
0.0
11
-0.183400
21
0.243159
31
0.0
0
LINE
8
0
6
CONTINUOUS
10
-0.184923
20
0.245591
30
0.0
11
-0.184457
21
0.244714
31
0.0
0
LINE
8
0
6
CONTINUOUS
10
-0.183378
20
0.243134
30
0.0
11
-0.182749
21
0.242401
31
0.0
0
LINE
8
0
6
CONTINUOUS
10
-0.185131
20
0.247910
30
0.0
11
-0.185124
21
0.247783
31
0.0
0
LINE
8
0
6
CONTINUOUS
10
-0.185124
20
0.247783
30
0.0
11
-0.184923
21
0.245591
31
0.0
0
LINE
8
0
6
CONTINUOUS
10
-0.180902
20
0.326101
30
0.0
11
-0.184024
21
0.328222
31
0.0
0
LINE
8
0
6
CONTINUOUS
10
-0.176615
20
0.325120
30
0.0
11
-0.180902
21
0.326101
31
0.0
0
LINE
8
0
6
CONTINUOUS
10
-0.172781
20
0.324839
30
0.0
11
-0.176615
21
0.325120
31
0.0
0
LINE
8
0
6
CONTINUOUS
10
-0.184024
20
0.328222
30
0.0
11
-0.186279
21
0.336479
31
0.0
0
LINE
8
0
6
CONTINUOUS
10
-0.186279
20
0.336479
30
0.0
11
-0.189995
21
0.343877
31
0.0
0
LINE
8
0
6
CONTINUOUS
10
-0.196314
20
0.348546
30
0.0
11
-0.201181
21
0.351292
31
0.0
0
LINE
8
0
6
CONTINUOUS
10
-0.196528
20
0.348647
30
0.0
11
-0.196314
21
0.348546
31
0.0
0
LINE
8
0
6
CONTINUOUS
10
-0.212846
20
0.401815
30
0.0
11
-0.207176
21
0.404197
31
0.0
0
LINE
8
0
6
CONTINUOUS
10
-0.207176
20
0.404197
30
0.0
11
-0.198262
21
0.406321
31
0.0
0
LINE
8
0
6
CONTINUOUS
10
-0.185533
20
0.407750
30
0.0
11
-0.172781
21
0.408175
31
0.0
0
LINE
8
0
6
CONTINUOUS
10
-0.224838
20
0.380151
30
0.0
11
-0.224194
21
0.385000
31
0.0
0
LINE
8
0
6
CONTINUOUS
10
-0.217702
20
0.398431
30
0.0
11
-0.212846
21
0.401815
31
0.0
0
LINE
8
0
6
CONTINUOUS
10
-0.221038
20
0.394025
30
0.0
11
-0.217702
21
0.398431
31
0.0
0
LINE
8
0
6
CONTINUOUS
10
-0.223861
20
0.369223
30
0.0
11
-0.224818
21
0.374851
31
0.0
0
LINE
8
0
6
CONTINUOUS
10
-0.189995
20
0.343877
30
0.0
11
-0.192747
21
0.347028
31
0.0
0
LINE
8
0
6
CONTINUOUS
10
-0.192747
20
0.347028
30
0.0
11
-0.193076
21
0.347168
31
0.0
0
LINE
8
0
6
CONTINUOUS
10
-0.219742
20
0.360757
30
0.0
11
-0.222177
21
0.364079
31
0.0
0
LINE
8
0
6
CONTINUOUS
10
-0.222773
20
0.364084
30
0.0
11
-0.220291
21
0.360766
31
0.0
0
LINE
8
0
6
CONTINUOUS
10
-0.213294
20
0.356058
30
0.0
11
-0.216806
21
0.358161
31
0.0
0
LINE
8
0
6
CONTINUOUS
10
-0.217308
20
0.358172
30
0.0
11
-0.213766
21
0.356082
31
0.0
0
LINE
8
0
6
CONTINUOUS
10
-0.226796
20
0.387752
30
0.0
11
-0.226775
21
0.387254
31
0.0
0
LINE
8
0
6
CONTINUOUS
10
-0.227020
20
0.393099
30
0.0
11
-0.226796
21
0.387752
31
0.0
0
LINE
8
0
6
CONTINUOUS
10
-0.226552
20
0.381227
30
0.0
11
-0.225955
21
0.376201
31
0.0
0
LINE
8
0
6
CONTINUOUS
10
-0.226775
20
0.387254
30
0.0
11
-0.226552
21
0.381227
31
0.0
0
LINE
8
0
6
CONTINUOUS
10
-0.225955
20
0.376201
30
0.0
11
-0.225933
21
0.376015
31
0.0
0
LINE
8
0
6
CONTINUOUS
10
-0.224818
20
0.374851
30
0.0
11
-0.224838
21
0.380151
31
0.0
0
LINE
8
0
6
CONTINUOUS
10
-0.223280
20
0.407174
30
0.0
11
-0.225191
21
0.402810
31
0.0
0
LINE
8
0
6
CONTINUOUS
10
-0.222828
20
0.389618
30
0.0
11
-0.221038
21
0.394025
31
0.0
0
LINE
8
0
6
CONTINUOUS
10
-0.225191
20
0.402810
30
0.0
11
-0.226466
21
0.398070
31
0.0
0
LINE
8
0
6
CONTINUOUS
10
-0.224194
20
0.385000
30
0.0
11
-0.222828
21
0.389618
31
0.0
0
LINE
8
0
6
CONTINUOUS
10
-0.120653
20
0.370347
30
0.0
11
-0.119629
21
0.376015
31
0.0
0
LINE
8
0
6
CONTINUOUS
10
-0.120934
20
0.369272
30
0.0
11
-0.120653
21
0.370347
31
0.0
0
LINE
8
0
6
CONTINUOUS
10
-0.159171
20
0.261918
30
0.0
11
-0.157642
21
0.292006
31
0.0
0
LINE
8
0
6
CONTINUOUS
10
-0.157642
20
0.292006
30
0.0
11
-0.156508
21
0.315005
31
0.0
0
LINE
8
0
6
CONTINUOUS
10
-0.156508
20
0.315005
30
0.0
11
-0.155436
21
0.333099
31
0.0
0
LINE
8
0
6
CONTINUOUS
10
-0.155436
20
0.333099
30
0.0
11
-0.154786
21
0.341201
31
0.0
0
LINE
8
0
6
CONTINUOUS
10
-0.155979
20
0.338809
30
0.0
11
-0.153276
21
0.344319
31
0.0
0
LINE
8
0
6
CONTINUOUS
10
-0.123184
20
0.408398
30
0.0
11
-0.125739
21
0.411539
31
0.0
0
LINE
8
0
6
CONTINUOUS
10
-0.122282
20
0.407174
30
0.0
11
-0.123184
21
0.408398
31
0.0
0
LINE
8
0
6
CONTINUOUS
10
-0.118541
20
0.393098
30
0.0
11
-0.119095
21
0.398070
31
0.0
0
LINE
8
0
6
CONTINUOUS
10
-0.160174
20
0.422786
30
0.0
11
-0.172781
21
0.423119
31
0.0
0
LINE
8
0
6
CONTINUOUS
10
-0.147805
20
0.421524
30
0.0
11
-0.160174
21
0.422786
31
0.0
0
LINE
8
0
6
CONTINUOUS
10
-0.138844
20
0.419713
30
0.0
11
-0.147805
21
0.421524
31
0.0
0
LINE
8
0
6
CONTINUOUS
10
-0.126656
20
0.412626
30
0.0
11
-0.132048
21
0.416586
31
0.0
0
LINE
8
0
6
CONTINUOUS
10
-0.125739
20
0.411539
30
0.0
11
-0.126656
21
0.412626
31
0.0
0
LINE
8
0
6
CONTINUOUS
10
-0.132048
20
0.416586
30
0.0
11
-0.138844
21
0.419713
31
0.0
0
LINE
8
0
6
CONTINUOUS
10
-0.153276
20
0.344319
30
0.0
11
-0.148878
21
0.348408
31
0.0
0
LINE
8
0
6
CONTINUOUS
10
-0.128254
20
0.358172
30
0.0
11
-0.125271
21
0.360765
31
0.0
0
LINE
8
0
6
CONTINUOUS
10
-0.125820
20
0.360757
30
0.0
11
-0.128755
21
0.358160
31
0.0
0
LINE
8
0
6
CONTINUOUS
10
-0.135481
20
0.354514
30
0.0
11
-0.131796
21
0.356081
31
0.0
0
LINE
8
0
6
CONTINUOUS
10
-0.132267
20
0.356057
30
0.0
11
-0.135922
21
0.354478
31
0.0
0
LINE
8
0
6
CONTINUOUS
10
-0.160030
20
0.407750
30
0.0
11
-0.147300
21
0.406321
31
0.0
0
LINE
8
0
6
CONTINUOUS
10
-0.135922
20
0.354478
30
0.0
11
-0.144380
21
0.351292
31
0.0
0
LINE
8
0
6
CONTINUOUS
10
-0.144027
20
0.351378
30
0.0
11
-0.135481
21
0.354514
31
0.0
0
LINE
8
0
6
CONTINUOUS
10
-0.122788
20
0.364083
30
0.0
11
-0.120934
21
0.369272
31
0.0
0
LINE
8
0
6
CONTINUOUS
10
-0.121701
20
0.369223
30
0.0
11
-0.123385
21
0.364078
31
0.0
0
LINE
8
0
6
CONTINUOUS
10
-0.148878
20
0.348408
30
0.0
11
-0.144027
21
0.351378
31
0.0
0
LINE
8
0
6
CONTINUOUS
10
-0.160430
20
0.247910
30
0.0
11
-0.159171
21
0.261918
31
0.0
0
LINE
8
0
6
CONTINUOUS
10
-0.155401
20
0.339866
30
0.0
11
-0.154786
21
0.341201
31
0.0
0
LINE
8
0
6
CONTINUOUS
10
-0.172781
20
0.239297
30
0.0
11
-0.170173
21
0.239496
31
0.0
0
LINE
8
0
6
CONTINUOUS
10
-0.170173
20
0.239496
30
0.0
11
-0.167354
21
0.240079
31
0.0
0
LINE
8
0
6
CONTINUOUS
10
-0.167354
20
0.240079
30
0.0
11
-0.164947
21
0.241005
31
0.0
0
LINE
8
0
6
CONTINUOUS
10
-0.161552
20
0.243868
30
0.0
11
-0.161104
21
0.244713
31
0.0
0
LINE
8
0
6
CONTINUOUS
10
-0.162182
20
0.243134
30
0.0
11
-0.161552
21
0.243868
31
0.0
0
LINE
8
0
6
CONTINUOUS
10
-0.161104
20
0.244713
30
0.0
11
-0.160638
21
0.245591
31
0.0
0
LINE
8
0
6
CONTINUOUS
10
-0.162812
20
0.242401
30
0.0
11
-0.162182
21
0.243134
31
0.0
0
LINE
8
0
6
CONTINUOUS
10
-0.160638
20
0.245591
30
0.0
11
-0.160437
21
0.247783
31
0.0
0
LINE
8
0
6
CONTINUOUS
10
-0.160437
20
0.247783
30
0.0
11
-0.160430
21
0.247910
31
0.0
0
LINE
8
0
6
CONTINUOUS
10
-0.161537
20
0.328222
30
0.0
11
-0.164659
21
0.326101
31
0.0
0
LINE
8
0
6
CONTINUOUS
10
-0.164659
20
0.326101
30
0.0
11
-0.168947
21
0.325120
31
0.0
0
LINE
8
0
6
CONTINUOUS
10
-0.168947
20
0.325120
30
0.0
11
-0.172781
21
0.324839
31
0.0
0
LINE
8
0
6
CONTINUOUS
10
-0.159282
20
0.336479
30
0.0
11
-0.161537
21
0.328222
31
0.0
0
LINE
8
0
6
CONTINUOUS
10
-0.155555
20
0.343877
30
0.0
11
-0.159282
21
0.336479
31
0.0
0
LINE
8
0
6
CONTINUOUS
10
-0.149248
20
0.348545
30
0.0
11
-0.149033
21
0.348647
31
0.0
0
LINE
8
0
6
CONTINUOUS
10
-0.144380
20
0.351292
30
0.0
11
-0.149248
21
0.348545
31
0.0
0
LINE
8
0
6
CONTINUOUS
10
-0.138387
20
0.404197
30
0.0
11
-0.132716
21
0.401814
31
0.0
0
LINE
8
0
6
CONTINUOUS
10
-0.147300
20
0.406321
30
0.0
11
-0.138387
21
0.404197
31
0.0
0
LINE
8
0
6
CONTINUOUS
10
-0.172781
20
0.408175
30
0.0
11
-0.160030
21
0.407750
31
0.0
0
LINE
8
0
6
CONTINUOUS
10
-0.121368
20
0.385000
30
0.0
11
-0.120723
21
0.380150
31
0.0
0
LINE
8
0
6
CONTINUOUS
10
-0.132716
20
0.401814
30
0.0
11
-0.127861
21
0.398431
31
0.0
0
LINE
8
0
6
CONTINUOUS
10
-0.127861
20
0.398431
30
0.0
11
-0.124524
21
0.394024
31
0.0
0
LINE
8
0
6
CONTINUOUS
10
-0.120744
20
0.374851
30
0.0
11
-0.121701
21
0.369223
31
0.0
0
LINE
8
0
6
CONTINUOUS
10
-0.152491
20
0.347166
30
0.0
11
-0.152815
21
0.347028
31
0.0
0
LINE
8
0
6
CONTINUOUS
10
-0.152815
20
0.347028
30
0.0
11
-0.155555
21
0.343877
31
0.0
0
LINE
8
0
6
CONTINUOUS
10
-0.125271
20
0.360765
30
0.0
11
-0.122788
21
0.364083
31
0.0
0
LINE
8
0
6
CONTINUOUS
10
-0.123385
20
0.364078
30
0.0
11
-0.125820
21
0.360757
31
0.0
0
LINE
8
0
6
CONTINUOUS
10
-0.131796
20
0.356081
30
0.0
11
-0.128254
21
0.358172
31
0.0
0
LINE
8
0
6
CONTINUOUS
10
-0.128755
20
0.358160
30
0.0
11
-0.132267
21
0.356057
31
0.0
0
LINE
8
0
6
CONTINUOUS
10
-0.118766
20
0.387752
30
0.0
11
-0.118541
21
0.393098
31
0.0
0
LINE
8
0
6
CONTINUOUS
10
-0.118786
20
0.387253
30
0.0
11
-0.118766
21
0.387752
31
0.0
0
LINE
8
0
6
CONTINUOUS
10
-0.119607
20
0.376200
30
0.0
11
-0.119010
21
0.381227
31
0.0
0
LINE
8
0
6
CONTINUOUS
10
-0.119010
20
0.381227
30
0.0
11
-0.118786
21
0.387253
31
0.0
0
LINE
8
0
6
CONTINUOUS
10
-0.119629
20
0.376015
30
0.0
11
-0.119607
21
0.376200
31
0.0
0
LINE
8
0
6
CONTINUOUS
10
-0.120723
20
0.380150
30
0.0
11
-0.120744
21
0.374851
31
0.0
0
LINE
8
0
6
CONTINUOUS
10
-0.120371
20
0.402809
30
0.0
11
-0.122282
21
0.407174
31
0.0
0
LINE
8
0
6
CONTINUOUS
10
-0.124524
20
0.394024
30
0.0
11
-0.122734
21
0.389618
31
0.0
0
LINE
8
0
6
CONTINUOUS
10
-0.119095
20
0.398070
30
0.0
11
-0.120371
21
0.402809
31
0.0
0
LINE
8
0
6
CONTINUOUS
10
-0.122734
20
0.389618
30
0.0
11
-0.121368
21
0.385000
31
0.0
0
LINE
8
0
6
CONTINUOUS
10
-0.162579
20
0.219083
30
0.0
11
-0.161060
21
0.243314
31
0.0
0
LINE
8
0
6
CONTINUOUS
10
-0.184501
20
0.243314
30
0.0
11
-0.184232
21
0.239021
31
0.0
0
LINE
8
0
6
CONTINUOUS
10
-0.184501
20
0.245048
30
0.0
11
-0.184501
21
0.243314
31
0.0
0
LINE
8
0
6
CONTINUOUS
10
-0.161060
20
0.243314
30
0.0
11
-0.161060
21
0.245048
31
0.0
0
LINE
8
0
6
CONTINUOUS
10
-0.163969
20
0.216107
30
0.0
11
-0.162952
21
0.217338
31
0.0
0
LINE
8
0
6
CONTINUOUS
10
-0.162606
20
0.218659
30
0.0
11
-0.162579
21
0.219083
31
0.0
0
LINE
8
0
6
CONTINUOUS
10
-0.162952
20
0.217338
30
0.0
11
-0.162606
21
0.218659
31
0.0
0
LINE
8
0
6
CONTINUOUS
10
-0.164984
20
0.215443
30
0.0
11
-0.163969
21
0.216107
31
0.0
0
LINE
8
0
6
CONTINUOUS
10
-0.209639
20
0.354478
30
0.0
11
-0.201181
21
0.351292
31
0.0
0
LINE
8
0
6
CONTINUOUS
10
-0.185533
20
0.407750
30
0.0
11
-0.198262
21
0.406321
31
0.0
0
LINE
8
0
6
CONTINUOUS
10
-0.186552
20
0.348149
30
0.0
11
-0.179755
21
0.348249
31
0.0
0
LINE
8
0
6
CONTINUOUS
10
-0.196314
20
0.348546
30
0.0
11
-0.193076
21
0.347168
31
0.0
0
LINE
8
0
6
CONTINUOUS
10
-0.201181
20
0.351292
30
0.0
11
-0.196314
21
0.348546
31
0.0
0
LINE
8
0
6
CONTINUOUS
10
-0.221038
20
0.394025
30
0.0
11
-0.222828
21
0.389618
31
0.0
0
LINE
8
0
6
CONTINUOUS
10
-0.207176
20
0.404197
30
0.0
11
-0.212846
21
0.401815
31
0.0
0
LINE
8
0
6
CONTINUOUS
10
-0.212846
20
0.401815
30
0.0
11
-0.217702
21
0.398431
31
0.0
0
LINE
8
0
6
CONTINUOUS
10
-0.198262
20
0.406321
30
0.0
11
-0.207176
21
0.404197
31
0.0
0
LINE
8
0
6
CONTINUOUS
10
-0.172781
20
0.408175
30
0.0
11
-0.185533
21
0.407750
31
0.0
0
LINE
8
0
6
CONTINUOUS
10
-0.224194
20
0.385000
30
0.0
11
-0.224838
21
0.380151
31
0.0
0
LINE
8
0
6
CONTINUOUS
10
-0.224818
20
0.374851
30
0.0
11
-0.223861
21
0.369223
31
0.0
0
LINE
8
0
6
CONTINUOUS
10
-0.223861
20
0.369223
30
0.0
11
-0.222177
21
0.364079
31
0.0
0
LINE
8
0
6
CONTINUOUS
10
-0.219742
20
0.360757
30
0.0
11
-0.216806
21
0.358161
31
0.0
0
LINE
8
0
6
CONTINUOUS
10
-0.216806
20
0.358161
30
0.0
11
-0.213294
21
0.356058
31
0.0
0
LINE
8
0
6
CONTINUOUS
10
-0.179755
20
0.348249
30
0.0
11
-0.172781
21
0.348271
31
0.0
0
LINE
8
0
6
CONTINUOUS
10
-0.192747
20
0.347028
30
0.0
11
-0.186552
21
0.348149
31
0.0
0
LINE
8
0
6
CONTINUOUS
10
-0.193076
20
0.347168
30
0.0
11
-0.192747
21
0.347028
31
0.0
0
LINE
8
0
6
CONTINUOUS
10
-0.222177
20
0.364079
30
0.0
11
-0.219742
21
0.360757
31
0.0
0
LINE
8
0
6
CONTINUOUS
10
-0.213294
20
0.356058
30
0.0
11
-0.209639
21
0.354478
31
0.0
0
LINE
8
0
6
CONTINUOUS
10
-0.224838
20
0.380151
30
0.0
11
-0.224818
21
0.374851
31
0.0
0
LINE
8
0
6
CONTINUOUS
10
-0.217702
20
0.398431
30
0.0
11
-0.221038
21
0.394025
31
0.0
0
LINE
8
0
6
CONTINUOUS
10
-0.222828
20
0.389618
30
0.0
11
-0.224194
21
0.385000
31
0.0
0
LINE
8
0
6
CONTINUOUS
10
-0.144380
20
0.351292
30
0.0
11
-0.135922
21
0.354478
31
0.0
0
LINE
8
0
6
CONTINUOUS
10
-0.147300
20
0.406321
30
0.0
11
-0.160030
21
0.407750
31
0.0
0
LINE
8
0
6
CONTINUOUS
10
-0.165806
20
0.348249
30
0.0
11
-0.159010
21
0.348149
31
0.0
0
LINE
8
0
6
CONTINUOUS
10
-0.149248
20
0.348545
30
0.0
11
-0.144380
21
0.351292
31
0.0
0
LINE
8
0
6
CONTINUOUS
10
-0.152491
20
0.347166
30
0.0
11
-0.149248
21
0.348545
31
0.0
0
LINE
8
0
6
CONTINUOUS
10
-0.122734
20
0.389618
30
0.0
11
-0.124524
21
0.394024
31
0.0
0
LINE
8
0
6
CONTINUOUS
10
-0.127861
20
0.398431
30
0.0
11
-0.132716
21
0.401814
31
0.0
0
LINE
8
0
6
CONTINUOUS
10
-0.132716
20
0.401814
30
0.0
11
-0.138387
21
0.404197
31
0.0
0
LINE
8
0
6
CONTINUOUS
10
-0.138387
20
0.404197
30
0.0
11
-0.147300
21
0.406321
31
0.0
0
LINE
8
0
6
CONTINUOUS
10
-0.160030
20
0.407750
30
0.0
11
-0.172781
21
0.408175
31
0.0
0
LINE
8
0
6
CONTINUOUS
10
-0.120723
20
0.380150
30
0.0
11
-0.121368
21
0.385000
31
0.0
0
LINE
8
0
6
CONTINUOUS
10
-0.121701
20
0.369223
30
0.0
11
-0.120744
21
0.374851
31
0.0
0
LINE
8
0
6
CONTINUOUS
10
-0.123385
20
0.364078
30
0.0
11
-0.121701
21
0.369223
31
0.0
0
LINE
8
0
6
CONTINUOUS
10
-0.128755
20
0.358160
30
0.0
11
-0.125820
21
0.360757
31
0.0
0
LINE
8
0
6
CONTINUOUS
10
-0.132267
20
0.356057
30
0.0
11
-0.128755
21
0.358160
31
0.0
0
LINE
8
0
6
CONTINUOUS
10
-0.172781
20
0.348271
30
0.0
11
-0.165806
21
0.348249
31
0.0
0
LINE
8
0
6
CONTINUOUS
10
-0.152815
20
0.347028
30
0.0
11
-0.152491
21
0.347166
31
0.0
0
LINE
8
0
6
CONTINUOUS
10
-0.159010
20
0.348149
30
0.0
11
-0.152815
21
0.347028
31
0.0
0
LINE
8
0
6
CONTINUOUS
10
-0.125820
20
0.360757
30
0.0
11
-0.123385
21
0.364078
31
0.0
0
LINE
8
0
6
CONTINUOUS
10
-0.135922
20
0.354478
30
0.0
11
-0.132267
21
0.356057
31
0.0
0
LINE
8
0
6
CONTINUOUS
10
-0.120744
20
0.374851
30
0.0
11
-0.120723
21
0.380150
31
0.0
0
LINE
8
0
6
CONTINUOUS
10
-0.124524
20
0.394024
30
0.0
11
-0.127861
21
0.398431
31
0.0
0
LINE
8
0
6
CONTINUOUS
10
-0.121368
20
0.385000
30
0.0
11
-0.122734
21
0.389618
31
0.0
0
LINE
8
0
6
CONTINUOUS
10
-0.176615
20
0.325120
30
0.0
11
-0.172781
21
0.324839
31
0.0
0
LINE
8
0
6
CONTINUOUS
10
-0.192088
20
0.346818
30
0.0
11
-0.186417
21
0.347840
31
0.0
0
LINE
8
0
6
CONTINUOUS
10
-0.192417
20
0.347272
30
0.0
11
-0.192088
21
0.346818
31
0.0
0
LINE
8
0
6
CONTINUOUS
10
-0.164659
20
0.326101
30
0.0
11
-0.161537
21
0.328222
31
0.0
0
LINE
8
0
6
CONTINUOUS
10
-0.168947
20
0.325120
30
0.0
11
-0.164659
21
0.326101
31
0.0
0
LINE
8
0
6
CONTINUOUS
10
-0.172781
20
0.324839
30
0.0
11
-0.168947
21
0.325120
31
0.0
0
LINE
8
0
6
CONTINUOUS
10
-0.161537
20
0.328222
30
0.0
11
-0.159282
21
0.336479
31
0.0
0
LINE
8
0
6
CONTINUOUS
10
-0.159282
20
0.336479
30
0.0
11
-0.155555
21
0.343877
31
0.0
0
LINE
8
0
6
CONTINUOUS
10
-0.155555
20
0.343877
30
0.0
11
-0.152815
21
0.347028
31
0.0
0
LINE
8
0
6
CONTINUOUS
10
-0.180902
20
0.326101
30
0.0
11
-0.176615
21
0.325120
31
0.0
0
LINE
8
0
6
CONTINUOUS
10
-0.189995
20
0.343877
30
0.0
11
-0.186279
21
0.336479
31
0.0
0
LINE
8
0
6
CONTINUOUS
10
-0.184024
20
0.328222
30
0.0
11
-0.180902
21
0.326101
31
0.0
0
LINE
8
0
6
CONTINUOUS
10
-0.192747
20
0.347028
30
0.0
11
-0.189995
21
0.343877
31
0.0
0
LINE
8
0
6
CONTINUOUS
10
-0.186279
20
0.336479
30
0.0
11
-0.184024
21
0.328222
31
0.0
0
LINE
8
0
6
CONTINUOUS
10
-0.179684
20
0.347938
30
0.0
11
-0.172775
21
0.347957
31
0.0
0
LINE
8
0
6
CONTINUOUS
10
-0.183625
20
0.328417
30
0.0
11
-0.185771
21
0.336348
31
0.0
0
LINE
8
0
6
CONTINUOUS
10
-0.183825
20
0.328668
30
0.0
11
-0.183625
21
0.328417
31
0.0
0
LINE
8
0
6
CONTINUOUS
10
-0.185771
20
0.336348
30
0.0
11
-0.189337
21
0.343686
31
0.0
0
LINE
8
0
6
CONTINUOUS
10
-0.161924
20
0.328417
30
0.0
11
-0.161725
21
0.328668
31
0.0
0
LINE
8
0
6
CONTINUOUS
10
-0.159778
20
0.336348
30
0.0
11
-0.161924
21
0.328417
31
0.0
0
LINE
8
0
6
CONTINUOUS
10
-0.156213
20
0.343686
30
0.0
11
-0.159778
21
0.336348
31
0.0
0
LINE
8
0
6
CONTINUOUS
10
-0.165866
20
0.347938
30
0.0
11
-0.159133
21
0.347840
31
0.0
0
LINE
8
0
6
CONTINUOUS
10
-0.172775
20
0.347957
30
0.0
11
-0.165866
21
0.347938
31
0.0
0
LINE
8
0
6
CONTINUOUS
10
-0.153462
20
0.346818
30
0.0
11
-0.153132
21
0.347271
31
0.0
0
LINE
8
0
6
CONTINUOUS
10
-0.159133
20
0.347840
30
0.0
11
-0.153462
21
0.346818
31
0.0
0
LINE
8
0
6
CONTINUOUS
10
-0.186417
20
0.347840
30
0.0
11
-0.179684
21
0.347938
31
0.0
0
LINE
8
0
6
CONTINUOUS
10
-0.168922
20
0.325536
30
0.0
11
-0.164603
21
0.326600
31
0.0
0
LINE
8
0
6
CONTINUOUS
10
-0.176628
20
0.325536
30
0.0
11
-0.172788
21
0.325245
31
0.0
0
LINE
8
0
6
CONTINUOUS
10
-0.159133
20
0.347840
30
0.0
11
-0.165866
21
0.347938
31
0.0
0
LINE
8
0
6
CONTINUOUS
10
-0.165866
20
0.347938
30
0.0
11
-0.172775
21
0.347957
31
0.0
0
LINE
8
0
6
CONTINUOUS
10
-0.159778
20
0.336348
30
0.0
11
-0.156213
21
0.343686
31
0.0
0
LINE
8
0
6
CONTINUOUS
10
-0.156213
20
0.343686
30
0.0
11
-0.153462
21
0.346818
31
0.0
0
LINE
8
0
6
CONTINUOUS
10
-0.153462
20
0.346818
30
0.0
11
-0.159133
21
0.347840
31
0.0
0
LINE
8
0
6
CONTINUOUS
10
-0.180947
20
0.326600
30
0.0
11
-0.176628
21
0.325536
31
0.0
0
LINE
8
0
6
CONTINUOUS
10
-0.189337
20
0.343686
30
0.0
11
-0.185771
21
0.336348
31
0.0
0
LINE
8
0
6
CONTINUOUS
10
-0.161924
20
0.328417
30
0.0
11
-0.159778
21
0.336348
31
0.0
0
LINE
8
0
6
CONTINUOUS
10
-0.164603
20
0.326600
30
0.0
11
-0.161924
21
0.328417
31
0.0
0
LINE
8
0
6
CONTINUOUS
10
-0.186417
20
0.347840
30
0.0
11
-0.192088
21
0.346818
31
0.0
0
LINE
8
0
6
CONTINUOUS
10
-0.192088
20
0.346818
30
0.0
11
-0.189337
21
0.343686
31
0.0
0
LINE
8
0
6
CONTINUOUS
10
-0.172788
20
0.325245
30
0.0
11
-0.168922
21
0.325536
31
0.0
0
LINE
8
0
6
CONTINUOUS
10
-0.183625
20
0.328417
30
0.0
11
-0.180947
21
0.326600
31
0.0
0
LINE
8
0
6
CONTINUOUS
10
-0.185771
20
0.336348
30
0.0
11
-0.183625
21
0.328417
31
0.0
0
LINE
8
0
6
CONTINUOUS
10
-0.179684
20
0.347938
30
0.0
11
-0.186417
21
0.347840
31
0.0
0
LINE
8
0
6
CONTINUOUS
10
-0.172775
20
0.347957
30
0.0
11
-0.179684
21
0.347938
31
0.0
0
LINE
8
0
6
CONTINUOUS
10
-0.167123
20
0.231912
30
0.0
11
-0.164938
21
0.233546
31
0.0
0
LINE
8
0
6
CONTINUOUS
10
-0.167609
20
0.231714
30
0.0
11
-0.167123
21
0.231912
31
0.0
0
LINE
8
0
6
CONTINUOUS
10
-0.181409
20
0.234448
30
0.0
11
-0.181818
21
0.234964
31
0.0
0
LINE
8
0
6
CONTINUOUS
10
-0.182681
20
0.235849
30
0.0
11
-0.183291
21
0.236986
31
0.0
0
LINE
8
0
6
CONTINUOUS
10
-0.181818
20
0.234964
30
0.0
11
-0.182681
21
0.235849
31
0.0
0
LINE
8
0
6
CONTINUOUS
10
-0.178436
20
0.231866
30
0.0
11
-0.177711
21
0.231559
31
0.0
0
LINE
8
0
6
CONTINUOUS
10
-0.180821
20
0.233696
30
0.0
11
-0.178436
21
0.231866
31
0.0
0
LINE
8
0
6
CONTINUOUS
10
-0.177711
20
0.231559
30
0.0
11
-0.176356
21
0.231006
31
0.0
0
LINE
8
0
6
CONTINUOUS
10
-0.176356
20
0.231006
30
0.0
11
-0.175996
21
0.230819
31
0.0
0
LINE
8
0
6
CONTINUOUS
10
-0.175697
20
0.230664
30
0.0
11
-0.172780
21
0.230200
31
0.0
0
LINE
8
0
6
CONTINUOUS
10
-0.175996
20
0.230819
30
0.0
11
-0.175697
21
0.230664
31
0.0
0
LINE
8
0
6
CONTINUOUS
10
-0.172780
20
0.230200
30
0.0
11
-0.172715
21
0.230212
31
0.0
0
LINE
8
0
6
CONTINUOUS
10
-0.172487
20
0.230251
30
0.0
11
-0.169864
21
0.230613
31
0.0
0
LINE
8
0
6
CONTINUOUS
10
-0.172715
20
0.230212
30
0.0
11
-0.172487
21
0.230251
31
0.0
0
LINE
8
0
6
CONTINUOUS
10
-0.172781
20
0.384273
30
0.0
11
-0.170701
21
0.384310
31
0.0
0
LINE
8
0
6
CONTINUOUS
10
-0.172781
20
0.383240
30
0.0
11
-0.172571
21
0.383253
31
0.0
0
LINE
8
0
6
CONTINUOUS
10
-0.158344
20
0.382464
30
0.0
11
-0.156851
21
0.383609
31
0.0
0
LINE
8
0
6
CONTINUOUS
10
-0.156851
20
0.383609
30
0.0
11
-0.154796
21
0.383483
31
0.0
0
LINE
8
0
6
CONTINUOUS
10
-0.144234
20
0.380575
30
0.0
11
-0.142338
21
0.380292
31
0.0
0
LINE
8
0
6
CONTINUOUS
10
-0.172781
20
0.393989
30
0.0
11
-0.168829
21
0.394028
31
0.0
0
LINE
8
0
6
CONTINUOUS
10
-0.168829
20
0.394028
30
0.0
11
-0.164287
21
0.393532
31
0.0
0
LINE
8
0
6
CONTINUOUS
10
-0.164287
20
0.393532
30
0.0
11
-0.160476
21
0.392638
31
0.0
0
LINE
8
0
6
CONTINUOUS
10
-0.160476
20
0.392638
30
0.0
11
-0.160021
21
0.392529
31
0.0
0
LINE
8
0
6
CONTINUOUS
10
-0.160021
20
0.392529
30
0.0
11
-0.159300
21
0.392258
31
0.0
0
LINE
8
0
6
CONTINUOUS
10
-0.155498
20
0.394314
30
0.0
11
-0.153500
21
0.394451
31
0.0
0
LINE
8
0
6
CONTINUOUS
10
-0.153500
20
0.394451
30
0.0
11
-0.153376
21
0.394456
31
0.0
0
LINE
8
0
6
CONTINUOUS
10
-0.163719
20
0.372366
30
0.0
11
-0.162703
21
0.372776
31
0.0
0
LINE
8
0
6
CONTINUOUS
10
-0.162703
20
0.372776
30
0.0
11
-0.160807
21
0.372291
31
0.0
0
LINE
8
0
6
CONTINUOUS
10
-0.158324
20
0.374177
30
0.0
11
-0.156984
21
0.374819
31
0.0
0
LINE
8
0
6
CONTINUOUS
10
-0.156546
20
0.375020
30
0.0
11
-0.154650
21
0.374675
31
0.0
0
LINE
8
0
6
CONTINUOUS
10
-0.145213
20
0.372267
30
0.0
11
-0.143215
21
0.372985
31
0.0
0
LINE
8
0
6
CONTINUOUS
10
-0.156653
20
0.355240
30
0.0
11
-0.156778
21
0.354907
31
0.0
0
LINE
8
0
6
CONTINUOUS
10
-0.168939
20
0.359343
30
0.0
11
-0.169315
21
0.358300
31
0.0
0
LINE
8
0
6
CONTINUOUS
10
-0.168939
20
0.359343
30
0.0
11
-0.167504
21
0.359650
31
0.0
0
LINE
8
0
6
CONTINUOUS
10
-0.166688
20
0.359675
30
0.0
11
-0.165318
21
0.359158
31
0.0
0
LINE
8
0
6
CONTINUOUS
10
-0.157597
20
0.359534
30
0.0
11
-0.157973
21
0.358498
31
0.0
0
LINE
8
0
6
CONTINUOUS
10
-0.157597
20
0.359534
30
0.0
11
-0.155599
21
0.360079
31
0.0
0
LINE
8
0
6
CONTINUOUS
10
-0.155599
20
0.360079
30
0.0
11
-0.153976
21
0.359589
31
0.0
0
LINE
8
0
6
CONTINUOUS
10
-0.168863
20
0.355278
30
0.0
11
-0.168986
21
0.354942
31
0.0
0
LINE
8
0
6
CONTINUOUS
10
-0.168611
20
0.355944
30
0.0
11
-0.168863
21
0.355278
31
0.0
0
LINE
8
0
6
CONTINUOUS
10
-0.166384
20
0.356275
30
0.0
11
-0.165276
21
0.355879
31
0.0
0
LINE
8
0
6
CONTINUOUS
10
-0.156402
20
0.355945
30
0.0
11
-0.156653
21
0.355240
31
0.0
0
LINE
8
0
6
CONTINUOUS
10
-0.156402
20
0.355945
30
0.0
11
-0.154484
21
0.356466
31
0.0
0
LINE
8
0
6
CONTINUOUS
10
-0.154484
20
0.356466
30
0.0
11
-0.154404
21
0.356487
31
0.0
0
LINE
8
0
6
CONTINUOUS
10
-0.166612
20
0.356362
30
0.0
11
-0.166384
21
0.356275
31
0.0
0
LINE
8
0
6
CONTINUOUS
10
-0.169709
20
0.365937
30
0.0
11
-0.169972
21
0.365198
31
0.0
0
LINE
8
0
6
CONTINUOUS
10
-0.160336
20
0.366036
30
0.0
11
-0.160363
21
0.365961
31
0.0
0
LINE
8
0
6
CONTINUOUS
10
-0.166941
20
0.359774
30
0.0
11
-0.166688
21
0.359675
31
0.0
0
LINE
8
0
6
CONTINUOUS
10
-0.169268
20
0.362798
30
0.0
11
-0.169644
21
0.361741
31
0.0
0
LINE
8
0
6
CONTINUOUS
10
-0.158761
20
0.363710
30
0.0
11
-0.157148
21
0.364762
31
0.0
0
LINE
8
0
6
CONTINUOUS
10
-0.158792
20
0.363251
30
0.0
11
-0.156794
21
0.363812
31
0.0
0
LINE
8
0
6
CONTINUOUS
10
-0.156794
20
0.363812
30
0.0
11
-0.155171
21
0.363301
31
0.0
0
LINE
8
0
6
CONTINUOUS
10
-0.169597
20
0.366302
30
0.0
11
-0.169709
21
0.365937
31
0.0
0
LINE
8
0
6
CONTINUOUS
10
-0.160273
20
0.366240
30
0.0
11
-0.160336
21
0.366036
31
0.0
0
LINE
8
0
6
CONTINUOUS
10
-0.159988
20
0.367152
30
0.0
11
-0.160273
21
0.366240
31
0.0
0
LINE
8
0
6
CONTINUOUS
10
-0.159988
20
0.367152
30
0.0
11
-0.159651
21
0.367233
31
0.0
0
LINE
8
0
6
CONTINUOUS
10
-0.159651
20
0.367233
30
0.0
11
-0.157989
21
0.367765
31
0.0
0
LINE
8
0
6
CONTINUOUS
10
-0.168771
20
0.378159
30
0.0
11
-0.166716
21
0.377881
31
0.0
0
LINE
8
0
6
CONTINUOUS
10
-0.150390
20
0.377762
30
0.0
11
-0.148494
21
0.377353
31
0.0
0
LINE
8
0
6
CONTINUOUS
10
-0.146011
20
0.379543
30
0.0
11
-0.145909
21
0.379596
31
0.0
0
LINE
8
0
6
CONTINUOUS
10
-0.145909
20
0.379596
30
0.0
11
-0.145502
21
0.379842
31
0.0
0
LINE
8
0
6
CONTINUOUS
10
-0.136355
20
0.375783
30
0.0
11
-0.135827
21
0.375980
31
0.0
0
LINE
8
0
6
CONTINUOUS
10
-0.135827
20
0.375980
30
0.0
11
-0.134205
21
0.375411
31
0.0
0
LINE
8
0
6
CONTINUOUS
10
-0.130438
20
0.378388
30
0.0
11
-0.128440
21
0.379223
31
0.0
0
LINE
8
0
6
CONTINUOUS
10
-0.168188
20
0.386610
30
0.0
11
-0.166066
21
0.386625
31
0.0
0
LINE
8
0
6
CONTINUOUS
10
-0.161843
20
0.390354
30
0.0
11
-0.159721
21
0.390357
31
0.0
0
LINE
8
0
6
CONTINUOUS
10
-0.150891
20
0.386754
30
0.0
11
-0.149440
21
0.386654
31
0.0
0
LINE
8
0
6
CONTINUOUS
10
-0.149440
20
0.386654
30
0.0
11
-0.148836
21
0.386600
31
0.0
0
LINE
8
0
6
CONTINUOUS
10
-0.146424
20
0.388717
30
0.0
11
-0.146356
21
0.388770
31
0.0
0
LINE
8
0
6
CONTINUOUS
10
-0.146356
20
0.388770
30
0.0
11
-0.145378
21
0.389628
31
0.0
0
LINE
8
0
6
CONTINUOUS
10
-0.133699
20
0.385594
30
0.0
11
-0.131922
21
0.386618
31
0.0
0
LINE
8
0
6
CONTINUOUS
10
-0.155207
20
0.352406
30
0.0
11
-0.155300
21
0.352167
31
0.0
0
LINE
8
0
6
CONTINUOUS
10
-0.168411
20
0.352382
30
0.0
11
-0.168658
21
0.351746
31
0.0
0
LINE
8
0
6
CONTINUOUS
10
-0.168282
20
0.352702
30
0.0
11
-0.168411
21
0.352382
31
0.0
0
LINE
8
0
6
CONTINUOUS
10
-0.166283
20
0.353077
30
0.0
11
-0.165893
21
0.352943
31
0.0
0
LINE
8
0
6
CONTINUOUS
10
-0.173553
20
0.384363
30
0.0
11
-0.172781
21
0.384273
31
0.0
0
LINE
8
0
6
CONTINUOUS
10
-0.174534
20
0.383305
30
0.0
11
-0.172781
21
0.383196
31
0.0
0
LINE
8
0
6
CONTINUOUS
10
-0.173553
20
0.394087
30
0.0
11
-0.172781
21
0.393989
31
0.0
0
LINE
8
0
6
CONTINUOUS
10
-0.179546
20
0.359695
30
0.0
11
-0.178165
21
0.359401
31
0.0
0
LINE
8
0
6
CONTINUOUS
10
-0.191493
20
0.360231
30
0.0
11
-0.189507
21
0.359690
31
0.0
0
LINE
8
0
6
CONTINUOUS
10
-0.193353
20
0.356431
30
0.0
11
-0.192701
21
0.356636
31
0.0
0
LINE
8
0
6
CONTINUOUS
10
-0.205925
20
0.357211
30
0.0
11
-0.205944
21
0.357160
31
0.0
0
LINE
8
0
6
CONTINUOUS
10
-0.204962
20
0.358092
30
0.0
11
-0.203570
21
0.358132
31
0.0
0
LINE
8
0
6
CONTINUOUS
10
-0.205568
20
0.358077
30
0.0
11
-0.204962
21
0.358092
31
0.0
0
LINE
8
0
6
CONTINUOUS
10
-0.179835
20
0.363288
30
0.0
11
-0.177836
21
0.362855
31
0.0
0
LINE
8
0
6
CONTINUOUS
10
-0.181457
20
0.362663
30
0.0
11
-0.179835
21
0.363288
31
0.0
0
LINE
8
0
6
CONTINUOUS
10
-0.200757
20
0.365866
30
0.0
11
-0.200113
21
0.365496
31
0.0
0
LINE
8
0
6
CONTINUOUS
10
-0.202756
20
0.365815
30
0.0
11
-0.203131
21
0.364833
31
0.0
0
LINE
8
0
6
CONTINUOUS
10
-0.202726
20
0.361862
30
0.0
11
-0.201103
21
0.360956
31
0.0
0
LINE
8
0
6
CONTINUOUS
10
-0.204724
20
0.361797
30
0.0
11
-0.205100
21
0.360825
31
0.0
0
LINE
8
0
6
CONTINUOUS
10
-0.214427
20
0.364286
30
0.0
11
-0.214803
21
0.363310
31
0.0
0
LINE
8
0
6
CONTINUOUS
10
-0.179506
20
0.366860
30
0.0
11
-0.177508
21
0.366365
31
0.0
0
LINE
8
0
6
CONTINUOUS
10
-0.196502
20
0.370483
30
0.0
11
-0.194504
21
0.369873
31
0.0
0
LINE
8
0
6
CONTINUOUS
10
-0.217069
20
0.371668
30
0.0
11
-0.215447
21
0.370589
31
0.0
0
LINE
8
0
6
CONTINUOUS
10
-0.219068
20
0.371679
30
0.0
11
-0.219443
21
0.370612
31
0.0
0
LINE
8
0
6
CONTINUOUS
10
-0.209615
20
0.375602
30
0.0
11
-0.209279
21
0.375462
31
0.0
0
LINE
8
0
6
CONTINUOUS
10
-0.218728
20
0.379514
30
0.0
11
-0.218665
21
0.379532
31
0.0
0
LINE
8
0
6
CONTINUOUS
10
-0.185862
20
0.401500
30
0.0
11
-0.184977
21
0.401352
31
0.0
0
LINE
8
0
6
CONTINUOUS
10
-0.207616
20
0.367872
30
0.0
11
-0.207010
21
0.367489
31
0.0
0
LINE
8
0
6
CONTINUOUS
10
-0.180821
20
0.353119
30
0.0
11
-0.178823
21
0.352747
31
0.0
0
LINE
8
0
6
CONTINUOUS
10
-0.181439
20
0.352892
30
0.0
11
-0.180821
21
0.353119
31
0.0
0
ENDSEC
0
EOF
