999
unknown String-ID: 20550
0
SECTION
2
HEADER
9
$ACADVER
1
AC1009
9
$DWGCODEPAGE
3
unknown String-ID: 20561
0
ENDSEC
0
SECTION
2
TABLES
0
TABLE
2
LAYER
70
1
0
LAYER
2
0
70
0
62
7
6
CONTINUOUS
0
ENDTAB
0
ENDSEC
0
SECTION
2
ENTITIES
0
LINE
8
0
6
CONTINUOUS
10
-0.074704
20
0.015886
30
0.0
11
-0.074693
21
0.015367
31
0.0
0
LINE
8
0
6
CONTINUOUS
10
0.069355
20
0.026241
30
0.0
11
0.062418
21
0.026241
31
0.0
0
LINE
8
0
6
CONTINUOUS
10
0.028728
20
0.026241
30
0.0
11
0.014645
21
0.026241
31
0.0
0
LINE
8
0
6
CONTINUOUS
10
0.074693
20
0.015367
30
0.0
11
0.074704
21
0.015886
31
0.0
0
LINE
8
0
6
CONTINUOUS
10
-0.069355
20
0.026241
30
0.0
11
-0.073627
21
0.026241
31
0.0
0
LINE
8
0
6
CONTINUOUS
10
-0.028728
20
0.026241
30
0.0
11
-0.041706
21
0.026241
31
0.0
0
LINE
8
0
6
CONTINUOUS
10
0.014645
20
0.026241
30
0.0
11
0.000000
21
0.026241
31
0.0
0
LINE
8
0
6
CONTINUOUS
10
0.062418
20
0.026241
30
0.0
11
0.053082
21
0.026241
31
0.0
0
LINE
8
0
6
CONTINUOUS
10
-0.075069
20
0.026241
30
0.0
11
-0.075048
21
0.025266
31
0.0
0
LINE
8
0
6
CONTINUOUS
10
-0.073627
20
0.026241
30
0.0
11
-0.075069
21
0.026241
31
0.0
0
LINE
8
0
6
CONTINUOUS
10
-0.041706
20
0.026241
30
0.0
11
-0.053082
21
0.026241
31
0.0
0
LINE
8
0
6
CONTINUOUS
10
0.053082
20
0.026241
30
0.0
11
0.041706
21
0.026241
31
0.0
0
LINE
8
0
6
CONTINUOUS
10
0.075048
20
0.025266
30
0.0
11
0.075069
21
0.026241
31
0.0
0
LINE
8
0
6
CONTINUOUS
10
0.075069
20
0.026241
30
0.0
11
0.073627
21
0.026241
31
0.0
0
LINE
8
0
6
CONTINUOUS
10
-0.053082
20
0.026241
30
0.0
11
-0.062418
21
0.026241
31
0.0
0
LINE
8
0
6
CONTINUOUS
10
0.000000
20
0.026241
30
0.0
11
-0.014645
21
0.026241
31
0.0
0
LINE
8
0
6
CONTINUOUS
10
0.041706
20
0.026241
30
0.0
11
0.028728
21
0.026241
31
0.0
0
LINE
8
0
6
CONTINUOUS
10
0.073627
20
0.026241
30
0.0
11
0.069355
21
0.026241
31
0.0
0
LINE
8
0
6
CONTINUOUS
10
-0.062418
20
0.026241
30
0.0
11
-0.069355
21
0.026241
31
0.0
0
LINE
8
0
6
CONTINUOUS
10
-0.014645
20
0.026241
30
0.0
11
-0.028728
21
0.026241
31
0.0
0
LINE
8
0
6
CONTINUOUS
10
-0.013758
20
0.013348
30
0.0
11
0.000000
21
0.013348
31
0.0
0
LINE
8
0
6
CONTINUOUS
10
-0.026998
20
0.013348
30
0.0
11
-0.013758
21
0.013348
31
0.0
0
LINE
8
0
6
CONTINUOUS
10
-0.039221
20
0.013348
30
0.0
11
-0.026998
21
0.013348
31
0.0
0
LINE
8
0
6
CONTINUOUS
10
-0.049957
20
0.013348
30
0.0
11
-0.039221
21
0.013348
31
0.0
0
LINE
8
0
6
CONTINUOUS
10
-0.058782
20
0.013348
30
0.0
11
-0.049957
21
0.013348
31
0.0
0
LINE
8
0
6
CONTINUOUS
10
-0.065351
20
0.013348
30
0.0
11
-0.058782
21
0.013348
31
0.0
0
LINE
8
0
6
CONTINUOUS
10
-0.069402
20
0.013348
30
0.0
11
-0.065351
21
0.013348
31
0.0
0
LINE
8
0
6
CONTINUOUS
10
-0.072758
20
0.013635
30
0.0
11
-0.070853
21
0.013348
31
0.0
0
LINE
8
0
6
CONTINUOUS
10
-0.070853
20
0.013348
30
0.0
11
-0.069402
21
0.013348
31
0.0
0
LINE
8
0
6
CONTINUOUS
10
-0.074163
20
0.014367
30
0.0
11
-0.072758
21
0.013635
31
0.0
0
LINE
8
0
6
CONTINUOUS
10
-0.074693
20
0.015367
30
0.0
11
-0.074163
21
0.014367
31
0.0
0
LINE
8
0
6
CONTINUOUS
10
0.070853
20
0.013348
30
0.0
11
0.072758
21
0.013635
31
0.0
0
LINE
8
0
6
CONTINUOUS
10
0.069402
20
0.013348
30
0.0
11
0.070853
21
0.013348
31
0.0
0
LINE
8
0
6
CONTINUOUS
10
0.072758
20
0.013635
30
0.0
11
0.074163
21
0.014367
31
0.0
0
LINE
8
0
6
CONTINUOUS
10
0.074163
20
0.014367
30
0.0
11
0.074693
21
0.015367
31
0.0
0
LINE
8
0
6
CONTINUOUS
10
0.065351
20
0.013348
30
0.0
11
0.069402
21
0.013348
31
0.0
0
LINE
8
0
6
CONTINUOUS
10
0.058782
20
0.013348
30
0.0
11
0.065351
21
0.013348
31
0.0
0
LINE
8
0
6
CONTINUOUS
10
0.049956
20
0.013348
30
0.0
11
0.058782
21
0.013348
31
0.0
0
LINE
8
0
6
CONTINUOUS
10
0.039221
20
0.013348
30
0.0
11
0.049956
21
0.013348
31
0.0
0
LINE
8
0
6
CONTINUOUS
10
0.026998
20
0.013348
30
0.0
11
0.039221
21
0.013348
31
0.0
0
LINE
8
0
6
CONTINUOUS
10
0.013758
20
0.013348
30
0.0
11
0.026998
21
0.013348
31
0.0
0
LINE
8
0
6
CONTINUOUS
10
0.000000
20
0.013348
30
0.0
11
0.013758
21
0.013348
31
0.0
0
LINE
8
0
6
CONTINUOUS
10
-0.075048
20
0.025266
30
0.0
11
-0.074704
21
0.015886
31
0.0
0
LINE
8
0
6
CONTINUOUS
10
0.074704
20
0.015886
30
0.0
11
0.075048
21
0.025266
31
0.0
0
LINE
8
0
6
CONTINUOUS
10
-0.002404
20
-0.007426
30
0.0
11
-0.002404
21
-0.007478
31
0.0
0
LINE
8
0
6
CONTINUOUS
10
0.001166
20
-0.025671
30
0.0
11
0.001356
21
-0.025671
31
0.0
0
LINE
8
0
6
CONTINUOUS
10
0.001427
20
-0.025671
30
0.0
11
0.001696
21
-0.025541
31
0.0
0
LINE
8
0
6
CONTINUOUS
10
0.001356
20
-0.025671
30
0.0
11
0.001427
21
-0.025671
31
0.0
0
LINE
8
0
6
CONTINUOUS
10
0.000867
20
-0.025671
30
0.0
11
0.001166
21
-0.025671
31
0.0
0
LINE
8
0
6
CONTINUOUS
10
-0.002404
20
-0.025060
30
0.0
11
-0.002274
21
-0.025329
31
0.0
0
LINE
8
0
6
CONTINUOUS
10
-0.002274
20
-0.025329
30
0.0
11
-0.002063
21
-0.025541
31
0.0
0
LINE
8
0
6
CONTINUOUS
10
-0.001794
20
-0.025671
30
0.0
11
-0.001722
21
-0.025671
31
0.0
0
LINE
8
0
6
CONTINUOUS
10
-0.002063
20
-0.025541
30
0.0
11
-0.001794
21
-0.025671
31
0.0
0
LINE
8
0
6
CONTINUOUS
10
-0.001722
20
-0.025671
30
0.0
11
-0.001533
21
-0.025671
31
0.0
0
LINE
8
0
6
CONTINUOUS
10
-0.001533
20
-0.025671
30
0.0
11
-0.001234
21
-0.025671
31
0.0
0
LINE
8
0
6
CONTINUOUS
10
0.000045
20
-0.025671
30
0.0
11
0.000483
21
-0.025671
31
0.0
0
LINE
8
0
6
CONTINUOUS
10
-0.000411
20
-0.025671
30
0.0
11
-0.000183
21
-0.025671
31
0.0
0
LINE
8
0
6
CONTINUOUS
10
0.000483
20
-0.025671
30
0.0
11
0.000867
21
-0.025671
31
0.0
0
LINE
8
0
6
CONTINUOUS
10
-0.001234
20
-0.025671
30
0.0
11
-0.000850
21
-0.025671
31
0.0
0
LINE
8
0
6
CONTINUOUS
10
-0.000850
20
-0.025671
30
0.0
11
-0.000411
21
-0.025671
31
0.0
0
LINE
8
0
6
CONTINUOUS
10
0.001356
20
-0.006815
30
0.0
11
0.001166
21
-0.006815
31
0.0
0
LINE
8
0
6
CONTINUOUS
10
0.001427
20
-0.006815
30
0.0
11
0.001356
21
-0.006815
31
0.0
0
LINE
8
0
6
CONTINUOUS
10
0.001166
20
-0.006815
30
0.0
11
0.000867
21
-0.006815
31
0.0
0
LINE
8
0
6
CONTINUOUS
10
-0.001794
20
-0.006815
30
0.0
11
-0.002063
21
-0.006945
31
0.0
0
LINE
8
0
6
CONTINUOUS
10
-0.001722
20
-0.006815
30
0.0
11
-0.001794
21
-0.006815
31
0.0
0
LINE
8
0
6
CONTINUOUS
10
-0.002063
20
-0.006945
30
0.0
11
-0.002274
21
-0.007157
31
0.0
0
LINE
8
0
6
CONTINUOUS
10
-0.002274
20
-0.007157
30
0.0
11
-0.002404
21
-0.007426
31
0.0
0
LINE
8
0
6
CONTINUOUS
10
-0.001533
20
-0.006815
30
0.0
11
-0.001722
21
-0.006815
31
0.0
0
LINE
8
0
6
CONTINUOUS
10
-0.001234
20
-0.006815
30
0.0
11
-0.001533
21
-0.006815
31
0.0
0
LINE
8
0
6
CONTINUOUS
10
0.000483
20
-0.006815
30
0.0
11
0.000045
21
-0.006815
31
0.0
0
LINE
8
0
6
CONTINUOUS
10
-0.000183
20
-0.006815
30
0.0
11
-0.000411
21
-0.006815
31
0.0
0
LINE
8
0
6
CONTINUOUS
10
0.000867
20
-0.006815
30
0.0
11
0.000483
21
-0.006815
31
0.0
0
LINE
8
0
6
CONTINUOUS
10
-0.000850
20
-0.006815
30
0.0
11
-0.001234
21
-0.006815
31
0.0
0
LINE
8
0
6
CONTINUOUS
10
-0.000411
20
-0.006815
30
0.0
11
-0.000850
21
-0.006815
31
0.0
0
LINE
8
0
6
CONTINUOUS
10
-0.002404
20
-0.024927
30
0.0
11
-0.002404
21
-0.025060
31
0.0
0
LINE
8
0
6
CONTINUOUS
10
-0.002404
20
-0.007478
30
0.0
11
-0.002404
21
-0.024927
31
0.0
0
LINE
8
0
6
CONTINUOUS
10
-0.006454
20
-0.025673
30
0.0
11
-0.003399
21
-0.025673
31
0.0
0
LINE
8
0
6
CONTINUOUS
10
-0.009194
20
-0.025673
30
0.0
11
-0.006454
21
-0.025673
31
0.0
0
LINE
8
0
6
CONTINUOUS
10
-0.011483
20
-0.025673
30
0.0
11
-0.009194
21
-0.025673
31
0.0
0
LINE
8
0
6
CONTINUOUS
10
-0.013204
20
-0.025673
30
0.0
11
-0.011483
21
-0.025673
31
0.0
0
LINE
8
0
6
CONTINUOUS
10
-0.014273
20
-0.025673
30
0.0
11
-0.013204
21
-0.025673
31
0.0
0
LINE
8
0
6
CONTINUOUS
10
-0.014883
20
-0.025559
30
0.0
11
-0.014636
21
-0.025673
31
0.0
0
LINE
8
0
6
CONTINUOUS
10
-0.014636
20
-0.025673
30
0.0
11
-0.014273
21
-0.025673
31
0.0
0
LINE
8
0
6
CONTINUOUS
10
0.014270
20
-0.025673
30
0.0
11
0.014517
21
-0.025559
31
0.0
0
LINE
8
0
6
CONTINUOUS
10
0.013907
20
-0.025673
30
0.0
11
0.014270
21
-0.025673
31
0.0
0
LINE
8
0
6
CONTINUOUS
10
0.012838
20
-0.025673
30
0.0
11
0.013907
21
-0.025673
31
0.0
0
LINE
8
0
6
CONTINUOUS
10
0.011116
20
-0.025673
30
0.0
11
0.012838
21
-0.025673
31
0.0
0
LINE
8
0
6
CONTINUOUS
10
0.008828
20
-0.025673
30
0.0
11
0.011116
21
-0.025673
31
0.0
0
LINE
8
0
6
CONTINUOUS
10
0.006088
20
-0.025673
30
0.0
11
0.008828
21
-0.025673
31
0.0
0
LINE
8
0
6
CONTINUOUS
10
0.003033
20
-0.025673
30
0.0
11
0.006088
21
-0.025673
31
0.0
0
LINE
8
0
6
CONTINUOUS
10
0.012098
20
0.006241
30
0.0
11
0.012098
21
0.006569
31
0.0
0
LINE
8
0
6
CONTINUOUS
10
-0.012465
20
0.006569
30
0.0
11
-0.012465
21
0.006241
31
0.0
0
LINE
8
0
6
CONTINUOUS
10
-0.015117
20
0.005940
30
0.0
11
-0.015117
21
-0.025056
31
0.0
0
LINE
8
0
6
CONTINUOUS
10
0.014751
20
-0.025056
30
0.0
11
0.014751
21
0.005921
31
0.0
0
LINE
8
0
6
CONTINUOUS
10
-0.003441
20
0.006241
30
0.0
11
-0.000183
21
0.006241
31
0.0
0
LINE
8
0
6
CONTINUOUS
10
-0.000183
20
0.006241
30
0.0
11
-0.003212
21
0.006241
31
0.0
0
LINE
8
0
6
CONTINUOUS
10
-0.013796
20
0.006241
30
0.0
11
-0.014823
21
0.006241
31
0.0
0
LINE
8
0
6
CONTINUOUS
10
-0.013455
20
0.006241
30
0.0
11
-0.013796
21
0.006241
31
0.0
0
LINE
8
0
6
CONTINUOUS
10
0.014456
20
0.006241
30
0.0
11
0.013430
21
0.006241
31
0.0
0
LINE
8
0
6
CONTINUOUS
10
0.013430
20
0.006241
30
0.0
11
0.013089
21
0.006241
31
0.0
0
LINE
8
0
6
CONTINUOUS
10
-0.000183
20
0.006241
30
0.0
11
0.003075
21
0.006241
31
0.0
0
LINE
8
0
6
CONTINUOUS
10
0.002846
20
0.006241
30
0.0
11
-0.000183
21
0.006241
31
0.0
0
LINE
8
0
6
CONTINUOUS
10
-0.000183
20
0.006241
30
0.0
11
-0.003506
21
0.006241
31
0.0
0
LINE
8
0
6
CONTINUOUS
10
0.006297
20
0.006241
30
0.0
11
0.003140
21
0.006241
31
0.0
0
LINE
8
0
6
CONTINUOUS
10
0.014377
20
0.006241
30
0.0
11
0.013272
21
0.006241
31
0.0
0
LINE
8
0
6
CONTINUOUS
10
-0.015117
20
0.006241
30
0.0
11
-0.015117
21
0.005940
31
0.0
0
LINE
8
0
6
CONTINUOUS
10
-0.006663
20
0.006241
30
0.0
11
-0.009494
21
0.006241
31
0.0
0
LINE
8
0
6
CONTINUOUS
10
0.013272
20
0.006241
30
0.0
11
0.011493
21
0.006241
31
0.0
0
LINE
8
0
6
CONTINUOUS
10
-0.009494
20
0.006241
30
0.0
11
-0.011859
21
0.006241
31
0.0
0
LINE
8
0
6
CONTINUOUS
10
0.003140
20
0.006241
30
0.0
11
-0.000183
21
0.006241
31
0.0
0
LINE
8
0
6
CONTINUOUS
10
0.011493
20
0.006241
30
0.0
11
0.009128
21
0.006241
31
0.0
0
LINE
8
0
6
CONTINUOUS
10
-0.011859
20
0.006241
30
0.0
11
-0.013638
21
0.006241
31
0.0
0
LINE
8
0
6
CONTINUOUS
10
0.014751
20
0.005940
30
0.0
11
0.014751
21
0.006241
31
0.0
0
LINE
8
0
6
CONTINUOUS
10
0.009128
20
0.006241
30
0.0
11
0.006297
21
0.006241
31
0.0
0
LINE
8
0
6
CONTINUOUS
10
-0.013638
20
0.006241
30
0.0
11
-0.014743
21
0.006241
31
0.0
0
LINE
8
0
6
CONTINUOUS
10
-0.003506
20
0.006241
30
0.0
11
-0.006663
21
0.006241
31
0.0
0
LINE
8
0
6
CONTINUOUS
10
-0.015117
20
-0.025102
30
0.0
11
-0.015059
21
-0.025360
31
0.0
0
LINE
8
0
6
CONTINUOUS
10
-0.015059
20
-0.025360
30
0.0
11
-0.014883
21
-0.025559
31
0.0
0
LINE
8
0
6
CONTINUOUS
10
0.014693
20
-0.025360
30
0.0
11
0.014751
21
-0.025102
31
0.0
0
LINE
8
0
6
CONTINUOUS
10
0.014517
20
-0.025559
30
0.0
11
0.014693
21
-0.025360
31
0.0
0
LINE
8
0
6
CONTINUOUS
10
-0.015117
20
0.006241
30
0.0
11
-0.014743
21
0.006241
31
0.0
0
LINE
8
0
6
CONTINUOUS
10
-0.014823
20
0.006241
30
0.0
11
-0.015117
21
0.006241
31
0.0
0
LINE
8
0
6
CONTINUOUS
10
0.014751
20
0.006241
30
0.0
11
0.014456
21
0.006241
31
0.0
0
LINE
8
0
6
CONTINUOUS
10
0.014377
20
0.006241
30
0.0
11
0.014751
21
0.006241
31
0.0
0
LINE
8
0
6
CONTINUOUS
10
-0.015117
20
-0.025056
30
0.0
11
-0.015117
21
-0.025102
31
0.0
0
LINE
8
0
6
CONTINUOUS
10
0.014751
20
-0.025102
30
0.0
11
0.014751
21
-0.025056
31
0.0
0
LINE
8
0
6
CONTINUOUS
10
-0.003506
20
0.006859
30
0.0
11
-0.000183
21
0.006859
31
0.0
0
LINE
8
0
6
CONTINUOUS
10
0.003140
20
0.006859
30
0.0
11
0.006297
21
0.006859
31
0.0
0
LINE
8
0
6
CONTINUOUS
10
0.013272
20
0.006859
30
0.0
11
0.014377
21
0.006859
31
0.0
0
LINE
8
0
6
CONTINUOUS
10
-0.015117
20
0.007345
30
0.0
11
-0.015117
21
0.006859
31
0.0
0
LINE
8
0
6
CONTINUOUS
10
-0.009494
20
0.006859
30
0.0
11
-0.006663
21
0.006859
31
0.0
0
LINE
8
0
6
CONTINUOUS
10
-0.011859
20
0.006859
30
0.0
11
-0.009494
21
0.006859
31
0.0
0
LINE
8
0
6
CONTINUOUS
10
-0.000183
20
0.006859
30
0.0
11
0.003140
21
0.006859
31
0.0
0
LINE
8
0
6
CONTINUOUS
10
0.009128
20
0.006859
30
0.0
11
0.011493
21
0.006859
31
0.0
0
LINE
8
0
6
CONTINUOUS
10
0.014751
20
0.006859
30
0.0
11
0.014751
21
0.007345
31
0.0
0
LINE
8
0
6
CONTINUOUS
10
0.006297
20
0.006859
30
0.0
11
0.009128
21
0.006859
31
0.0
0
LINE
8
0
6
CONTINUOUS
10
-0.014743
20
0.006859
30
0.0
11
-0.013638
21
0.006859
31
0.0
0
LINE
8
0
6
CONTINUOUS
10
-0.006663
20
0.006859
30
0.0
11
-0.003506
21
0.006859
31
0.0
0
LINE
8
0
6
CONTINUOUS
10
-0.011859
20
0.006859
30
0.0
11
-0.013638
21
0.006859
31
0.0
0
LINE
8
0
6
CONTINUOUS
10
-0.014743
20
0.006859
30
0.0
11
-0.015117
21
0.006859
31
0.0
0
LINE
8
0
6
CONTINUOUS
10
0.014751
20
0.006859
30
0.0
11
0.014377
21
0.006859
31
0.0
0
LINE
8
0
6
CONTINUOUS
10
0.013272
20
0.006859
30
0.0
11
0.011493
21
0.006859
31
0.0
0
LINE
8
0
6
CONTINUOUS
10
0.014751
20
0.007345
30
0.0
11
0.014751
21
0.013348
31
0.0
0
LINE
8
0
6
CONTINUOUS
10
-0.015117
20
0.013348
30
0.0
11
-0.015117
21
0.007345
31
0.0
0
LINE
8
0
6
CONTINUOUS
10
-0.000183
20
-0.025671
30
0.0
11
0.000045
21
-0.025671
31
0.0
0
LINE
8
0
6
CONTINUOUS
10
0.000045
20
-0.006815
30
0.0
11
-0.000183
21
-0.006815
31
0.0
0
LINE
8
0
6
CONTINUOUS
10
0.001803
20
-0.026239
30
0.0
11
0.002082
21
-0.026239
31
0.0
0
LINE
8
0
6
CONTINUOUS
10
0.002082
20
-0.026239
30
0.0
11
0.002187
21
-0.026239
31
0.0
0
LINE
8
0
6
CONTINUOUS
10
0.001363
20
-0.026239
30
0.0
11
0.001803
21
-0.026239
31
0.0
0
LINE
8
0
6
CONTINUOUS
10
-0.003261
20
-0.025736
30
0.0
11
-0.002950
21
-0.026047
31
0.0
0
LINE
8
0
6
CONTINUOUS
10
-0.002554
20
-0.026239
30
0.0
11
-0.002449
21
-0.026239
31
0.0
0
LINE
8
0
6
CONTINUOUS
10
-0.002950
20
-0.026047
30
0.0
11
-0.002554
21
-0.026239
31
0.0
0
LINE
8
0
6
CONTINUOUS
10
-0.002449
20
-0.026239
30
0.0
11
-0.002170
21
-0.026239
31
0.0
0
LINE
8
0
6
CONTINUOUS
10
-0.002170
20
-0.026239
30
0.0
11
-0.001729
21
-0.026239
31
0.0
0
LINE
8
0
6
CONTINUOUS
10
0.000153
20
-0.026239
30
0.0
11
0.000798
21
-0.026239
31
0.0
0
LINE
8
0
6
CONTINUOUS
10
-0.000519
20
-0.026239
30
0.0
11
-0.000183
21
-0.026239
31
0.0
0
LINE
8
0
6
CONTINUOUS
10
0.000798
20
-0.026239
30
0.0
11
0.001363
21
-0.026239
31
0.0
0
LINE
8
0
6
CONTINUOUS
10
-0.001729
20
-0.026239
30
0.0
11
-0.001164
21
-0.026239
31
0.0
0
LINE
8
0
6
CONTINUOUS
10
-0.001164
20
-0.026239
30
0.0
11
-0.000519
21
-0.026239
31
0.0
0
LINE
8
0
6
CONTINUOUS
10
-0.009413
20
-0.026241
30
0.0
11
-0.004917
21
-0.026241
31
0.0
0
LINE
8
0
6
CONTINUOUS
10
-0.013446
20
-0.026241
30
0.0
11
-0.009413
21
-0.026241
31
0.0
0
LINE
8
0
6
CONTINUOUS
10
-0.016814
20
-0.026241
30
0.0
11
-0.013446
21
-0.026241
31
0.0
0
LINE
8
0
6
CONTINUOUS
10
-0.019348
20
-0.026241
30
0.0
11
-0.016814
21
-0.026241
31
0.0
0
LINE
8
0
6
CONTINUOUS
10
-0.020921
20
-0.026241
30
0.0
11
-0.019348
21
-0.026241
31
0.0
0
LINE
8
0
6
CONTINUOUS
10
-0.021819
20
-0.026074
30
0.0
11
-0.021455
21
-0.026241
31
0.0
0
LINE
8
0
6
CONTINUOUS
10
-0.021455
20
-0.026241
30
0.0
11
-0.020921
21
-0.026241
31
0.0
0
LINE
8
0
6
CONTINUOUS
10
0.021088
20
-0.026241
30
0.0
11
0.021453
21
-0.026074
31
0.0
0
LINE
8
0
6
CONTINUOUS
10
0.020555
20
-0.026241
30
0.0
11
0.021088
21
-0.026241
31
0.0
0
LINE
8
0
6
CONTINUOUS
10
0.018982
20
-0.026241
30
0.0
11
0.020555
21
-0.026241
31
0.0
0
LINE
8
0
6
CONTINUOUS
10
0.016447
20
-0.026241
30
0.0
11
0.018982
21
-0.026241
31
0.0
0
LINE
8
0
6
CONTINUOUS
10
0.013079
20
-0.026241
30
0.0
11
0.016447
21
-0.026241
31
0.0
0
LINE
8
0
6
CONTINUOUS
10
0.009046
20
-0.026241
30
0.0
11
0.013079
21
-0.026241
31
0.0
0
LINE
8
0
6
CONTINUOUS
10
0.004550
20
-0.026241
30
0.0
11
0.009046
21
-0.026241
31
0.0
0
LINE
8
0
6
CONTINUOUS
10
0.020342
20
0.005921
30
0.0
11
0.020342
21
0.006569
31
0.0
0
LINE
8
0
6
CONTINUOUS
10
-0.020708
20
0.006569
30
0.0
11
-0.020708
21
0.005921
31
0.0
0
LINE
8
0
6
CONTINUOUS
10
-0.022163
20
0.005677
30
0.0
11
-0.022163
21
-0.025333
31
0.0
0
LINE
8
0
6
CONTINUOUS
10
0.021797
20
-0.025333
30
0.0
11
0.021797
21
0.005677
31
0.0
0
LINE
8
0
6
CONTINUOUS
10
-0.021190
20
0.005921
30
0.0
11
-0.019717
21
0.005921
31
0.0
0
LINE
8
0
6
CONTINUOUS
10
-0.020708
20
0.005921
30
0.0
11
-0.021730
21
0.005921
31
0.0
0
LINE
8
0
6
CONTINUOUS
10
0.021363
20
0.005921
30
0.0
11
0.020342
21
0.005921
31
0.0
0
LINE
8
0
6
CONTINUOUS
10
0.019351
20
0.005921
30
0.0
11
0.020823
21
0.005921
31
0.0
0
LINE
8
0
6
CONTINUOUS
10
0.021246
20
0.005921
30
0.0
11
0.019620
21
0.005921
31
0.0
0
LINE
8
0
6
CONTINUOUS
10
-0.022163
20
0.005921
30
0.0
11
-0.022163
21
0.005677
31
0.0
0
LINE
8
0
6
CONTINUOUS
10
0.019620
20
0.005921
30
0.0
11
0.017001
21
0.005921
31
0.0
0
LINE
8
0
6
CONTINUOUS
10
-0.015117
20
0.005921
30
0.0
11
-0.017368
21
0.005921
31
0.0
0
LINE
8
0
6
CONTINUOUS
10
0.017001
20
0.005921
30
0.0
11
0.014751
21
0.005921
31
0.0
0
LINE
8
0
6
CONTINUOUS
10
-0.017368
20
0.005921
30
0.0
11
-0.019987
21
0.005921
31
0.0
0
LINE
8
0
6
CONTINUOUS
10
0.021797
20
0.005677
30
0.0
11
0.021797
21
0.005921
31
0.0
0
LINE
8
0
6
CONTINUOUS
10
-0.019987
20
0.005921
30
0.0
11
-0.021612
21
0.005921
31
0.0
0
LINE
8
0
6
CONTINUOUS
10
-0.022163
20
-0.025401
30
0.0
11
-0.022078
21
-0.025781
31
0.0
0
LINE
8
0
6
CONTINUOUS
10
-0.022078
20
-0.025781
30
0.0
11
-0.021819
21
-0.026074
31
0.0
0
LINE
8
0
6
CONTINUOUS
10
0.021711
20
-0.025781
30
0.0
11
0.021797
21
-0.025401
31
0.0
0
LINE
8
0
6
CONTINUOUS
10
0.021453
20
-0.026074
30
0.0
11
0.021711
21
-0.025781
31
0.0
0
LINE
8
0
6
CONTINUOUS
10
-0.021612
20
0.005921
30
0.0
11
-0.021190
21
0.005921
31
0.0
0
LINE
8
0
6
CONTINUOUS
10
-0.022163
20
0.005921
30
0.0
11
-0.021612
21
0.005921
31
0.0
0
LINE
8
0
6
CONTINUOUS
10
-0.021730
20
0.005921
30
0.0
11
-0.022163
21
0.005921
31
0.0
0
LINE
8
0
6
CONTINUOUS
10
0.021797
20
0.005921
30
0.0
11
0.021363
21
0.005921
31
0.0
0
LINE
8
0
6
CONTINUOUS
10
0.021246
20
0.005921
30
0.0
11
0.021797
21
0.005921
31
0.0
0
LINE
8
0
6
CONTINUOUS
10
0.020823
20
0.005921
30
0.0
11
0.021246
21
0.005921
31
0.0
0
LINE
8
0
6
CONTINUOUS
10
-0.022163
20
-0.025333
30
0.0
11
-0.022163
21
-0.025401
31
0.0
0
LINE
8
0
6
CONTINUOUS
10
0.021797
20
-0.025401
30
0.0
11
0.021797
21
-0.025333
31
0.0
0
LINE
8
0
6
CONTINUOUS
10
0.019620
20
0.006569
30
0.0
11
0.021246
21
0.006569
31
0.0
0
LINE
8
0
6
CONTINUOUS
10
-0.022163
20
0.006813
30
0.0
11
-0.022163
21
0.006569
31
0.0
0
LINE
8
0
6
CONTINUOUS
10
-0.013888
20
0.006569
30
0.0
11
-0.012465
21
0.006569
31
0.0
0
LINE
8
0
6
CONTINUOUS
10
-0.017368
20
0.006569
30
0.0
11
-0.013888
21
0.006569
31
0.0
0
LINE
8
0
6
CONTINUOUS
10
0.013521
20
0.006569
30
0.0
11
0.017001
21
0.006569
31
0.0
0
LINE
8
0
6
CONTINUOUS
10
0.021797
20
0.006569
30
0.0
11
0.021797
21
0.006813
31
0.0
0
LINE
8
0
6
CONTINUOUS
10
0.012098
20
0.006569
30
0.0
11
0.013521
21
0.006569
31
0.0
0
LINE
8
0
6
CONTINUOUS
10
-0.021612
20
0.006569
30
0.0
11
-0.019987
21
0.006569
31
0.0
0
LINE
8
0
6
CONTINUOUS
10
-0.017368
20
0.006569
30
0.0
11
-0.019987
21
0.006569
31
0.0
0
LINE
8
0
6
CONTINUOUS
10
-0.021612
20
0.006569
30
0.0
11
-0.022163
21
0.006569
31
0.0
0
LINE
8
0
6
CONTINUOUS
10
0.021797
20
0.006569
30
0.0
11
0.021246
21
0.006569
31
0.0
0
LINE
8
0
6
CONTINUOUS
10
0.019620
20
0.006569
30
0.0
11
0.017001
21
0.006569
31
0.0
0
LINE
8
0
6
CONTINUOUS
10
0.021797
20
0.006813
30
0.0
11
0.021797
21
0.013348
31
0.0
0
LINE
8
0
6
CONTINUOUS
10
-0.022163
20
0.013348
30
0.0
11
-0.022163
21
0.006813
31
0.0
0
LINE
8
0
6
CONTINUOUS
10
-0.000183
20
-0.026239
30
0.0
11
0.000153
21
-0.026239
31
0.0
0
ENDSEC
0
EOF
