999
unknown String-ID: 20550
0
SECTION
2
HEADER
9
$ACADVER
1
AC1009
9
$DWGCODEPAGE
3
unknown String-ID: 20561
0
ENDSEC
0
SECTION
2
TABLES
0
TABLE
2
LAYER
70
1
0
LAYER
2
0
70
0
62
7
6
CONTINUOUS
0
ENDTAB
0
ENDSEC
0
SECTION
2
ENTITIES
0
LINE
8
0
6
CONTINUOUS
10
-0.012852
20
0.017798
30
0.0
11
-0.006664
21
0.015259
31
0.0
0
LINE
8
0
6
CONTINUOUS
10
-0.018248
20
0.058338
30
0.0
11
-0.022292
21
0.052942
31
0.0
0
LINE
8
0
6
CONTINUOUS
10
-0.022292
20
0.027237
30
0.0
11
-0.018248
21
0.021841
31
0.0
0
LINE
8
0
6
CONTINUOUS
10
-0.012852
20
0.062383
30
0.0
11
-0.018248
21
0.058338
31
0.0
0
LINE
8
0
6
CONTINUOUS
10
-0.025784
20
0.040090
30
0.0
11
-0.024831
21
0.033426
31
0.0
0
LINE
8
0
6
CONTINUOUS
10
-0.024831
20
0.033426
30
0.0
11
-0.022292
21
0.027237
31
0.0
0
LINE
8
0
6
CONTINUOUS
10
-0.024831
20
0.046754
30
0.0
11
-0.025784
21
0.040090
31
0.0
0
LINE
8
0
6
CONTINUOUS
10
-0.006664
20
0.015259
30
0.0
11
-0.000000
21
0.014306
31
0.0
0
LINE
8
0
6
CONTINUOUS
10
-0.018248
20
0.021841
30
0.0
11
-0.012852
21
0.017798
31
0.0
0
LINE
8
0
6
CONTINUOUS
10
-0.022292
20
0.052942
30
0.0
11
-0.024831
21
0.046754
31
0.0
0
LINE
8
0
6
CONTINUOUS
10
-0.006664
20
0.064920
30
0.0
11
-0.012852
21
0.062383
31
0.0
0
LINE
8
0
6
CONTINUOUS
10
-0.000000
20
0.065873
30
0.0
11
-0.006664
21
0.064920
31
0.0
0
LINE
8
0
6
CONTINUOUS
10
0.006664
20
0.015259
30
0.0
11
0.012852
21
0.017798
31
0.0
0
LINE
8
0
6
CONTINUOUS
10
0.022292
20
0.052942
30
0.0
11
0.018248
21
0.058338
31
0.0
0
LINE
8
0
6
CONTINUOUS
10
0.018248
20
0.021841
30
0.0
11
0.022292
21
0.027237
31
0.0
0
LINE
8
0
6
CONTINUOUS
10
0.018248
20
0.058338
30
0.0
11
0.012852
21
0.062383
31
0.0
0
LINE
8
0
6
CONTINUOUS
10
0.024831
20
0.033426
30
0.0
11
0.025784
21
0.040090
31
0.0
0
LINE
8
0
6
CONTINUOUS
10
0.022292
20
0.027237
30
0.0
11
0.024831
21
0.033426
31
0.0
0
LINE
8
0
6
CONTINUOUS
10
0.025784
20
0.040090
30
0.0
11
0.024831
21
0.046754
31
0.0
0
LINE
8
0
6
CONTINUOUS
10
-0.000000
20
0.014306
30
0.0
11
0.006664
21
0.015259
31
0.0
0
LINE
8
0
6
CONTINUOUS
10
0.012852
20
0.017798
30
0.0
11
0.018248
21
0.021841
31
0.0
0
LINE
8
0
6
CONTINUOUS
10
0.024831
20
0.046754
30
0.0
11
0.022292
21
0.052942
31
0.0
0
LINE
8
0
6
CONTINUOUS
10
0.012852
20
0.062383
30
0.0
11
0.006664
21
0.064920
31
0.0
0
LINE
8
0
6
CONTINUOUS
10
0.006664
20
0.064920
30
0.0
11
-0.000000
21
0.065873
31
0.0
0
LINE
8
0
6
CONTINUOUS
10
-0.023458
20
-0.010354
30
0.0
11
-0.028659
21
-0.017290
31
0.0
0
LINE
8
0
6
CONTINUOUS
10
-0.000000
20
-0.000667
30
0.0
11
-0.008567
21
-0.001891
31
0.0
0
LINE
8
0
6
CONTINUOUS
10
-0.016522
20
-0.005153
30
0.0
11
-0.023458
21
-0.010354
31
0.0
0
LINE
8
0
6
CONTINUOUS
10
-0.028659
20
-0.050337
30
0.0
11
-0.023458
21
-0.057273
31
0.0
0
LINE
8
0
6
CONTINUOUS
10
-0.008567
20
-0.065736
30
0.0
11
-0.000000
21
-0.066961
31
0.0
0
LINE
8
0
6
CONTINUOUS
10
-0.008567
20
-0.001891
30
0.0
11
-0.016522
21
-0.005153
31
0.0
0
LINE
8
0
6
CONTINUOUS
10
-0.016522
20
-0.062473
30
0.0
11
-0.008567
21
-0.065736
31
0.0
0
LINE
8
0
6
CONTINUOUS
10
-0.031923
20
-0.025246
30
0.0
11
-0.033147
21
-0.033813
31
0.0
0
LINE
8
0
6
CONTINUOUS
10
-0.023458
20
-0.057273
30
0.0
11
-0.016522
21
-0.062473
31
0.0
0
LINE
8
0
6
CONTINUOUS
10
-0.028659
20
-0.017290
30
0.0
11
-0.031923
21
-0.025246
31
0.0
0
LINE
8
0
6
CONTINUOUS
10
-0.031923
20
-0.042381
30
0.0
11
-0.028659
21
-0.050337
31
0.0
0
LINE
8
0
6
CONTINUOUS
10
-0.033147
20
-0.033813
30
0.0
11
-0.031923
21
-0.042381
31
0.0
0
LINE
8
0
6
CONTINUOUS
10
0.069355
20
0.028728
30
0.0
11
0.062418
21
0.041706
31
0.0
0
LINE
8
0
6
CONTINUOUS
10
0.028659
20
-0.017290
30
0.0
11
0.023458
21
-0.010354
31
0.0
0
LINE
8
0
6
CONTINUOUS
10
0.008567
20
-0.001891
30
0.0
11
-0.000000
21
-0.000667
31
0.0
0
LINE
8
0
6
CONTINUOUS
10
0.023458
20
-0.010354
30
0.0
11
0.016522
21
-0.005153
31
0.0
0
LINE
8
0
6
CONTINUOUS
10
0.023458
20
-0.057273
30
0.0
11
0.028659
21
-0.050337
31
0.0
0
LINE
8
0
6
CONTINUOUS
10
-0.000000
20
-0.066961
30
0.0
11
0.008567
21
-0.065736
31
0.0
0
LINE
8
0
6
CONTINUOUS
10
0.016522
20
-0.005153
30
0.0
11
0.008567
21
-0.001891
31
0.0
0
LINE
8
0
6
CONTINUOUS
10
0.008567
20
-0.065736
30
0.0
11
0.016522
21
-0.062473
31
0.0
0
LINE
8
0
6
CONTINUOUS
10
0.033147
20
-0.033813
30
0.0
11
0.031923
21
-0.025246
31
0.0
0
LINE
8
0
6
CONTINUOUS
10
0.016522
20
-0.062473
30
0.0
11
0.023458
21
-0.057273
31
0.0
0
LINE
8
0
6
CONTINUOUS
10
0.031923
20
-0.025246
30
0.0
11
0.028659
21
-0.017290
31
0.0
0
LINE
8
0
6
CONTINUOUS
10
0.028659
20
-0.050337
30
0.0
11
0.031923
21
-0.042381
31
0.0
0
LINE
8
0
6
CONTINUOUS
10
0.031923
20
-0.042381
30
0.0
11
0.033147
21
-0.033813
31
0.0
0
LINE
8
0
6
CONTINUOUS
10
0.028728
20
-0.069355
30
0.0
11
0.041706
21
-0.062418
31
0.0
0
LINE
8
0
6
CONTINUOUS
10
0.069355
20
-0.028728
30
0.0
11
0.073627
21
-0.014645
31
0.0
0
LINE
8
0
6
CONTINUOUS
10
0.028728
20
0.069355
30
0.0
11
0.014645
21
0.073627
31
0.0
0
LINE
8
0
6
CONTINUOUS
10
-0.028728
20
-0.069355
30
0.0
11
-0.014645
21
-0.073627
31
0.0
0
LINE
8
0
6
CONTINUOUS
10
-0.069355
20
-0.028728
30
0.0
11
-0.062418
21
-0.041706
31
0.0
0
LINE
8
0
6
CONTINUOUS
10
-0.069355
20
0.028728
30
0.0
11
-0.073627
21
0.014645
31
0.0
0
LINE
8
0
6
CONTINUOUS
10
-0.028728
20
0.069355
30
0.0
11
-0.041706
21
0.062418
31
0.0
0
LINE
8
0
6
CONTINUOUS
10
0.014645
20
0.073627
30
0.0
11
0.000000
21
0.075069
31
0.0
0
LINE
8
0
6
CONTINUOUS
10
0.062418
20
0.041706
30
0.0
11
0.053082
21
0.053082
31
0.0
0
LINE
8
0
6
CONTINUOUS
10
0.073627
20
-0.014645
30
0.0
11
0.075069
21
0.000000
31
0.0
0
LINE
8
0
6
CONTINUOUS
10
0.041706
20
-0.062418
30
0.0
11
0.053082
21
-0.053082
31
0.0
0
LINE
8
0
6
CONTINUOUS
10
-0.014645
20
-0.073627
30
0.0
11
0.000000
21
-0.075069
31
0.0
0
LINE
8
0
6
CONTINUOUS
10
-0.062418
20
-0.041706
30
0.0
11
-0.053082
21
-0.053082
31
0.0
0
LINE
8
0
6
CONTINUOUS
10
-0.073627
20
0.014645
30
0.0
11
-0.075069
21
0.000000
31
0.0
0
LINE
8
0
6
CONTINUOUS
10
-0.041706
20
0.062418
30
0.0
11
-0.053082
21
0.053082
31
0.0
0
LINE
8
0
6
CONTINUOUS
10
0.053082
20
0.053082
30
0.0
11
0.041706
21
0.062418
31
0.0
0
LINE
8
0
6
CONTINUOUS
10
0.075069
20
0.000000
30
0.0
11
0.073627
21
0.014645
31
0.0
0
LINE
8
0
6
CONTINUOUS
10
0.053082
20
-0.053082
30
0.0
11
0.062418
21
-0.041706
31
0.0
0
LINE
8
0
6
CONTINUOUS
10
0.000000
20
-0.075069
30
0.0
11
0.014645
21
-0.073627
31
0.0
0
LINE
8
0
6
CONTINUOUS
10
-0.053082
20
0.053082
30
0.0
11
-0.062418
21
0.041706
31
0.0
0
LINE
8
0
6
CONTINUOUS
10
0.000000
20
0.075069
30
0.0
11
-0.014645
21
0.073627
31
0.0
0
LINE
8
0
6
CONTINUOUS
10
-0.053082
20
-0.053082
30
0.0
11
-0.041706
21
-0.062418
31
0.0
0
LINE
8
0
6
CONTINUOUS
10
-0.075069
20
0.000000
30
0.0
11
-0.073627
21
-0.014645
31
0.0
0
LINE
8
0
6
CONTINUOUS
10
0.041706
20
0.062418
30
0.0
11
0.028728
21
0.069355
31
0.0
0
LINE
8
0
6
CONTINUOUS
10
0.073627
20
0.014645
30
0.0
11
0.069355
21
0.028728
31
0.0
0
LINE
8
0
6
CONTINUOUS
10
0.062418
20
-0.041706
30
0.0
11
0.069355
21
-0.028728
31
0.0
0
LINE
8
0
6
CONTINUOUS
10
0.014645
20
-0.073627
30
0.0
11
0.028728
21
-0.069355
31
0.0
0
LINE
8
0
6
CONTINUOUS
10
-0.073627
20
-0.014645
30
0.0
11
-0.069355
21
-0.028728
31
0.0
0
LINE
8
0
6
CONTINUOUS
10
-0.062418
20
0.041706
30
0.0
11
-0.069355
21
0.028728
31
0.0
0
LINE
8
0
6
CONTINUOUS
10
-0.014645
20
0.073627
30
0.0
11
-0.028728
21
0.069355
31
0.0
0
LINE
8
0
6
CONTINUOUS
10
-0.041706
20
-0.062418
30
0.0
11
-0.028728
21
-0.069355
31
0.0
0
LINE
8
0
6
CONTINUOUS
10
-0.028963
20
-0.017115
30
0.0
11
-0.023707
21
-0.010105
31
0.0
0
LINE
8
0
6
CONTINUOUS
10
-0.008658
20
-0.001553
30
0.0
11
-0.000000
21
-0.000316
31
0.0
0
LINE
8
0
6
CONTINUOUS
10
-0.023707
20
-0.010105
30
0.0
11
-0.016698
21
-0.004849
31
0.0
0
LINE
8
0
6
CONTINUOUS
10
-0.023707
20
-0.057522
30
0.0
11
-0.028963
21
-0.050512
31
0.0
0
LINE
8
0
6
CONTINUOUS
10
-0.000000
20
-0.067312
30
0.0
11
-0.008658
21
-0.066075
31
0.0
0
LINE
8
0
6
CONTINUOUS
10
-0.016698
20
-0.004849
30
0.0
11
-0.008658
21
-0.001553
31
0.0
0
LINE
8
0
6
CONTINUOUS
10
-0.008658
20
-0.066075
30
0.0
11
-0.016698
21
-0.062777
31
0.0
0
LINE
8
0
6
CONTINUOUS
10
-0.033499
20
-0.033813
30
0.0
11
-0.032261
21
-0.025155
31
0.0
0
LINE
8
0
6
CONTINUOUS
10
-0.016698
20
-0.062777
30
0.0
11
-0.023707
21
-0.057522
31
0.0
0
LINE
8
0
6
CONTINUOUS
10
-0.032261
20
-0.025155
30
0.0
11
-0.028963
21
-0.017115
31
0.0
0
LINE
8
0
6
CONTINUOUS
10
-0.028963
20
-0.050512
30
0.0
11
-0.032261
21
-0.042472
31
0.0
0
LINE
8
0
6
CONTINUOUS
10
-0.032261
20
-0.042472
30
0.0
11
-0.033499
21
-0.033813
31
0.0
0
LINE
8
0
6
CONTINUOUS
10
-0.018525
20
0.021564
30
0.0
11
-0.022631
21
0.027042
31
0.0
0
LINE
8
0
6
CONTINUOUS
10
-0.006765
20
0.065298
30
0.0
11
-0.000000
21
0.066265
31
0.0
0
LINE
8
0
6
CONTINUOUS
10
-0.022631
20
0.053138
30
0.0
11
-0.018525
21
0.058616
31
0.0
0
LINE
8
0
6
CONTINUOUS
10
-0.013047
20
0.062722
30
0.0
11
-0.006765
21
0.065298
31
0.0
0
LINE
8
0
6
CONTINUOUS
10
-0.006765
20
0.014881
30
0.0
11
-0.013047
21
0.017458
31
0.0
0
LINE
8
0
6
CONTINUOUS
10
-0.025209
20
0.046855
30
0.0
11
-0.022631
21
0.053138
31
0.0
0
LINE
8
0
6
CONTINUOUS
10
-0.022631
20
0.027042
30
0.0
11
-0.025209
21
0.033324
31
0.0
0
LINE
8
0
6
CONTINUOUS
10
-0.026176
20
0.040090
30
0.0
11
-0.025209
21
0.046855
31
0.0
0
LINE
8
0
6
CONTINUOUS
10
-0.000000
20
0.013913
30
0.0
11
-0.006765
21
0.014881
31
0.0
0
LINE
8
0
6
CONTINUOUS
10
-0.013047
20
0.017458
30
0.0
11
-0.018525
21
0.021564
31
0.0
0
LINE
8
0
6
CONTINUOUS
10
-0.025209
20
0.033324
30
0.0
11
-0.026176
21
0.040090
31
0.0
0
LINE
8
0
6
CONTINUOUS
10
-0.018525
20
0.058616
30
0.0
11
-0.013047
21
0.062722
31
0.0
0
LINE
8
0
6
CONTINUOUS
10
0.023707
20
-0.010105
30
0.0
11
0.028963
21
-0.017115
31
0.0
0
LINE
8
0
6
CONTINUOUS
10
-0.000000
20
-0.000316
30
0.0
11
0.008658
21
-0.001553
31
0.0
0
LINE
8
0
6
CONTINUOUS
10
0.016698
20
-0.004849
30
0.0
11
0.023707
21
-0.010105
31
0.0
0
LINE
8
0
6
CONTINUOUS
10
0.028963
20
-0.050512
30
0.0
11
0.023707
21
-0.057522
31
0.0
0
LINE
8
0
6
CONTINUOUS
10
0.008658
20
-0.066075
30
0.0
11
-0.000000
21
-0.067312
31
0.0
0
LINE
8
0
6
CONTINUOUS
10
0.008658
20
-0.001553
30
0.0
11
0.016698
21
-0.004849
31
0.0
0
LINE
8
0
6
CONTINUOUS
10
0.016698
20
-0.062777
30
0.0
11
0.008658
21
-0.066075
31
0.0
0
LINE
8
0
6
CONTINUOUS
10
0.032261
20
-0.025155
30
0.0
11
0.033499
21
-0.033813
31
0.0
0
LINE
8
0
6
CONTINUOUS
10
0.023707
20
-0.057522
30
0.0
11
0.016698
21
-0.062777
31
0.0
0
LINE
8
0
6
CONTINUOUS
10
0.028963
20
-0.017115
30
0.0
11
0.032261
21
-0.025155
31
0.0
0
LINE
8
0
6
CONTINUOUS
10
0.032261
20
-0.042472
30
0.0
11
0.028963
21
-0.050512
31
0.0
0
LINE
8
0
6
CONTINUOUS
10
0.033499
20
-0.033813
30
0.0
11
0.032261
21
-0.042472
31
0.0
0
LINE
8
0
6
CONTINUOUS
10
0.022631
20
0.027042
30
0.0
11
0.018525
21
0.021564
31
0.0
0
LINE
8
0
6
CONTINUOUS
10
-0.000000
20
0.066265
30
0.0
11
0.006765
21
0.065298
31
0.0
0
LINE
8
0
6
CONTINUOUS
10
0.018525
20
0.058616
30
0.0
11
0.022631
21
0.053138
31
0.0
0
LINE
8
0
6
CONTINUOUS
10
0.006765
20
0.065298
30
0.0
11
0.013047
21
0.062722
31
0.0
0
LINE
8
0
6
CONTINUOUS
10
0.013047
20
0.017458
30
0.0
11
0.006765
21
0.014881
31
0.0
0
LINE
8
0
6
CONTINUOUS
10
0.022631
20
0.053138
30
0.0
11
0.025209
21
0.046855
31
0.0
0
LINE
8
0
6
CONTINUOUS
10
0.025209
20
0.033324
30
0.0
11
0.022631
21
0.027042
31
0.0
0
LINE
8
0
6
CONTINUOUS
10
0.025209
20
0.046855
30
0.0
11
0.026176
21
0.040090
31
0.0
0
LINE
8
0
6
CONTINUOUS
10
0.006765
20
0.014881
30
0.0
11
-0.000000
21
0.013913
31
0.0
0
LINE
8
0
6
CONTINUOUS
10
0.018525
20
0.021564
30
0.0
11
0.013047
21
0.017458
31
0.0
0
LINE
8
0
6
CONTINUOUS
10
0.026176
20
0.040090
30
0.0
11
0.025209
21
0.033324
31
0.0
0
LINE
8
0
6
CONTINUOUS
10
0.013047
20
0.062722
30
0.0
11
0.018525
21
0.058616
31
0.0
0
LINE
8
0
6
CONTINUOUS
10
0.001948
20
0.065930
30
0.0
11
0.001686
21
0.066505
31
0.0
0
LINE
8
0
6
CONTINUOUS
10
0.002038
20
0.065304
30
0.0
11
0.001948
21
0.065930
31
0.0
0
LINE
8
0
6
CONTINUOUS
10
0.001686
20
0.066505
30
0.0
11
0.001272
21
0.066983
31
0.0
0
LINE
8
0
6
CONTINUOUS
10
-0.002314
20
0.065930
30
0.0
11
-0.002404
21
0.065304
31
0.0
0
LINE
8
0
6
CONTINUOUS
10
-0.002052
20
0.066505
30
0.0
11
-0.002314
21
0.065930
31
0.0
0
LINE
8
0
6
CONTINUOUS
10
-0.001638
20
0.066983
30
0.0
11
-0.002052
21
0.066505
31
0.0
0
LINE
8
0
6
CONTINUOUS
10
0.000740
20
0.067325
30
0.0
11
0.000133
21
0.067503
31
0.0
0
LINE
8
0
6
CONTINUOUS
10
-0.000183
20
0.067503
30
0.0
11
-0.000499
21
0.067503
31
0.0
0
LINE
8
0
6
CONTINUOUS
10
0.001272
20
0.066983
30
0.0
11
0.000740
21
0.067325
31
0.0
0
LINE
8
0
6
CONTINUOUS
10
-0.001106
20
0.067325
30
0.0
11
-0.001638
21
0.066983
31
0.0
0
LINE
8
0
6
CONTINUOUS
10
-0.000499
20
0.067503
30
0.0
11
-0.001106
21
0.067325
31
0.0
0
LINE
8
0
6
CONTINUOUS
10
0.002038
20
0.054735
30
0.0
11
0.002038
21
0.065304
31
0.0
0
LINE
8
0
6
CONTINUOUS
10
-0.002404
20
0.065304
30
0.0
11
-0.002404
21
0.054735
31
0.0
0
LINE
8
0
6
CONTINUOUS
10
-0.001794
20
0.054264
30
0.0
11
-0.001726
21
0.054272
31
0.0
0
LINE
8
0
6
CONTINUOUS
10
0.001360
20
0.054272
30
0.0
11
0.001427
21
0.054264
31
0.0
0
LINE
8
0
6
CONTINUOUS
10
-0.001726
20
0.054272
30
0.0
11
-0.000183
21
0.054445
31
0.0
0
LINE
8
0
6
CONTINUOUS
10
-0.002404
20
0.054735
30
0.0
11
-0.003506
21
0.054611
31
0.0
0
LINE
8
0
6
CONTINUOUS
10
-0.003506
20
0.054611
30
0.0
11
-0.006663
21
0.053507
31
0.0
0
LINE
8
0
6
CONTINUOUS
10
-0.006663
20
0.053507
30
0.0
11
-0.009494
21
0.051728
31
0.0
0
LINE
8
0
6
CONTINUOUS
10
-0.009494
20
0.051728
30
0.0
11
-0.011859
21
0.049363
31
0.0
0
LINE
8
0
6
CONTINUOUS
10
-0.011859
20
0.049363
30
0.0
11
-0.013638
21
0.046531
31
0.0
0
LINE
8
0
6
CONTINUOUS
10
-0.013638
20
0.046531
30
0.0
11
-0.014743
21
0.043375
31
0.0
0
LINE
8
0
6
CONTINUOUS
10
-0.014743
20
0.043375
30
0.0
11
-0.015117
21
0.040052
31
0.0
0
LINE
8
0
6
CONTINUOUS
10
-0.015117
20
0.040052
30
0.0
11
-0.014743
21
0.036728
31
0.0
0
LINE
8
0
6
CONTINUOUS
10
-0.014743
20
0.036728
30
0.0
11
-0.013638
21
0.033572
31
0.0
0
LINE
8
0
6
CONTINUOUS
10
-0.013638
20
0.033572
30
0.0
11
-0.011859
21
0.030740
31
0.0
0
LINE
8
0
6
CONTINUOUS
10
-0.011859
20
0.030740
30
0.0
11
-0.009494
21
0.028376
31
0.0
0
LINE
8
0
6
CONTINUOUS
10
-0.009494
20
0.028376
30
0.0
11
-0.006663
21
0.026596
31
0.0
0
LINE
8
0
6
CONTINUOUS
10
-0.006663
20
0.026596
30
0.0
11
-0.003506
21
0.025492
31
0.0
0
LINE
8
0
6
CONTINUOUS
10
-0.003506
20
0.025492
30
0.0
11
-0.000183
21
0.025117
31
0.0
0
LINE
8
0
6
CONTINUOUS
10
-0.000183
20
0.025117
30
0.0
11
0.003140
21
0.025492
31
0.0
0
LINE
8
0
6
CONTINUOUS
10
0.003140
20
0.025492
30
0.0
11
0.006297
21
0.026596
31
0.0
0
LINE
8
0
6
CONTINUOUS
10
0.006297
20
0.026596
30
0.0
11
0.009128
21
0.028376
31
0.0
0
LINE
8
0
6
CONTINUOUS
10
0.009128
20
0.028376
30
0.0
11
0.011493
21
0.030740
31
0.0
0
LINE
8
0
6
CONTINUOUS
10
0.011493
20
0.030740
30
0.0
11
0.013272
21
0.033572
31
0.0
0
LINE
8
0
6
CONTINUOUS
10
0.013272
20
0.033572
30
0.0
11
0.014377
21
0.036728
31
0.0
0
LINE
8
0
6
CONTINUOUS
10
0.014377
20
0.036728
30
0.0
11
0.014751
21
0.040052
31
0.0
0
LINE
8
0
6
CONTINUOUS
10
0.014751
20
0.040052
30
0.0
11
0.014377
21
0.043375
31
0.0
0
LINE
8
0
6
CONTINUOUS
10
0.014377
20
0.043375
30
0.0
11
0.013272
21
0.046531
31
0.0
0
LINE
8
0
6
CONTINUOUS
10
0.013272
20
0.046531
30
0.0
11
0.011493
21
0.049363
31
0.0
0
LINE
8
0
6
CONTINUOUS
10
0.011493
20
0.049363
30
0.0
11
0.009128
21
0.051728
31
0.0
0
LINE
8
0
6
CONTINUOUS
10
0.009128
20
0.051728
30
0.0
11
0.006297
21
0.053507
31
0.0
0
LINE
8
0
6
CONTINUOUS
10
0.006297
20
0.053507
30
0.0
11
0.003140
21
0.054611
31
0.0
0
LINE
8
0
6
CONTINUOUS
10
0.003140
20
0.054611
30
0.0
11
0.002038
21
0.054735
31
0.0
0
LINE
8
0
6
CONTINUOUS
10
0.000133
20
0.067503
30
0.0
11
-0.000183
21
0.067503
31
0.0
0
LINE
8
0
6
CONTINUOUS
10
-0.000183
20
0.054445
30
0.0
11
0.001360
21
0.054272
31
0.0
0
LINE
8
0
6
CONTINUOUS
10
0.004726
20
-0.059768
30
0.0
11
0.004726
21
-0.055371
31
0.0
0
LINE
8
0
6
CONTINUOUS
10
-0.005092
20
-0.055371
30
0.0
11
-0.005092
21
-0.059768
31
0.0
0
LINE
8
0
6
CONTINUOUS
10
-0.000183
20
-0.060318
30
0.0
11
0.000959
21
-0.060318
31
0.0
0
LINE
8
0
6
CONTINUOUS
10
0.000959
20
-0.060318
30
0.0
11
0.002024
21
-0.060318
31
0.0
0
LINE
8
0
6
CONTINUOUS
10
0.002024
20
-0.060318
30
0.0
11
0.002938
21
-0.060318
31
0.0
0
LINE
8
0
6
CONTINUOUS
10
0.002938
20
-0.060318
30
0.0
11
0.003639
21
-0.060318
31
0.0
0
LINE
8
0
6
CONTINUOUS
10
0.004231
20
-0.060317
30
0.0
11
0.004478
21
-0.060252
31
0.0
0
LINE
8
0
6
CONTINUOUS
10
0.004478
20
-0.060252
30
0.0
11
0.004660
21
-0.060072
31
0.0
0
LINE
8
0
6
CONTINUOUS
10
0.004660
20
-0.060072
30
0.0
11
0.004726
21
-0.059827
31
0.0
0
LINE
8
0
6
CONTINUOUS
10
-0.004597
20
-0.060318
30
0.0
11
-0.004447
21
-0.060318
31
0.0
0
LINE
8
0
6
CONTINUOUS
10
-0.004845
20
-0.060252
30
0.0
11
-0.004597
21
-0.060318
31
0.0
0
LINE
8
0
6
CONTINUOUS
10
-0.005026
20
-0.060072
30
0.0
11
-0.004845
21
-0.060252
31
0.0
0
LINE
8
0
6
CONTINUOUS
10
-0.005092
20
-0.059827
30
0.0
11
-0.005026
21
-0.060072
31
0.0
0
LINE
8
0
6
CONTINUOUS
10
-0.004447
20
-0.060318
30
0.0
11
-0.004006
21
-0.060318
31
0.0
0
LINE
8
0
6
CONTINUOUS
10
-0.004006
20
-0.060318
30
0.0
11
-0.003304
21
-0.060318
31
0.0
0
LINE
8
0
6
CONTINUOUS
10
-0.003304
20
-0.060318
30
0.0
11
-0.002390
21
-0.060318
31
0.0
0
LINE
8
0
6
CONTINUOUS
10
-0.002390
20
-0.060318
30
0.0
11
-0.001326
21
-0.060318
31
0.0
0
LINE
8
0
6
CONTINUOUS
10
-0.001326
20
-0.060318
30
0.0
11
-0.000183
21
-0.060318
31
0.0
0
LINE
8
0
6
CONTINUOUS
10
0.004726
20
-0.059827
30
0.0
11
0.004726
21
-0.059768
31
0.0
0
LINE
8
0
6
CONTINUOUS
10
-0.005092
20
-0.059768
30
0.0
11
-0.005092
21
-0.059827
31
0.0
0
LINE
8
0
6
CONTINUOUS
10
0.002954
20
-0.000835
30
0.0
11
0.002567
21
0.000011
31
0.0
0
LINE
8
0
6
CONTINUOUS
10
0.003086
20
-0.001756
30
0.0
11
0.002954
21
-0.000835
31
0.0
0
LINE
8
0
6
CONTINUOUS
10
0.002567
20
0.000011
30
0.0
11
0.001958
21
0.000714
31
0.0
0
LINE
8
0
6
CONTINUOUS
10
-0.003320
20
-0.000835
30
0.0
11
-0.003453
21
-0.001756
31
0.0
0
LINE
8
0
6
CONTINUOUS
10
-0.002934
20
0.000011
30
0.0
11
-0.003320
21
-0.000835
31
0.0
0
LINE
8
0
6
CONTINUOUS
10
-0.002324
20
0.000714
30
0.0
11
-0.002934
21
0.000011
31
0.0
0
LINE
8
0
6
CONTINUOUS
10
0.001175
20
0.001218
30
0.0
11
0.000282
21
0.001480
31
0.0
0
LINE
8
0
6
CONTINUOUS
10
-0.000183
20
0.001480
30
0.0
11
-0.000649
21
0.001480
31
0.0
0
LINE
8
0
6
CONTINUOUS
10
0.001958
20
0.000714
30
0.0
11
0.001175
21
0.001218
31
0.0
0
LINE
8
0
6
CONTINUOUS
10
-0.001542
20
0.001218
30
0.0
11
-0.002324
21
0.000714
31
0.0
0
LINE
8
0
6
CONTINUOUS
10
-0.000649
20
0.001480
30
0.0
11
-0.001542
21
0.001218
31
0.0
0
LINE
8
0
6
CONTINUOUS
10
0.003086
20
-0.012337
30
0.0
11
0.003086
21
-0.001756
31
0.0
0
LINE
8
0
6
CONTINUOUS
10
-0.003453
20
-0.001756
30
0.0
11
-0.003453
21
-0.012336
31
0.0
0
LINE
8
0
6
CONTINUOUS
10
-0.002554
20
-0.013032
30
0.0
11
-0.002454
21
-0.013020
31
0.0
0
LINE
8
0
6
CONTINUOUS
10
0.002088
20
-0.013020
30
0.0
11
0.002187
21
-0.013032
31
0.0
0
LINE
8
0
6
CONTINUOUS
10
-0.002454
20
-0.013020
30
0.0
11
-0.000183
21
-0.012764
31
0.0
0
LINE
8
0
6
CONTINUOUS
10
-0.003453
20
-0.012337
30
0.0
11
-0.005074
21
-0.012519
31
0.0
0
LINE
8
0
6
CONTINUOUS
10
-0.005074
20
-0.012519
30
0.0
11
-0.009720
21
-0.014145
31
0.0
0
LINE
8
0
6
CONTINUOUS
10
-0.009720
20
-0.014145
30
0.0
11
-0.013888
21
-0.016764
31
0.0
0
LINE
8
0
6
CONTINUOUS
10
-0.013888
20
-0.016764
30
0.0
11
-0.017368
21
-0.020244
31
0.0
0
LINE
8
0
6
CONTINUOUS
10
-0.017368
20
-0.020244
30
0.0
11
-0.019987
21
-0.024411
31
0.0
0
LINE
8
0
6
CONTINUOUS
10
-0.019987
20
-0.024411
30
0.0
11
-0.021612
21
-0.029057
31
0.0
0
LINE
8
0
6
CONTINUOUS
10
-0.021612
20
-0.029057
30
0.0
11
-0.022163
21
-0.033948
31
0.0
0
LINE
8
0
6
CONTINUOUS
10
-0.022163
20
-0.033948
30
0.0
11
-0.021612
21
-0.038839
31
0.0
0
LINE
8
0
6
CONTINUOUS
10
-0.021612
20
-0.038839
30
0.0
11
-0.019987
21
-0.043485
31
0.0
0
LINE
8
0
6
CONTINUOUS
10
-0.019987
20
-0.043485
30
0.0
11
-0.017368
21
-0.047653
31
0.0
0
LINE
8
0
6
CONTINUOUS
10
-0.017368
20
-0.047653
30
0.0
11
-0.013888
21
-0.051133
31
0.0
0
LINE
8
0
6
CONTINUOUS
10
-0.013888
20
-0.051133
30
0.0
11
-0.009720
21
-0.053752
31
0.0
0
LINE
8
0
6
CONTINUOUS
10
-0.009720
20
-0.053752
30
0.0
11
-0.005092
21
-0.055371
31
0.0
0
LINE
8
0
6
CONTINUOUS
10
-0.005074
20
-0.055377
30
0.0
11
-0.000183
21
-0.055928
31
0.0
0
LINE
8
0
6
CONTINUOUS
10
-0.000183
20
-0.055928
30
0.0
11
0.004708
21
-0.055377
31
0.0
0
LINE
8
0
6
CONTINUOUS
10
0.004708
20
-0.055377
30
0.0
11
0.009354
21
-0.053752
31
0.0
0
LINE
8
0
6
CONTINUOUS
10
0.009354
20
-0.053752
30
0.0
11
0.013521
21
-0.051133
31
0.0
0
LINE
8
0
6
CONTINUOUS
10
0.013521
20
-0.051133
30
0.0
11
0.017001
21
-0.047653
31
0.0
0
LINE
8
0
6
CONTINUOUS
10
0.017001
20
-0.047653
30
0.0
11
0.019620
21
-0.043485
31
0.0
0
LINE
8
0
6
CONTINUOUS
10
0.019620
20
-0.043485
30
0.0
11
0.021246
21
-0.038839
31
0.0
0
LINE
8
0
6
CONTINUOUS
10
0.021246
20
-0.038839
30
0.0
11
0.021797
21
-0.033948
31
0.0
0
LINE
8
0
6
CONTINUOUS
10
0.021797
20
-0.033948
30
0.0
11
0.021246
21
-0.029057
31
0.0
0
LINE
8
0
6
CONTINUOUS
10
0.021246
20
-0.029057
30
0.0
11
0.019620
21
-0.024411
31
0.0
0
LINE
8
0
6
CONTINUOUS
10
0.019620
20
-0.024411
30
0.0
11
0.017001
21
-0.020244
31
0.0
0
LINE
8
0
6
CONTINUOUS
10
0.017001
20
-0.020244
30
0.0
11
0.013521
21
-0.016764
31
0.0
0
LINE
8
0
6
CONTINUOUS
10
0.013521
20
-0.016764
30
0.0
11
0.009354
21
-0.014145
31
0.0
0
LINE
8
0
6
CONTINUOUS
10
0.009354
20
-0.014145
30
0.0
11
0.004708
21
-0.012519
31
0.0
0
LINE
8
0
6
CONTINUOUS
10
0.004708
20
-0.012519
30
0.0
11
0.003086
21
-0.012337
31
0.0
0
LINE
8
0
6
CONTINUOUS
10
0.000282
20
0.001480
30
0.0
11
-0.000183
21
0.001480
31
0.0
0
LINE
8
0
6
CONTINUOUS
10
-0.000183
20
-0.012764
30
0.0
11
0.002088
21
-0.013020
31
0.0
0
ENDSEC
0
EOF
